  0
SECTION
  2
HEADER
  9
$ACADVER
  1
AC1009
  9
$INSBASE
 10
81.8643118457314358
 20
-28.3842061489174213
 30
0.0
  9
$EXTMIN
 10
79.797264902797707
 20
-28.3867567245676788
 30
-0.0000000349181948
  9
$EXTMAX
 10
86.4950984914658534
 20
-24.8352918764315405
 30
0.0000000814935746
  9
$LIMMIN
 10
0.0
 20
0.0
  9
$LIMMAX
 10
11.6929133858000007
 20
8.2677165353999982
  9
$ORTHOMODE
 70
     0
  9
$REGENMODE
 70
     1
  9
$FILLMODE
 70
     1
  9
$QTEXTMODE
 70
     0
  9
$MIRRTEXT
 70
     0
  9
$DRAGMODE
 70
     2
  9
$LTSCALE
 40
0.6431102362
  9
$OSMODE
 70
  4095
  9
$ATTMODE
 70
     1
  9
$TEXTSIZE
 40
0.2
  9
$TRACEWID
 40
0.05
  9
$TEXTSTYLE
  7
STANDARD
  9
$CLAYER
  8
0
  9
$CELTYPE
  6
BYLAYER
  9
$CECOLOR
 62
   256
  9
$DIMSCALE
 40
1.0
  9
$DIMASZ
 40
0.1875
  9
$DIMEXO
 40
0.0625
  9
$DIMDLI
 40
0.4443307087
  9
$DIMRND
 40
0.0
  9
$DIMDLE
 40
0.0
  9
$DIMEXE
 40
0.125
  9
$DIMTP
 40
0.01
  9
$DIMTM
 40
0.01
  9
$DIMTXT
 40
1.0
  9
$DIMCEN
 40
0.1052362205
  9
$DIMTSZ
 40
0.0
  9
$DIMTOL
 70
     1
  9
$DIMLIM
 70
     0
  9
$DIMTIH
 70
     1
  9
$DIMTOH
 70
     1
  9
$DIMSE1
 70
     0
  9
$DIMSE2
 70
     0
  9
$DIMTAD
 70
     0
  9
$DIMZIN
 70
     0
  9
$DIMBLK
  1

  9
$DIMASO
 70
     1
  9
$DIMSHO
 70
     1
  9
$DIMPOST
  1
\X
  9
$DIMAPOST
  1

  9
$DIMALT
 70
     1
  9
$DIMALTD
 70
     2
  9
$DIMALTF
 40
25.3999999999999986
  9
$DIMLFAC
 40
1.0
  9
$DIMTOFL
 70
     0
  9
$DIMTVP
 40
0.0
  9
$DIMTIX
 70
     0
  9
$DIMSOXD
 70
     0
  9
$DIMSAH
 70
     0
  9
$DIMBLK1
  1

  9
$DIMBLK2
  1

  9
$DIMSTYLE
  2
STANDARD
  9
$DIMCLRD
 70
     0
  9
$DIMCLRE
 70
     0
  9
$DIMCLRT
 70
     0
  9
$DIMTFAC
 40
1.0
  9
$DIMGAP
 40
0.09
  9
$LUNITS
 70
     2
  9
$LUPREC
 70
     4
  9
$SKETCHINC
 40
0.1
  9
$FILLETRAD
 40
0.0
  9
$AUNITS
 70
     0
  9
$AUPREC
 70
     0
  9
$MENU
  1
.
  9
$ELEVATION
 40
0.0
  9
$PELEVATION
 40
0.0
  9
$THICKNESS
 40
0.0
  9
$LIMCHECK
 70
     0
  9
$BLIPMODE
 70
     0
  9
$CHAMFERA
 40
0.0
  9
$CHAMFERB
 40
0.0
  9
$SKPOLY
 70
     0
  9
$TDCREATE
 40
2458172.4620254631154239
  9
$TDUPDATE
 40
2459150.8137847217731178
  9
$TDINDWG
 40
0.1302605671
  9
$TDUSRTIMER
 40
0.1302605671
  9
$USRTIMER
 70
     1
  9
$ANGBASE
 50
0.0
  9
$ANGDIR
 70
     0
  9
$PDMODE
 70
     0
  9
$PDSIZE
 40
0.3125
  9
$PLINEWID
 40
0.0
  9
$COORDS
 70
     1
  9
$SPLFRAME
 70
     0
  9
$SPLINETYPE
 70
     6
  9
$SPLINESEGS
 70
     8
  9
$ATTDIA
 70
     1
  9
$ATTREQ
 70
     1
  9
$HANDLING
 70
     1
  9
$HANDSEED
  5
100E2
  9
$SURFTAB1
 70
     6
  9
$SURFTAB2
 70
     6
  9
$SURFTYPE
 70
     6
  9
$SURFU
 70
     6
  9
$SURFV
 70
     6
  9
$UCSNAME
  2

  9
$UCSORG
 10
0.0
 20
0.0
 30
0.0
  9
$UCSXDIR
 10
1.0
 20
0.0
 30
0.0
  9
$UCSYDIR
 10
0.0
 20
1.0
 30
0.0
  9
$PUCSNAME
  2

  9
$PUCSORG
 10
0.0
 20
0.0
 30
0.0
  9
$PUCSXDIR
 10
1.0
 20
0.0
 30
0.0
  9
$PUCSYDIR
 10
0.0
 20
1.0
 30
0.0
  9
$USERI1
 70
     0
  9
$USERI2
 70
     0
  9
$USERI3
 70
     0
  9
$USERI4
 70
     0
  9
$USERI5
 70
     0
  9
$USERR1
 40
0.0
  9
$USERR2
 40
0.0
  9
$USERR3
 40
0.0
  9
$USERR4
 40
0.0
  9
$USERR5
 40
0.0
  9
$WORLDVIEW
 70
     1
  9
$SHADEDGE
 70
     3
  9
$SHADEDIF
 70
    70
  9
$TILEMODE
 70
     1
  9
$MAXACTVP
 70
    64
  9
$PLIMCHECK
 70
     0
  9
$PEXTMIN
 10
1.0000000000000000E+20
 20
1.0000000000000000E+20
 30
1.0000000000000000E+20
  9
$PEXTMAX
 10
-1.0000000000000000E+20
 20
-1.0000000000000000E+20
 30
-1.0000000000000000E+20
  9
$PLIMMIN
 10
0.0
 20
0.0
  9
$PLIMMAX
 10
12.0
 20
9.0
  9
$UNITMODE
 70
     0
  9
$VISRETAIN
 70
     1
  9
$PLINEGEN
 70
     0
  9
$PSLTSCALE
 70
     1
  0
ENDSEC
  0
SECTION
  2
TABLES
  0
TABLE
  2
VPORT
 70
     1
  0
VPORT
  2
*ACTIVE
 70
     0
 10
0.0
 20
0.0
 11
1.0
 21
1.0
 12
-41.4649769029408475
 22
-31.9232984708774303
 13
0.0
 23
0.0
 14
1.0
 24
1.0
 15
0.0
 25
0.0
 16
0.0
 26
0.0
 36
30.6214257250603907
 17
124.6111586000725993
 27
5.3122741703778242
 37
0.0
 40
3.5985041176478729
 41
2.9225663716814161
 42
50.0
 43
0.0
 44
0.0
 50
0.0
 51
0.0
 71
     0
 72
   100
 73
     1
 74
     1
 75
     0
 76
     0
 77
     0
 78
     1
  0
ENDTAB
  0
TABLE
  2
LTYPE
 70
     2
  0
LTYPE
  2
CONTINUOUS
 70
     0
  3
Solid line
 72
    65
 73
     0
 40
0.0
  0
LTYPE
  2
PHANTOM2
 70
     0
  3
___ _ _ ___ _ _ ___ _ _ ___ _ _
 72
    65
 73
     6
 40
1.25
 49
0.625
 49
-0.125
 49
0.125
 49
-0.125
 49
0.125
 49
-0.125
  0
ENDTAB
  0
TABLE
  2
LAYER
 70
     2
  0
LAYER
  2
0
 70
     0
 62
   255
  6
CONTINUOUS
  0
LAYER
  2
DEFPOINTS
 70
     0
 62
     7
  6
CONTINUOUS
  0
ENDTAB
  0
TABLE
  2
STYLE
 70
     1
  0
STYLE
  2
STANDARD
 70
     0
 40
0.0
 41
0.8
 50
0.0
 71
     0
 42
0.2
  3
txt
  4

  0
ENDTAB
  0
TABLE
  2
VIEW
 70
     0
  0
ENDTAB
  0
TABLE
  2
UCS
 70
     0
  0
ENDTAB
  0
TABLE
  2
APPID
 70
     9
  0
APPID
  2
ACAD
 70
     0
  0
APPID
  2
ACAD_MLEADERVER
 70
     0
  0
APPID
  2
ACAD_EXEMPT_FROM_CAD_STANDARDS
 70
     0
  0
APPID
  2
ACAD_DSTYLE_DIMJAG
 70
     0
  0
APPID
  2
ACAD_DSTYLE_DIMTALN
 70
     0
  0
APPID
  2
ACAD_NAV_VCDISPLAY
 70
     0
  0
APPID
  2
ACAECLAYERSTANDARD
 70
     0
  0
APPID
  2
ACCMTRANSPARENCY
 70
     0
  0
APPID
  2
ACDBATTR
 70
     0
  0
ENDTAB
  0
TABLE
  2
DIMSTYLE
 70
     1
  0
DIMSTYLE
  2
STANDARD
 70
     0
  3

  4

  5

  6

  7

 40
1.0
 41
0.1875
 42
0.0625
 43
0.38
 44
0.125
 45
0.0
 46
0.0
 47
0.01
 48
0.01
140
0.15625
141
0.09
142
0.0
143
25.3999999999999986
144
1.0
145
0.0
146
1.0
147
0.09
 71
     1
 72
     0
 73
     1
 74
     1
 75
     0
 76
     0
 77
     0
 78
     4
170
     0
171
     2
172
     0
173
     0
174
     0
175
     0
176
     0
177
     0
178
     0
  0
ENDTAB
  0
ENDSEC
  0
SECTION
  2
BLOCKS
  0
BLOCK
  8
0
  2
$MODEL_SPACE
 70
     0
 10
0.0
 20
0.0
 30
0.0
  3
$MODEL_SPACE
  1

  0
ENDBLK
  5
21
  8
0
  0
BLOCK
 67
     1
  8
0
  2
$PAPER_SPACE
 70
     0
 10
0.0
 20
0.0
 30
0.0
  3
$PAPER_SPACE
  1

  0
ENDBLK
  5
1D
 67
     1
  8
0
  0
BLOCK
  8
0
  2
_FILLED
 70
     0
 10
0.0
 20
0.0
 30
0.0
  3
_FILLED
  1

  0
SOLID
  5
FDD6
  8
0
  6
BYBLOCK
 62
     0
 10
0.0
 20
0.0
 30
0.0
 11
-1.0
 21
0.1666666667
 31
0.0
 12
-1.0
 22
-0.1666666667
 32
0.0
 13
-1.0
 23
-0.1666666667
 33
0.0
  0
ENDBLK
  5
FDD7
  8
0
  6
BYBLOCK
 62
     0
  0
ENDSEC
  0
SECTION
  2
ENTITIES
  0
ATTDEF
  5
E299
  8
DEFPOINTS
 10
81.8647198125201214
 20
-28.3803702035710117
 30
0.0
 40
0.001
  1
K-99856IN-4
  3

  2
MODELNUMBER
 70
     0
1001
ACDBATTR
1070
     0
1070
     1
  0
ATTDEF
  5
E29A
  8
DEFPOINTS
 10
81.8647198125201214
 20
-28.3820368702376804
 30
0.0
 40
0.001
  1
BEITOU
  3

  2
TRADENAME
 70
     0
1001
ACDBATTR
1070
     0
1070
     1
  0
ATTDEF
  5
E29B
  8
DEFPOINTS
 10
81.8647198125201214
 20
-28.3837035369043384
 30
0.0
 40
0.001
  1
BATHROOM SINK FAUCET
  3

  2
PRODUCT
 70
     0
1001
ACDBATTR
1070
     0
1070
     1
  0
LINE
  5
FE79
  8
0
 10
83.931240352347757
 20
-24.875956703260659
 30
0.0
 11
83.9312423760620732
 21
-25.7188518182174199
 31
0.0
  0
LINE
  5
FE7A
  8
0
 10
83.9312423760620732
 20
-25.7582218969174086
 30
0.0
 11
83.9312395831126707
 21
-28.3842061489174213
 31
0.0
  0
LINE
  5
FE7B
  8
0
 10
79.7973841083620812
 20
-28.3842061489174213
 30
0.0
 11
79.7973841082620936
 21
-25.7582218969181618
 31
0.0
  0
LINE
  5
FE7C
  8
0
 10
79.7973841083620812
 20
-25.7188518184248096
 30
0.0
 11
79.7973841083620812
 21
-24.8763326317174105
 31
0.0
  0
LINE
  5
FE7D
  8
0
 10
79.8368264706620892
 20
-24.8369620544175689
 30
0.0
 11
80.6398807057568945
 21
-24.8369620544175689
 31
0.0
  0
ARC
  5
FE7E
  8
0
 10
80.6399868129657875
 20
-24.8762489705493515
 30
0.0
 40
0.0392870594201795
 50
359.9926429161532724
 51
90.1547456777378784
  0
LINE
  5
FE7F
  8
0
 10
80.6792738720620832
 20
-24.8762540152174196
 30
0.0
 11
80.6792738720620832
 21
-24.9668833142174087
 31
0.0
  0
LINE
  5
FE80
  8
0
 10
80.683210827078085
 20
-24.8568886370549791
 30
0.0
 11
80.683210827078085
 21
-24.9550722906174194
 31
0.0
  0
ARC
  5
FE81
  8
0
 10
80.6950218506782164
 20
-24.9550722906174194
 30
0.0
 40
0.011811023600119
 50
179.999999999997101
 51
270.0002565436276996
  0
LINE
  5
FE82
  8
0
 10
80.6398807057568234
 20
-24.8369620544175689
 30
0.0
 11
80.6515431951620769
 21
-24.9668832942174213
 31
0.0
  0
LINE
  5
FE83
  8
0
 10
80.6515431951620769
 20
-24.9668832942174213
 30
0.0
 11
83.077083296462078
 21
-24.9668833142174087
 31
0.0
  0
LINE
  5
FE84
  8
0
 10
83.077083296462078
 20
-24.9668833142174087
 30
0.0
 11
83.0887126190318668
 21
-24.8369620544175689
 31
0.0
  0
ARC
  5
FE85
  8
0
 10
80.7028969823647913
 20
-24.8566496601329803
 30
0.0
 40
0.0196876057442574
 50
90.0030935995824564
 51
180.6954987556682966
  0
LINE
  5
FE86
  8
0
 10
80.7028959193620921
 20
-24.836962054417409
 30
0.0
 11
83.0257305649620889
 21
-24.8369620544177288
 31
0.0
  0
ARC
  5
FE87
  8
0
 10
83.0257305649620889
 20
-24.8566485577708605
 30
0.0
 40
0.0196865033531291
 50
359.3012535494577833
 51
89.999999999992653
  0
LINE
  5
FE88
  8
0
 10
83.0454156043620912
 20
-24.8568886371183986
 30
0.0
 11
83.0454156043620912
 21
-24.9550722906174194
 31
0.0
  0
ARC
  5
FE89
  8
0
 10
83.0336045807620877
 20
-24.9550722906174087
 30
0.0
 40
0.0118110235999991
 50
270.0141165466570783
 51
359.9999999999869829
  0
LINE
  5
FE8A
  8
0
 10
83.0493526122620835
 20
-24.9668833142174087
 30
0.0
 11
83.0495646205620943
 21
-24.8721898209174199
 31
0.0
  0
ARC
  5
FE8B
  8
0
 10
83.0885767547633947
 20
-24.8761771958092517
 30
0.0
 40
0.0392153767477585
 50
89.8014945822445156
 51
174.1641449586543899
  0
LINE
  5
FE8C
  8
0
 10
83.0887126190318668
 20
-24.8369620544175689
 30
0.0
 11
83.8917726176620846
 21
-24.8369620544175689
 31
0.0
  0
ARC
  5
FE8D
  8
0
 10
83.891849271223137
 20
-24.8763550910802493
 30
0.0
 40
0.039393111241379
 50
0.0326662893670249
 51
90.1114897545773204
  0
ARC
  5
FE8E
  8
0
 10
81.3682236789570084
 20
-19.6424984769758311
 30
0.0
 40
5.2895318588738638
 50
264.8354044811018184
 51
270.819106428683483
  0
ARC
  5
FE8F
  8
0
 10
81.0100676043742425
 20
-23.8342652190589597
 30
0.0
 40
1.0827391340267409
 50
256.8966700564703274
 51
263.7437051695198988
  0
ARC
  5
FE90
  8
0
 10
80.8144294079450844
 20
-24.6411571027157486
 30
0.0
 40
0.2526185510702884
 50
238.7057291952145022
 51
258.6241953898309021
  0
LINE
  5
FE91
  8
0
 10
81.4438408012620556
 20
-24.9314898115174088
 30
0.0
 11
82.2847856829860831
 21
-24.9314898192156598
 31
0.0
  0
ARC
  5
FE92
  8
0
 10
82.2847857927318103
 20
-12.9430273345311608
 30
0.0
 40
11.9884624846845007
 50
269.9999994754984982
 51
271.2433153885685897
  0
ARC
  5
FE93
  8
0
 10
82.4689344626030447
 20
-21.4278297657349093
 30
0.0
 40
3.50166196687
 50
271.2433153885685897
 51
276.444766241897014
  0
ARC
  5
FE94
  8
0
 10
82.8202905374595417
 20
-24.3972930982610698
 30
0.0
 40
0.5117708032757539
 50
274.672529559022621
 51
296.0971382091130977
  0
ARC
  5
FE95
  8
0
 10
81.1159900049418923
 20
-24.9939226818198215
 30
0.0
 40
0.3010902926638355
 50
174.8476192729405909
 51
185.9777335847302879
  0
ARC
  5
FE96
  8
0
 10
81.1633256419172682
 20
-24.9889661040334303
 30
0.0
 40
0.3486847271201439
 50
185.9777335847302879
 51
208.1010855931496906
  0
ARC
  5
FE97
  8
0
 10
81.1139010968115599
 20
-24.9918726551894288
 30
0.0
 40
0.3044230914390113
 50
212.0031660167142036
 51
245.2877668249406042
  0
ARC
  5
FE98
  8
0
 10
81.4090889648160356
 20
-24.4005924339021405
 30
0.0
 40
0.9651874652969954
 50
244.0432548455951007
 51
258.0484154712967211
  0
ARC
  5
FE99
  8
0
 10
81.5009057620844146
 20
-24.0600179977117783
 30
0.0
 40
1.317534482504543
 50
257.2091450630443887
 51
263.1859938602341913
  0
ARC
  5
FE9A
  8
0
 10
81.631383664728844
 20
-22.9361752044104605
 30
0.0
 40
2.448922746440009
 50
263.2745246456001951
 51
269.463676807738409
  0
ARC
  5
FE9B
  8
0
 10
81.8515941870101216
 20
-14.3458260123100292
 30
0.0
 40
11.0418417906785304
 50
268.7382852764125118
 51
269.7538844381253966
  0
ARC
  5
FE9C
  8
0
 10
81.8623990240712089
 20
-12.7807984911036794
 30
0.0
 40
12.6069019465423793
 50
269.7353319489898809
 51
270.0086997780369984
  0
ARC
  5
FE9D
  8
0
 10
82.6126365013932258
 20
-24.9939226818198215
 30
0.0
 40
0.3010902926638355
 50
354.0222664152695984
 51
5.1523804322438149
  0
ARC
  5
FE9E
  8
0
 10
82.5653008644178641
 20
-24.9889661040334303
 30
0.0
 40
0.3486847271201439
 50
331.8989144068502242
 51
354.0222664152695984
  0
ARC
  5
FE9F
  8
0
 10
82.6147254095235724
 20
-24.9918726551894288
 30
0.0
 40
0.3044230914390113
 50
294.7122331750595094
 51
327.9968339832857964
  0
ARC
  5
FEA0
  8
0
 10
82.3195375415191108
 20
-24.4005924339021405
 30
0.0
 40
0.9651874652969954
 50
281.9515845287032789
 51
295.9567451544049277
  0
ARC
  5
FEA1
  8
0
 10
82.2277207442507034
 20
-24.0600179977117783
 30
0.0
 40
1.317534482504543
 50
276.8140061397658087
 51
282.7908549369554976
  0
ARC
  5
FEA2
  8
0
 10
82.0972428416062741
 20
-22.9361752044104605
 30
0.0
 40
2.448922746440009
 50
270.536323192261591
 51
276.7254753543998049
  0
ARC
  5
FEA3
  8
0
 10
81.8770401036446032
 20
-14.3462685168241109
 30
0.0
 40
11.0413992220464205
 50
270.2460850319109227
 51
271.2617249006324869
  0
ARC
  5
FEA4
  8
0
 10
81.8662201958942291
 20
-12.7807984899994302
 30
0.0
 40
12.6069019465423793
 50
269.9913333370170108
 51
270.2647011660644125
  0
LINE
  5
FEA5
  8
0
 10
80.9588014311620867
 20
-24.9668833142174087
 30
0.0
 11
80.9588014311620867
 21
-25.1814353360174188
 31
0.0
  0
ARC
  5
FEA6
  8
0
 10
81.0769116673620545
 20
-25.1814353360174188
 30
0.0
 40
0.1181102361999731
 50
179.999999999999801
 51
237.2503066463555967
  0
ARC
  5
FEA7
  8
0
 10
80.9981715098621038
 20
-25.1822302269174116
 30
0.0
 40
0.0393700786999945
 50
144.7773754621377122
 51
178.844929534004109
  0
ARC
  5
FEA8
  8
0
 10
80.9981715098621038
 20
-25.1822302269174187
 30
0.0
 40
0.0393700787000022
 50
107.2918060926219965
 51
144.7773754621375133
  0
ARC
  5
FEA9
  8
0
 10
81.027408164982603
 20
-25.3143819889552901
 30
0.0
 40
0.1746095500818583
 50
98.4744736694684519
 51
103.559792573131503
  0
ARC
  5
FEAA
  8
0
 10
81.8643132421624955
 20
-30.1865683536202987
 30
0.0
 40
5.1181102362029076
 50
97.8253465060345206
 51
99.7032919096354249
  0
ARC
  5
FEAB
  8
0
 10
81.8643132421624955
 20
-30.1865683536207392
 30
0.0
 40
5.1181102362033508
 50
95.8277688207486875
 51
97.825346506034478
  0
ARC
  5
FEAC
  8
0
 10
81.8643132470042474
 20
-30.1865684100992091
 30
0.0
 40
5.1181102928815347
 50
92.1160174896280637
 51
95.8277688104705447
  0
ARC
  5
FEAD
  8
0
 10
81.8632574380372233
 20
-30.1492385697268404
 30
0.0
 40
5.0807669338945756
 50
89.9880933115089192
 51
92.1196627054566335
  0
LINE
  5
FEAF
  8
0
 10
81.1438408012620869
 20
-25.1194220312976384
 30
0.0
 11
81.1438408012620869
 21
-25.2188518182174093
 31
0.0
  0
LINE
  5
FEB0
  8
0
 10
81.1438408012620869
 20
-25.2424738654174199
 30
0.0
 11
81.1438408012620869
 21
-25.3286173553873901
 31
0.0
  0
LINE
  5
FEB1
  8
0
 10
81.1674628484620939
 20
-25.1161194663200185
 30
0.0
 11
81.1674628484620939
 21
-25.2188518182174093
 31
0.0
  0
LINE
  5
FEB2
  8
0
 10
81.1674628484620939
 20
-25.2424738654174199
 30
0.0
 11
81.1674628484620939
 21
-25.3350461048040998
 31
0.0
  0
LINE
  5
FEB3
  8
0
 10
81.3210061555620882
 20
-25.0973768854620403
 30
0.0
 11
81.3210061555620882
 21
-25.2188518182174093
 31
0.0
  0
LINE
  5
FEB4
  8
0
 10
81.3210061555620882
 20
-25.2424738654174199
 30
0.0
 11
81.3210061555620882
 21
-25.3653496361536206
 31
0.0
  0
LINE
  5
FEB5
  8
0
 10
81.3446282027620953
 20
-25.0949104851310594
 30
0.0
 11
81.3446282027620811
 21
-25.2188518182174199
 31
0.0
  0
LINE
  5
FEB6
  8
0
 10
81.3446282027620811
 20
-25.2424738654174199
 30
0.0
 11
81.3446282027620953
 21
-25.3682512564827398
 31
0.0
  0
LINE
  5
FEB7
  8
0
 10
81.4981715098620754
 20
-25.0815715248482007
 30
0.0
 11
81.4981715098620754
 21
-25.2188518182174093
 31
0.0
  0
LINE
  5
FEB8
  8
0
 10
81.4981715098620754
 20
-25.2424738654174199
 30
0.0
 11
81.4981715098620754
 21
-25.3814721474885516
 31
0.0
  0
LINE
  5
FEB9
  8
0
 10
81.5217935571620842
 20
-25.0799322146991202
 30
0.0
 11
81.5217935571620842
 21
-25.2188518182174093
 31
0.0
  0
LINE
  5
FEBA
  8
0
 10
81.5217935571620842
 20
-25.2424738654174199
 30
0.0
 11
81.5217935571620842
 21
-25.3826446250970896
 31
0.0
  0
LINE
  5
FEBB
  8
0
 10
81.6753368642620785
 20
-25.0719481019174104
 30
0.0
 11
81.6753368642620785
 21
-25.2188518182174093
 31
0.0
  0
LINE
  5
FEBC
  8
0
 10
81.6753368642620785
 20
-25.2424738654174199
 30
0.0
 11
81.6753368642620785
 21
-25.3862609442569003
 31
0.0
  0
LINE
  5
FEBD
  8
0
 10
81.6989589114620856
 20
-25.0711288199556002
 30
0.0
 11
81.6989589114620856
 21
-25.2188518182174093
 31
0.0
  0
LINE
  5
FEBE
  8
0
 10
81.6989589114620856
 20
-25.2424738654174199
 30
0.0
 11
81.6989589114620856
 21
-25.3866127869485787
 31
0.0
  0
LINE
  5
FEBF
  8
0
 10
81.8525022185620941
 20
-25.2424738654174199
 30
0.0
 11
81.8525022185620941
 21
-25.387696552997209
 31
0.0
  0
LINE
  5
FEC0
  8
0
 10
81.8525022185620941
 20
-25.2188518182174093
 30
0.0
 11
81.8525022185620941
 21
-25.0684830194360693
 31
0.0
  0
LINE
  5
FEC1
  8
0
 10
81.1438408012620869
 20
-25.2188518182174093
 30
0.0
 11
80.9648847297310112
 21
-25.2188518182174093
 31
0.0
  0
LINE
  5
FEC2
  8
0
 10
81.1674628484620939
 20
-25.2188518182174093
 30
0.0
 11
81.3210061555620882
 21
-25.2188518182174093
 31
0.0
  0
LINE
  5
FEC3
  8
0
 10
81.3446282027620953
 20
-25.2188518182174093
 30
0.0
 11
81.4981715098620754
 21
-25.2188518182174093
 31
0.0
  0
LINE
  5
FEC4
  8
0
 10
81.5217935571620842
 20
-25.2188518182174093
 30
0.0
 11
81.6753368642620785
 21
-25.2188518182174093
 31
0.0
  0
LINE
  5
FEC5
  8
0
 10
81.6989589114620856
 20
-25.2188518182174093
 30
0.0
 11
81.8525022185620941
 21
-25.2188518182174093
 31
0.0
  0
LINE
  5
FEC6
  8
0
 10
81.1438408012620869
 20
-25.2424738654174199
 30
0.0
 11
80.975796258922486
 21
-25.2424738654174199
 31
0.0
  0
LINE
  5
FEC7
  8
0
 10
81.1674628484620939
 20
-25.2424738654174199
 30
0.0
 11
81.3210061555620882
 21
-25.2424738654174199
 31
0.0
  0
LINE
  5
FEC8
  8
0
 10
81.3446282027620953
 20
-25.2424738654174199
 30
0.0
 11
81.4981715098620754
 21
-25.2424738654174199
 31
0.0
  0
LINE
  5
FEC9
  8
0
 10
81.5217935571620842
 20
-25.2424738654174199
 30
0.0
 11
81.6753368642620785
 21
-25.2424738654174199
 31
0.0
  0
LINE
  5
FECA
  8
0
 10
81.6989589114620856
 20
-25.2424738654174199
 30
0.0
 11
81.8525022185620941
 21
-25.2424738654174199
 31
0.0
  0
ARC
  5
FECB
  8
0
 10
81.2283519854449167
 20
-24.9994992325326102
 30
0.0
 40
0.3981611923465222
 50
193.1877351896071104
 51
198.9034105605593936
  0
ARC
  5
FECC
  8
0
 10
81.0978422322109225
 20
-25.0441913879106295
 30
0.0
 40
0.2602112577994984
 50
198.9034105605593936
 51
213.4089276690774
  0
LINE
  5
FECD
  8
0
 10
82.7698251225701256
 20
-24.9668833142174087
 30
0.0
 11
82.7698251225701256
 21
-25.1814353360174188
 31
0.0
  0
ARC
  5
FECE
  8
0
 10
82.6517148863701721
 20
-25.1814353360174188
 30
0.0
 40
0.1181102361999731
 50
302.7496933536443748
 51
0.0000000000002036
  0
ARC
  5
FECF
  8
0
 10
82.7303722400201877
 20
-25.182271883302441
 30
0.0
 40
0.0394617505042609
 50
1.214700789334227
 51
35.2026928336866618
  0
ARC
  5
FED0
  8
0
 10
82.7304550438701369
 20
-25.1822302269174187
 30
0.0
 40
0.0393700787000022
 50
35.2226245378624725
 51
72.708193907377904
  0
ARC
  5
FED1
  8
0
 10
82.7012183887496093
 20
-25.3143819889552901
 30
0.0
 40
0.1746095500818583
 50
76.4402074268685254
 51
81.5255263305315339
  0
ARC
  5
FED2
  8
0
 10
81.8643133115697452
 20
-30.1865683536202987
 30
0.0
 40
5.1181102362029076
 50
80.296708090364632
 51
82.1746534939654936
  0
ARC
  5
FED3
  8
0
 10
81.8643133115697168
 20
-30.1865683536207392
 30
0.0
 40
5.1181102362033508
 50
82.1746534939655362
 51
84.1722311792513267
  0
ARC
  5
FED4
  8
0
 10
81.8643133067279791
 20
-30.1865684100992091
 30
0.0
 40
5.1181102928815347
 50
84.1722311895294553
 51
87.8839825103719363
  0
ARC
  5
FED5
  8
0
 10
81.8653691156950032
 20
-30.1492385697268404
 30
0.0
 40
5.0807669338945756
 50
87.8803372945433523
 51
90.0119066884910666
  0
LINE
  5
FED6
  8
0
 10
82.5847857524701396
 20
-25.1194220312976384
 30
0.0
 11
82.5847857524701396
 21
-25.2188518182174093
 31
0.0
  0
LINE
  5
FED7
  8
0
 10
82.5847857524701396
 20
-25.2424738654174199
 30
0.0
 11
82.5847857524701396
 21
-25.3286173553873901
 31
0.0
  0
LINE
  5
FED8
  8
0
 10
82.5611637052701326
 20
-25.1161194663200185
 30
0.0
 11
82.5611637052701326
 21
-25.2188518182174093
 31
0.0
  0
LINE
  5
FED9
  8
0
 10
82.5611637052701326
 20
-25.2424738654174199
 30
0.0
 11
82.5611637052701326
 21
-25.3350461048040998
 31
0.0
  0
LINE
  5
FEDA
  8
0
 10
82.4076203981701241
 20
-25.0973768854620403
 30
0.0
 11
82.4076203981701241
 21
-25.2188518182174093
 31
0.0
  0
LINE
  5
FEDB
  8
0
 10
82.4076203981701241
 20
-25.2424738654174199
 30
0.0
 11
82.4076203981701241
 21
-25.3653496361536206
 31
0.0
  0
LINE
  5
FEDC
  8
0
 10
82.3839983509701312
 20
-25.0949104851310594
 30
0.0
 11
82.3839983509701455
 21
-25.2188518182174199
 31
0.0
  0
LINE
  5
FEDD
  8
0
 10
82.3839983509701455
 20
-25.2424738654174199
 30
0.0
 11
82.3839983509701312
 21
-25.3682512564827398
 31
0.0
  0
LINE
  5
FEDE
  8
0
 10
82.2304550438701369
 20
-25.0815715248482007
 30
0.0
 11
82.2304550438701369
 21
-25.2188518182174093
 31
0.0
  0
LINE
  5
FEDF
  8
0
 10
82.2304550438701369
 20
-25.2424738654174199
 30
0.0
 11
82.2304550438701369
 21
-25.3814721474885516
 31
0.0
  0
LINE
  5
FEE0
  8
0
 10
82.2068329965701423
 20
-25.0799322146991202
 30
0.0
 11
82.2068329965701423
 21
-25.2188518182174093
 31
0.0
  0
LINE
  5
FEE1
  8
0
 10
82.2068329965701423
 20
-25.2424738654174199
 30
0.0
 11
82.2068329965701423
 21
-25.3826446250970896
 31
0.0
  0
LINE
  5
FEE2
  8
0
 10
82.0532896894701338
 20
-25.0719481019174104
 30
0.0
 11
82.0532896894701338
 21
-25.2188518182174093
 31
0.0
  0
LINE
  5
FEE3
  8
0
 10
82.0532896894701338
 20
-25.2424738654174199
 30
0.0
 11
82.0532896894701338
 21
-25.3862609442569003
 31
0.0
  0
LINE
  5
FEE4
  8
0
 10
82.029667642270141
 20
-25.0711288199556002
 30
0.0
 11
82.029667642270141
 21
-25.2188518182174093
 31
0.0
  0
LINE
  5
FEE5
  8
0
 10
82.029667642270141
 20
-25.2424738654174199
 30
0.0
 11
82.029667642270141
 21
-25.3866127869485787
 31
0.0
  0
LINE
  5
FEE6
  8
0
 10
81.8761243351701324
 20
-25.2424738654174199
 30
0.0
 11
81.8761243351701324
 21
-25.387696552997209
 31
0.0
  0
LINE
  5
FEE7
  8
0
 10
81.8761243351701324
 20
-25.2188518182174093
 30
0.0
 11
81.8761243351701324
 21
-25.0684830194360693
 31
0.0
  0
LINE
  5
FEE8
  8
0
 10
82.5847857524701396
 20
-25.2188518182174093
 30
0.0
 11
82.7637418240012153
 21
-25.2188518182174093
 31
0.0
  0
LINE
  5
FEE9
  8
0
 10
82.5611637052701326
 20
-25.2188518182174093
 30
0.0
 11
82.4076203981701241
 21
-25.2188518182174093
 31
0.0
  0
LINE
  5
FEEA
  8
0
 10
82.3839983509701312
 20
-25.2188518182174093
 30
0.0
 11
82.2304550438701369
 21
-25.2188518182174093
 31
0.0
  0
LINE
  5
FEEB
  8
0
 10
82.2068329965701423
 20
-25.2188518182174093
 30
0.0
 11
82.0532896894701338
 21
-25.2188518182174093
 31
0.0
  0
LINE
  5
FEEC
  8
0
 10
82.029667642270141
 20
-25.2188518182174093
 30
0.0
 11
81.8761243351701324
 21
-25.2188518182174093
 31
0.0
  0
LINE
  5
FEED
  8
0
 10
82.5847857524701396
 20
-25.2424738654174199
 30
0.0
 11
82.7528302948097263
 21
-25.2424738654174199
 31
0.0
  0
LINE
  5
FEEE
  8
0
 10
82.5611637052701326
 20
-25.2424738654174199
 30
0.0
 11
82.4076203981701241
 21
-25.2424738654174199
 31
0.0
  0
LINE
  5
FEEF
  8
0
 10
82.3839983509701312
 20
-25.2424738654174199
 30
0.0
 11
82.2304550438701369
 21
-25.2424738654174199
 31
0.0
  0
LINE
  5
FEF0
  8
0
 10
82.2068329965701423
 20
-25.2424738654174199
 30
0.0
 11
82.0532896894701338
 21
-25.2424738654174199
 31
0.0
  0
LINE
  5
FEF1
  8
0
 10
82.029667642270141
 20
-25.2424738654174199
 30
0.0
 11
81.8761243351701324
 21
-25.2424738654174199
 31
0.0
  0
ARC
  5
FEF2
  8
0
 10
82.500274568287324
 20
-24.9994992325326102
 30
0.0
 40
0.3981611923465222
 50
341.0965894394406064
 51
346.8122210943790833
  0
ARC
  5
FEF3
  8
0
 10
82.630784321521304
 20
-25.0441913879106295
 30
0.0
 40
0.2602112577994984
 50
326.5910723309223727
 51
341.0965894394406064
  0
LINE
  5
FEF4
  8
0
 10
79.7973841083502009
 20
-28.3842061489174213
 30
0.0
 11
83.9312395831126707
 21
-28.3842061489174213
 31
0.0
  0
ARC
  5
FEF5
  8
0
 10
79.836920678798279
 20
-24.8764988620683312
 30
0.0
 40
0.0395369198899679
 50
90.1365238800158579
 51
179.7591029948314088
  0
ARC
  5
FEF6
  8
0
 10
79.804014293018227
 20
-25.748001472052529
 30
0.0
 40
0.9116301111121669
 50
66.8068034323865021
 51
87.9373153339506644
  0
ARC
  5
FEF7
  8
0
 10
78.4718015353540324
 20
-28.3250549079555896
 30
0.0
 40
3.8108500122963229
 50
55.3075045413454589
 51
63.6536239133173893
  0
ARC
  5
FEF8
  8
0
 10
82.3059429626692065
 20
-22.8104366397046192
 30
0.0
 40
2.9056894701651439
 50
235.036631000806608
 51
245.470596264501097
  0
ARC
  5
FEF9
  8
0
 10
81.8929439761488567
 20
-23.4543298676422403
 30
0.0
 40
2.151181190821208
 50
248.3591750413291948
 51
259.6637365981986818
  0
ARC
  5
FEFA
  8
0
 10
81.8655682921629335
 20
-23.60442844997214
 30
0.0
 40
1.9986065779554301
 50
259.6637365981986818
 51
269.9640227727531965
  0
ARC
  5
FEFB
  8
0
 10
79.8170691475547756
 20
-25.7188518184247705
 30
0.0
 40
0.0196850391926891
 50
179.9999993964646023
 51
270.0238023633182252
  0
ARC
  5
FEFC
  8
0
 10
79.8170691528427767
 20
-25.7582218988030682
 30
0.0
 40
0.0196850445806865
 50
89.976213034575423
 51
179.9999945137626014
  0
LINE
  5
FEFD
  8
0
 10
79.8170773253026908
 20
-25.7385368559188201
 30
0.0
 11
83.9115573366697731
 21
-25.7385368575174098
 31
0.0
  0
ARC
  5
FEFE
  8
0
 10
83.9115573366774612
 20
-25.7188518181327908
 30
0.0
 40
0.0196850393846289
 50
269.9999999776301252
 51
359.9999997536787077
  0
ARC
  5
FEFF
  8
0
 10
83.9115573368328
 20
-25.7582218968467096
 30
0.0
 40
0.0196850392292927
 50
359.9999997941957872
 51
90.0000004968667753
  0
ARC
  5
FF00
  8
0
 10
83.970613156685971
 20
-26.69129106876197
 30
0.0
 40
0.0393717730617002
 50
180.0025957273336132
 51
269.9989785251490275
  0
LINE
  5
FF01
  8
0
 10
83.9706124547620902
 20
-26.7306628418174199
 30
0.0
 11
86.4706124547620902
 21
-26.7306628526574812
 31
0.0
  0
ARC
  5
FF02
  8
0
 10
86.4706124546767256
 20
-26.750347892142841
 30
0.0
 40
0.0196850394853589
 50
0.0000317998189664
 51
89.9999997515653831
  0
LINE
  5
FF03
  8
0
 10
86.4902974941620926
 20
-26.7503478812174187
 30
0.0
 11
86.4902976820793867
 21
-27.0889305583173616
 31
0.0
  0
ARC
  5
FF04
  8
0
 10
86.470612667180788
 20
-27.0889305748666089
 30
0.0
 40
0.0196850148985947
 50
269.9993817279219002
 51
0.0000481687279541
  0
LINE
  5
FF05
  8
0
 10
86.4706124547620902
 20
-27.1086155897640602
 30
0.0
 11
83.9706124548896327
 21
-27.1086155897640602
 31
0.0
  0
ARC
  5
FF06
  8
0
 10
83.9705700587498427
 20
-27.1479447490236012
 30
0.0
 40
0.0393291821106851
 50
89.9382361844919558
 51
180.0596241045197132
  0
ARC
  5
FF07
  8
0
 10
83.9164712926907157
 20
-25.7218915609505991
 30
0.0
 40
0.8852741135269679
 50
91.5987291012532836
 51
113.3765987718609978
  0
ARC
  5
FF08
  8
0
 10
85.2579940943148955
 20
-28.3235314561388414
 30
0.0
 40
3.8108500122963229
 50
116.3721010737554025
 51
124.7182204457270984
  0
ARC
  5
FF09
  8
0
 10
81.421377068663503
 20
-22.81063521843733
 30
0.0
 40
2.9056894701651439
 50
294.5551287225712258
 51
304.9890939862663117
  0
ARC
  5
FF0A
  8
0
 10
81.8346651124137026
 20
-23.4543429508313892
 30
0.0
 40
2.151181190821208
 50
280.3619883888733852
 51
291.6665499457425881
  0
ARC
  5
FF0B
  8
0
 10
81.8621074172987164
 20
-23.6044236073034099
 30
0.0
 40
1.9986122439663361
 50
270.0632384950504843
 51
280.3619810836967758
  0
LINE
  5
FF0C
  8
0
 10
80.8406911949620905
 20
-24.9668832957770483
 30
0.0
 11
80.8406911949620905
 21
-25.0903367061491913
 31
0.0
  0
LINE
  5
FF0D
  8
0
 10
82.8879352894620922
 20
-24.9668833142174087
 30
0.0
 11
82.8879352894620922
 21
-25.0903370019298393
 31
0.0
  0
LINE
  5
FF0E
  8
0
 10
80.9588014311620867
 20
-25.0456234717174091
 30
0.0
 11
80.987944845662085
 21
-25.0456234717174198
 31
0.0
  0
LINE
  5
FF0F
  8
0
 10
80.987944845662085
 20
-25.0456234717174091
 30
0.0
 11
80.987944845662085
 21
-24.9668833142174087
 31
0.0
  0
LINE
  5
FF10
  8
0
 10
82.7475560244620851
 20
-24.9668833142174087
 30
0.0
 11
82.7475560244620851
 21
-25.0456234717174091
 31
0.0
  0
LINE
  5
FF11
  8
0
 10
82.7475560244620851
 20
-25.0456234717174091
 30
0.0
 11
82.7698250531620943
 21
-25.0456234717174091
 31
0.0
  0
LINE
  5
FF12
  8
0
 10
80.8406911949620905
 20
-25.0062533930174204
 30
0.0
 11
80.9588014311620867
 21
-25.0062533930174204
 31
0.0
  0
LINE
  5
FF13
  8
0
 10
82.7698251225701256
 20
-25.0062533930174204
 30
0.0
 11
82.8879352894620922
 21
-25.0062533930174204
 31
0.0
  0
ENDSEC
  0
EOF
