  0
SECTION
  2
HEADER
  9
$ACADVER
  1
AC1009
  9
$INSBASE
 10
3710.4913254598768617
 20
134.018917542195112
 30
0.0
  9
$EXTMIN
 10
3695.8423272403088049
 20
134.0102680273780038
 30
-0.0000000349181948
  9
$EXTMAX
 10
3727.6942065906141579
 20
162.6498190930049077
 30
0.0000000814935746
  9
$LIMMIN
 10
0.0
 20
0.0
  9
$LIMMAX
 10
11.6929133858000007
 20
8.2677165353999982
  9
$ORTHOMODE
 70
     1
  9
$REGENMODE
 70
     1
  9
$FILLMODE
 70
     1
  9
$QTEXTMODE
 70
     0
  9
$MIRRTEXT
 70
     0
  9
$DRAGMODE
 70
     2
  9
$LTSCALE
 40
0.6431102362
  9
$OSMODE
 70
  2039
  9
$ATTMODE
 70
     1
  9
$TEXTSIZE
 40
0.2
  9
$TRACEWID
 40
0.05
  9
$TEXTSTYLE
  7
STANDARD
  9
$CLAYER
  8
0
  9
$CELTYPE
  6
BYLAYER
  9
$CECOLOR
 62
   256
  9
$DIMSCALE
 40
1.0
  9
$DIMASZ
 40
0.1875
  9
$DIMEXO
 40
0.0625
  9
$DIMDLI
 40
0.4443307087
  9
$DIMRND
 40
0.0
  9
$DIMDLE
 40
0.0
  9
$DIMEXE
 40
0.125
  9
$DIMTP
 40
0.01
  9
$DIMTM
 40
0.01
  9
$DIMTXT
 40
2.0
  9
$DIMCEN
 40
0.1052362205
  9
$DIMTSZ
 40
0.0
  9
$DIMTOL
 70
     1
  9
$DIMLIM
 70
     0
  9
$DIMTIH
 70
     1
  9
$DIMTOH
 70
     1
  9
$DIMSE1
 70
     0
  9
$DIMSE2
 70
     0
  9
$DIMTAD
 70
     0
  9
$DIMZIN
 70
     0
  9
$DIMBLK
  1

  9
$DIMASO
 70
     1
  9
$DIMSHO
 70
     1
  9
$DIMPOST
  1
\X
  9
$DIMAPOST
  1

  9
$DIMALT
 70
     1
  9
$DIMALTD
 70
     2
  9
$DIMALTF
 40
25.3999999999999986
  9
$DIMLFAC
 40
1.0
  9
$DIMTOFL
 70
     0
  9
$DIMTVP
 40
0.0
  9
$DIMTIX
 70
     0
  9
$DIMSOXD
 70
     0
  9
$DIMSAH
 70
     0
  9
$DIMBLK1
  1

  9
$DIMBLK2
  1

  9
$DIMSTYLE
  2
STANDARD
  9
$DIMCLRD
 70
     0
  9
$DIMCLRE
 70
     0
  9
$DIMCLRT
 70
     0
  9
$DIMTFAC
 40
1.0
  9
$DIMGAP
 40
0.09
  9
$LUNITS
 70
     2
  9
$LUPREC
 70
     4
  9
$SKETCHINC
 40
0.1
  9
$FILLETRAD
 40
0.0
  9
$AUNITS
 70
     0
  9
$AUPREC
 70
     0
  9
$MENU
  1
.
  9
$ELEVATION
 40
0.0
  9
$PELEVATION
 40
0.0
  9
$THICKNESS
 40
0.0
  9
$LIMCHECK
 70
     0
  9
$BLIPMODE
 70
     0
  9
$CHAMFERA
 40
0.0
  9
$CHAMFERB
 40
0.0
  9
$SKPOLY
 70
     0
  9
$TDCREATE
 40
2458060.468368056230247
  9
$TDUPDATE
 40
2459215.8429976850748062
  9
$TDINDWG
 40
0.3272408565
  9
$TDUSRTIMER
 40
0.3272408565
  9
$USRTIMER
 70
     1
  9
$ANGBASE
 50
0.0
  9
$ANGDIR
 70
     0
  9
$PDMODE
 70
     0
  9
$PDSIZE
 40
0.3125
  9
$PLINEWID
 40
0.0
  9
$COORDS
 70
     1
  9
$SPLFRAME
 70
     0
  9
$SPLINETYPE
 70
     6
  9
$SPLINESEGS
 70
     8
  9
$ATTDIA
 70
     1
  9
$ATTREQ
 70
     1
  9
$HANDLING
 70
     1
  9
$HANDSEED
  5
12CB0
  9
$SURFTAB1
 70
     6
  9
$SURFTAB2
 70
     6
  9
$SURFTYPE
 70
     6
  9
$SURFU
 70
     6
  9
$SURFV
 70
     6
  9
$UCSNAME
  2

  9
$UCSORG
 10
0.0
 20
0.0
 30
0.0
  9
$UCSXDIR
 10
1.0
 20
0.0
 30
0.0
  9
$UCSYDIR
 10
0.0
 20
1.0
 30
0.0
  9
$PUCSNAME
  2

  9
$PUCSORG
 10
0.0
 20
0.0
 30
0.0
  9
$PUCSXDIR
 10
1.0
 20
0.0
 30
0.0
  9
$PUCSYDIR
 10
0.0
 20
1.0
 30
0.0
  9
$USERI1
 70
     0
  9
$USERI2
 70
     0
  9
$USERI3
 70
     0
  9
$USERI4
 70
     0
  9
$USERI5
 70
     0
  9
$USERR1
 40
0.0
  9
$USERR2
 40
0.0
  9
$USERR3
 40
0.0
  9
$USERR4
 40
0.0
  9
$USERR5
 40
0.0
  9
$WORLDVIEW
 70
     1
  9
$SHADEDGE
 70
     3
  9
$SHADEDIF
 70
    70
  9
$TILEMODE
 70
     1
  9
$MAXACTVP
 70
    64
  9
$PLIMCHECK
 70
     0
  9
$PEXTMIN
 10
1.0000000000000000E+20
 20
1.0000000000000000E+20
 30
1.0000000000000000E+20
  9
$PEXTMAX
 10
-1.0000000000000000E+20
 20
-1.0000000000000000E+20
 30
-1.0000000000000000E+20
  9
$PLIMMIN
 10
0.0
 20
0.0
  9
$PLIMMAX
 10
12.0
 20
9.0
  9
$UNITMODE
 70
     0
  9
$VISRETAIN
 70
     1
  9
$PLINEGEN
 70
     0
  9
$PSLTSCALE
 70
     1
  0
ENDSEC
  0
SECTION
  2
TABLES
  0
TABLE
  2
VPORT
 70
     1
  0
VPORT
  2
*ACTIVE
 70
     0
 10
0.0
 20
0.0
 11
1.0
 21
1.0
 12
-91.7758004673514733
 22
22.3347813634415395
 13
0.0
 23
0.0
 14
1.0
 24
1.0
 15
0.0
 25
0.0
 16
0.0
 26
0.0
 36
17.1152628219792007
 17
3803.5440673828129547
 27
125.9952621967499056
 37
0.0
 40
28.8778829746335113
 41
2.6486111111111108
 42
50.0
 43
0.0
 44
0.0
 50
0.0
 51
0.0
 71
     0
 72
   100
 73
     1
 74
     1
 75
     0
 76
     0
 77
     0
 78
     1
  0
ENDTAB
  0
TABLE
  2
LTYPE
 70
     2
  0
LTYPE
  2
CONTINUOUS
 70
     0
  3
Solid line
 72
    65
 73
     0
 40
0.0
  0
LTYPE
  2
PHANTOM2
 70
     0
  3
___ _ _ ___ _ _ ___ _ _ ___ _ _
 72
    65
 73
     6
 40
1.25
 49
0.625
 49
-0.125
 49
0.125
 49
-0.125
 49
0.125
 49
-0.125
  0
ENDTAB
  0
TABLE
  2
LAYER
 70
     2
  0
LAYER
  2
0
 70
     0
 62
   255
  6
CONTINUOUS
  0
LAYER
  2
DEFPOINTS
 70
     0
 62
     7
  6
CONTINUOUS
  0
ENDTAB
  0
TABLE
  2
STYLE
 70
     1
  0
STYLE
  2
STANDARD
 70
     0
 40
0.0
 41
0.8
 50
0.0
 71
     0
 42
0.2
  3
txt
  4

  0
ENDTAB
  0
TABLE
  2
VIEW
 70
     0
  0
ENDTAB
  0
TABLE
  2
UCS
 70
     0
  0
ENDTAB
  0
TABLE
  2
APPID
 70
     9
  0
APPID
  2
ACAD
 70
     0
  0
APPID
  2
ACAD_MLEADERVER
 70
     0
  0
APPID
  2
ACAD_EXEMPT_FROM_CAD_STANDARDS
 70
     0
  0
APPID
  2
ACAD_NAV_VCDISPLAY
 70
     0
  0
APPID
  2
ACAECLAYERSTANDARD
 70
     0
  0
APPID
  2
ACCMTRANSPARENCY
 70
     0
  0
APPID
  2
ACAD_DSTYLE_DIMJAG
 70
     0
  0
APPID
  2
ACAD_DSTYLE_DIMTALN
 70
     0
  0
APPID
  2
ACDBATTR
 70
     0
  0
ENDTAB
  0
TABLE
  2
DIMSTYLE
 70
     1
  0
DIMSTYLE
  2
STANDARD
 70
     0
  3

  4

  5

  6

  7

 40
1.0
 41
0.1875
 42
0.0625
 43
0.38
 44
0.125
 45
0.0
 46
0.0
 47
0.01
 48
0.01
140
0.15625
141
0.09
142
0.0
143
25.3999999999999986
144
1.0
145
0.0
146
1.0
147
0.09
 71
     1
 72
     0
 73
     1
 74
     1
 75
     0
 76
     0
 77
     0
 78
     4
170
     0
171
     2
172
     0
173
     0
174
     0
175
     0
176
     0
177
     0
178
     0
  0
ENDTAB
  0
ENDSEC
  0
SECTION
  2
BLOCKS
  0
BLOCK
  8
0
  2
$MODEL_SPACE
 70
     0
 10
0.0
 20
0.0
 30
0.0
  3
$MODEL_SPACE
  1

  0
ENDBLK
  5
21
  8
0
  0
BLOCK
 67
     1
  8
0
  2
$PAPER_SPACE
 70
     0
 10
0.0
 20
0.0
 30
0.0
  3
$PAPER_SPACE
  1

  0
ENDBLK
  5
1D
 67
     1
  8
0
  0
BLOCK
  8
0
  2
_FILLED
 70
     0
 10
0.0
 20
0.0
 30
0.0
  3
_FILLED
  1

  0
SOLID
  5
12607
  8
0
  6
BYBLOCK
 62
     0
 10
0.0
 20
0.0
 30
0.0
 11
-1.0
 21
0.1666666667
 31
0.0
 12
-1.0
 22
-0.1666666667
 32
0.0
 13
-1.0
 23
-0.1666666667
 33
0.0
  0
ENDBLK
  5
12608
  8
0
  6
BYBLOCK
 62
     0
  0
ENDSEC
  0
SECTION
  2
ENTITIES
  0
ATTDEF
  5
1163F
  8
DEFPOINTS
 10
3710.491523671818868
 20
134.0229148995890114
 30
0.0
 40
0.001
  1
K-99779T-GGR58
  3

  2
MODELNUMBER
 70
     0
1001
ACDBATTR
1070
     0
1070
     1
  0
ATTDEF
  5
11640
  8
DEFPOINTS
 10
3710.491523671818868
 20
134.0212482329224031
 30
0.0
 40
0.001
  1
COMFORTABLE
  3

  2
TRADENAME
 70
     0
1001
ACDBATTR
1070
     0
1070
     1
  0
ATTDEF
  5
11641
  8
DEFPOINTS
 10
3710.491523671818868
 20
134.0195815662557095
 30
0.0
 40
0.001
  1
BATH
  3

  2
PRODUCT
 70
     0
1001
ACDBATTR
1070
     0
1070
     1
  0
LINE
  5
1294E
  8
0
 10
3697.5394881194761183
 20
134.2157679358950872
 30
0.0
 11
3723.4431628002757861
 21
134.2157679358950872
 31
0.0
  0
ARC
  5
1294F
  8
0
 10
3723.4431628002757861
 20
134.4490326881536078
 30
0.0
 40
0.2332647522585223
 50
270.0
 51
351.6406816478411201
  0
LINE
  5
12950
  8
0
 10
3723.6739493027239405
 20
134.4151205231650863
 30
0.0
 11
3727.4283192037041772
 21
158.2315147959951105
 31
0.0
  0
LINE
  5
12951
  8
0
 10
3727.4283192037041772
 20
158.2315147959951105
 30
0.0
 11
3727.3583115679762159
 21
158.2315165032950972
 31
0.0
  0
ARC
  5
12952
  8
0
 10
3729.4583584724859975
 20
159.5565064566364128
 30
0.0
 40
2.4831019668142771
 50
196.4175683939841122
 51
212.2492005840786078
  0
ARC
  5
12953
  8
0
 10
3661.2723373070998605
 20
134.0072091218256958
 30
0.0
 40
70.3390730106157633
 50
20.6864090390593702
 51
21.9494926634937109
  0
ARC
  5
12954
  8
0
 10
3721.1339906990529016
 20
158.2535493010535106
 30
0.0
 40
5.754663319519822
 50
20.8225684561196296
 51
25.5588855403895785
  0
ARC
  5
12955
  8
0
 10
3725.4621475641961297
 20
160.3234371573169881
 30
0.0
 40
0.9570203996274539
 50
25.5588855403895785
 51
44.5018835328663229
  0
ARC
  5
12956
  8
0
 10
3725.9099290666949855
 20
160.7634997508403103
 30
0.0
 40
0.3291960928348934
 50
44.5018835328651576
 51
79.4955833218086241
  0
ARC
  5
12957
  8
0
 10
3725.9302788306818002
 20
160.8732500362901874
 30
0.0
 40
0.2175751357943877
 50
79.4955833218086241
 51
130.512649093510305
  0
ARC
  5
12958
  8
0
 10
3728.4831809388469992
 20
158.8582946014807931
 30
0.0
 40
3.4659708408825378
 50
141.0177903651025986
 51
165.1026213255171058
  0
ARC
  5
12959
  8
0
 10
3734.0486884091487809
 20
156.7817295727527949
 30
0.0
 40
9.3959388982415462
 50
161.5883838299033926
 51
169.7522772648900116
  0
ARC
  5
1295A
  8
0
 10
3724.2443824094989395
 20
158.5282015032441905
 30
0.0
 40
0.5632545192728001
 50
338.3826104736492084
 51
352.3590786389107166
  0
ARC
  5
1295B
  8
0
 10
3724.6481094864720944
 20
158.3713402465118918
 30
0.0
 40
0.130167432449138
 50
316.4491136021330817
 51
337.1027562269131863
  0
ARC
  5
1295C
  8
0
 10
3724.7134244465892152
 20
158.3091786726787973
 30
0.0
 40
0.0400003820144428
 50
271.613587280049785
 51
316.5214206833205139
  0
LINE
  5
1295D
  8
0
 10
3724.7145508048761258
 20
158.269194152195098
 30
0.0
 11
3724.5802300537861811
 21
158.2698544258136053
 31
0.0
  0
ARC
  5
1295E
  8
0
 10
3724.6494598872509414
 20
158.2999616909631868
 30
0.0
 40
0.0715985512421664
 50
291.0282973191737028
 51
334.5519358805511843
  0
ARC
  5
1295F
  8
0
 10
3724.6573291459581014
 20
158.3181196626184999
 30
0.0
 40
0.0868369032721676
 50
265.7319269520110083
 51
281.8435289914166901
  0
LINE
  5
12960
  8
0
 10
3724.6508664784760185
 20
158.2315235789951089
 30
0.0
 11
3695.9716804962758943
 21
158.2315159682950139
 31
0.0
  0
LINE
  5
12961
  8
0
 10
3695.9716804962281458
 20
158.231515967395012
 30
0.0
 11
3696.1909515826268944
 21
162.415457543398503
 31
0.0
  0
ARC
  5
12962
  8
0
 10
3696.4406455056277991
 20
162.3890266828560129
 30
0.0
 40
0.2510889196540675
 50
92.0840637893831939
 51
173.9575687931489085
  0
LINE
  5
12963
  8
0
 10
3696.4315144675570082
 20
162.6399495190362927
 30
0.0
 11
3697.3149707986949579
 21
162.6084631124996918
 31
0.0
  0
ARC
  5
12964
  8
0
 10
3697.2898644298570616
 20
162.1039868644587045
 30
0.0
 40
0.5051005984888018
 50
53.2658195364403682
 51
87.1509002917720892
  0
ARC
  5
12965
  8
0
 10
3696.9144818943991595
 20
161.6011030959629977
 30
0.0
 40
1.132638749374169
 50
36.6715599573338693
 51
53.2626719174902306
  0
ARC
  5
12966
  8
0
 10
3700.8792719777111415
 20
165.9596111391228987
 30
0.0
 40
4.7852661210052787
 50
230.3053212935496106
 51
249.6271873218371127
  0
ARC
  5
12967
  8
0
 10
3705.1881077628540879
 20
173.8200178918631877
 30
0.0
 40
13.7160269624243405
 50
244.1764466850754047
 51
264.998640008478219
  0
ARC
  5
12968
  8
0
 10
3705.6220888520879271
 20
173.3464876018151983
 30
0.0
 40
13.2905750471951194
 50
262.9564673573946152
 51
269.9231866719081836
  0
LINE
  5
12969
  8
0
 10
3705.6042709080002169
 20
160.0559244983950862
 30
0.0
 11
3713.898145584375925
 21
160.0559244996950952
 31
0.0
  0
ARC
  5
1296A
  8
0
 10
3713.8841809658961211
 20
173.2973789419091872
 30
0.0
 40
13.2414618058506708
 50
270.0604248882311822
 51
275.9447047005431841
  0
ARC
  5
1296B
  8
0
 10
3704.7335123615739576
 20
261.1759222613608245
 30
0.0
 40
101.5951437430221063
 50
275.9447047005431841
 51
276.3820279271607774
  0
ARC
  5
1296C
  8
0
 10
3715.0570532255628677
 20
174.0522278324935996
 30
0.0
 40
13.87575781485649
 50
274.0064900036463769
 51
296.2548613965843174
  0
ARC
  5
1296D
  8
0
 10
3721.597039228587164
 20
160.9702668367332024
 30
0.0
 40
0.7537419917643927
 50
94.5078514272889976
 51
122.2169027170210995
  0
ARC
  5
1296E
  8
0
 10
3805.1536357567028972
 20
-2188.4812036128228101
 30
0.0
 40
2351.6898582009198435
 50
91.9356399273423506
 51
92.0376175769152951
  0
ARC
  5
1296F
  8
0
 10
3725.6956768610289146
 20
161.3154411682637033
 30
0.0
 40
0.5519145922227866
 50
49.6890879831158401
 51
87.3777789723441458
  0
ARC
  5
12970
  8
0
 10
3725.0164646380198974
 20
160.6604145980168994
 30
0.0
 40
1.493779371500807
 50
16.5634637969402299
 51
46.0746694266705106
  0
ARC
  5
12971
  8
0
 10
3687.8869444949427816
 20
145.0780262974928974
 30
0.0
 40
41.7521068462133584
 50
20.2633050715954504
 51
22.5451489488133099
  0
ARC
  5
12972
  8
0
 10
3732.0690735266348383
 20
161.1641983038323929
 30
0.0
 40
5.2710674051818689
 50
197.9669765450902901
 51
204.0967103182480002
  0
ARC
  5
12973
  8
0
 10
3727.1799807474430963
 20
158.7643323009924075
 30
0.0
 40
0.2595989908062504
 50
4.713422390900865
 51
72.6628908168387824
  0
LINE
  5
12974
  8
0
 10
3727.4387018170768897
 20
158.7856640649951032
 30
0.0
 11
3727.4664613475770238
 21
158.2559809403950908
 31
0.0
  0
LINE
  5
12975
  8
0
 10
3727.4664613475770238
 20
158.2559809403950908
 30
0.0
 11
3727.3430739149848705
 21
158.2559809403950908
 31
0.0
  0
ARC
  5
12976
  8
0
 10
1162.6453608210078983
 20
35.457544488800302
 30
0.0
 40
2536.5901702617447881
 50
2.236414872930256
 51
2.7176322216936111
  0
ARC
  5
12977
  8
0
 10
3697.5368865421642113
 20
134.4492816374898894
 30
0.0
 40
0.2335281932380532
 50
181.6323339737242861
 51
270.638306156354588
  0
ARC
  5
12978
  8
0
 10
3422.3546401333410358
 20
116.3475692445874046
 30
0.0
 40
276.8431404433080729
 50
8.1777591799270013
 51
8.7017642058439773
  0
ARC
  5
12979
  8
0
 10
2831.8560067393777899
 20
35.6672294916057808
 30
0.0
 40
872.8234497112387089
 50
6.4963506952280303
 51
7.9062953898979771
  0
ARC
  5
1297A
  8
0
 10
3699.3012090276329218
 20
134.4430752796164086
 30
0.0
 40
0.227437202152305
 50
186.224886905199611
 51
268.0637446989438217
  0
ARC
  5
1297B
  8
0
 10
3725.3730240649961161
 20
160.7033165827251082
 30
0.0
 40
1.1536598913795311
 50
28.2667960986114508
 51
47.5680015137148899
  0
ARC
  5
1297C
  8
0
 10
3725.9199076987870285
 20
161.3100916551285877
 30
0.0
 40
0.3368709412066862
 50
46.5888024195344315
 51
78.6801854161974603
  0
ARC
  5
1297D
  8
0
 10
3725.9403685697161563
 20
161.4123043349443947
 30
0.0
 40
0.2326304540898068
 50
78.6801854161715966
 51
115.6489464377165035
  0
ARC
  5
1297E
  8
0
 10
3726.1073336462218322
 20
161.0645839621269886
 30
0.0
 40
0.6183593672462039
 50
115.6489464377165035
 51
138.5285792480279099
  0
ARC
  5
1297F
  8
0
 10
3726.9765612458440955
 20
160.2963289496198911
 30
0.0
 40
1.7784336683950579
 50
138.5285792480279099
 51
159.6271630051016928
  0
ARC
  5
12980
  8
0
 10
3739.9327091970540096
 20
154.8232263858402007
 30
0.0
 40
15.84162683180522
 50
157.3829125680981917
 51
161.3041833949062038
  0
ARC
  5
12981
  8
0
 10
3736.8567898509782026
 20
156.5071460225381088
 30
0.0
 40
12.4032072398517492
 50
164.1190046868049137
 51
169.5674967142132061
  0
ARC
  5
12982
  8
0
 10
3743.962026005970074
 20
155.3732958366695129
 30
0.0
 40
19.597050699213689
 50
170.0688846343444993
 51
171.6135956476086903
  0
ARC
  5
12983
  8
0
 10
3983.7265629137159522
 20
112.1694208958992931
 30
0.0
 40
263.2583328774022107
 50
169.9231336475401122
 51
175.1511476317297991
  0
ARC
  5
12984
  8
0
 10
3721.1855305082422092
 20
134.4410535933081974
 30
0.0
 40
0.225669140823521
 50
273.3406913493931256
 51
355.1511476317298275
  0
ARC
  5
12985
  8
0
 10
3703.468226853276974
 20
134.6474715838949976
 30
0.0
 40
0.4724409448999353
 50
246.0320341071254973
 51
265.6399891304055245
  0
LINE
  5
12986
  8
0
 10
3703.5996332521767727
 20
134.1763978571950133
 30
0.0
 11
3703.5996332521767727
 21
134.018917542195112
 31
0.0
  0
LINE
  5
12987
  8
0
 10
3703.5996332521767727
 20
134.018917542195112
 30
0.0
 11
3700.3516017560759792
 21
134.018917542195112
 31
0.0
  0
LINE
  5
12988
  8
0
 10
3700.3516017560759792
 20
134.018917542195112
 30
0.0
 11
3700.3516017560759792
 21
134.1763978571950133
 31
0.0
  0
LINE
  5
12989
  8
0
 10
3700.3516017560759792
 20
134.1763978571950133
 30
0.0
 11
3703.5996332521767727
 21
134.1763978571950133
 31
0.0
  0
ARC
  5
1298A
  8
0
 10
3700.5018107808441528
 20
134.5760762871134943
 30
0.0
 40
0.3997282104344622
 50
270.904251910279072
 51
295.6594983082381987
  0
ARC
  5
1298B
  8
0
 10
3709.2753134674758257
 20
134.6474715838949976
 30
0.0
 40
0.4724409448999353
 50
246.0320341071254973
 51
265.6399891304055245
  0
LINE
  5
1298C
  8
0
 10
3709.4067198663760792
 20
134.1763978571950133
 30
0.0
 11
3709.4067198663760792
 21
134.018917542195112
 31
0.0
  0
LINE
  5
1298D
  8
0
 10
3709.4067198663760792
 20
134.018917542195112
 30
0.0
 11
3707.7334915198762246
 21
134.018917542195112
 31
0.0
  0
LINE
  5
1298E
  8
0
 10
3707.7334915198762246
 20
134.018917542195112
 30
0.0
 11
3707.7334915198762246
 21
134.1763978571950133
 31
0.0
  0
LINE
  5
1298F
  8
0
 10
3707.7334915198762246
 20
134.1763978571950133
 30
0.0
 11
3709.4067198663760792
 21
134.1763978571950133
 31
0.0
  0
ARC
  5
12990
  8
0
 10
3707.8837005446448529
 20
134.5760762871134943
 30
0.0
 40
0.3997282104344622
 50
270.904251910279072
 51
295.6594983082381987
  0
ARC
  5
12991
  8
0
 10
3719.0194079555758435
 20
134.6474715838949976
 30
0.0
 40
0.4724409448999353
 50
246.0320341071254973
 51
265.6399891304055245
  0
LINE
  5
12992
  8
0
 10
3719.1508143544760969
 20
134.1763978571950133
 30
0.0
 11
3719.1508143544760969
 21
134.018917542195112
 31
0.0
  0
LINE
  5
12993
  8
0
 10
3719.1508143544760969
 20
134.018917542195112
 30
0.0
 11
3715.9027828584758026
 21
134.018917542195112
 31
0.0
  0
LINE
  5
12994
  8
0
 10
3715.9027828584758026
 20
134.018917542195112
 30
0.0
 11
3715.9027828584758026
 21
134.1763978571950133
 31
0.0
  0
LINE
  5
12995
  8
0
 10
3715.9027828584758026
 20
134.1763978571950133
 30
0.0
 11
3719.1508143544760969
 21
134.1763978571950133
 31
0.0
  0
ARC
  5
12996
  8
0
 10
3716.0529918832439762
 20
134.5760762871134943
 30
0.0
 40
0.3997282104344622
 50
270.904251910279072
 51
295.6594983082381987
  0
LINE
  5
12997
  8
0
 10
3717.4775860080758321
 20
134.018917542195112
 30
0.0
 11
3717.4775860080758321
 21
134.1763978571950133
 31
0.0
  0
ARC
  5
12998
  8
0
 10
3717.4441249672140657
 20
134.6474715838949976
 30
0.0
 40
0.4724409448999353
 50
246.0320341071254973
 51
265.6399891304055245
  0
ARC
  5
12999
  8
0
 10
3717.6297237334401871
 20
134.5760762871134943
 30
0.0
 40
0.3997282104344622
 50
270.904251910279072
 51
295.6594983082381987
  0
ARC
  5
1299A
  8
0
 10
3701.8883315884058902
 20
134.6474715838949976
 30
0.0
 40
0.4724409448999353
 50
246.0320341071254973
 51
265.6399891304055245
  0
ARC
  5
1299B
  8
0
 10
3702.076888779140063
 20
134.5760762871134943
 30
0.0
 40
0.3997282104344622
 50
270.904251910279072
 51
295.6594983082381987
  0
ENDSEC
  0
EOF
