  0
SECTION
  2
HEADER
  9
$ACADVER
  1
AC1009
  9
$INSBASE
 10
3651.1195313652970071
 20
190.4495252238995135
 30
0.0
  9
$EXTMIN
 10
3617.6208799578348589
 20
174.6987014090688888
 30
-0.0000000349181948
  9
$EXTMAX
 10
3684.8085563996401106
 20
206.210101666171596
 30
0.0000000814935746
  9
$LIMMIN
 10
0.0
 20
0.0
  9
$LIMMAX
 10
11.6929133858000007
 20
8.2677165353999982
  9
$ORTHOMODE
 70
     1
  9
$REGENMODE
 70
     1
  9
$FILLMODE
 70
     1
  9
$QTEXTMODE
 70
     0
  9
$MIRRTEXT
 70
     0
  9
$DRAGMODE
 70
     2
  9
$LTSCALE
 40
0.6431102362
  9
$OSMODE
 70
  2039
  9
$ATTMODE
 70
     1
  9
$TEXTSIZE
 40
0.2
  9
$TRACEWID
 40
0.05
  9
$TEXTSTYLE
  7
STANDARD
  9
$CLAYER
  8
0
  9
$CELTYPE
  6
BYLAYER
  9
$CECOLOR
 62
   256
  9
$DIMSCALE
 40
1.0
  9
$DIMASZ
 40
0.1875
  9
$DIMEXO
 40
0.0625
  9
$DIMDLI
 40
0.4443307087
  9
$DIMRND
 40
0.0
  9
$DIMDLE
 40
0.0
  9
$DIMEXE
 40
0.125
  9
$DIMTP
 40
0.01
  9
$DIMTM
 40
0.01
  9
$DIMTXT
 40
2.0
  9
$DIMCEN
 40
0.1052362205
  9
$DIMTSZ
 40
0.0
  9
$DIMTOL
 70
     1
  9
$DIMLIM
 70
     0
  9
$DIMTIH
 70
     1
  9
$DIMTOH
 70
     1
  9
$DIMSE1
 70
     0
  9
$DIMSE2
 70
     0
  9
$DIMTAD
 70
     0
  9
$DIMZIN
 70
     0
  9
$DIMBLK
  1

  9
$DIMASO
 70
     1
  9
$DIMSHO
 70
     1
  9
$DIMPOST
  1
\X
  9
$DIMAPOST
  1

  9
$DIMALT
 70
     1
  9
$DIMALTD
 70
     2
  9
$DIMALTF
 40
25.3999999999999986
  9
$DIMLFAC
 40
1.0
  9
$DIMTOFL
 70
     0
  9
$DIMTVP
 40
0.0
  9
$DIMTIX
 70
     0
  9
$DIMSOXD
 70
     0
  9
$DIMSAH
 70
     0
  9
$DIMBLK1
  1

  9
$DIMBLK2
  1

  9
$DIMSTYLE
  2
STANDARD
  9
$DIMCLRD
 70
     0
  9
$DIMCLRE
 70
     0
  9
$DIMCLRT
 70
     0
  9
$DIMTFAC
 40
1.0
  9
$DIMGAP
 40
0.09
  9
$LUNITS
 70
     2
  9
$LUPREC
 70
     4
  9
$SKETCHINC
 40
0.1
  9
$FILLETRAD
 40
0.0
  9
$AUNITS
 70
     0
  9
$AUPREC
 70
     0
  9
$MENU
  1
.
  9
$ELEVATION
 40
0.0
  9
$PELEVATION
 40
0.0
  9
$THICKNESS
 40
0.0
  9
$LIMCHECK
 70
     0
  9
$BLIPMODE
 70
     0
  9
$CHAMFERA
 40
0.0
  9
$CHAMFERB
 40
0.0
  9
$SKPOLY
 70
     0
  9
$TDCREATE
 40
2458060.468368056230247
  9
$TDUPDATE
 40
2459215.842627314850688
  9
$TDINDWG
 40
0.3283982639
  9
$TDUSRTIMER
 40
0.3283982639
  9
$USRTIMER
 70
     1
  9
$ANGBASE
 50
0.0
  9
$ANGDIR
 70
     0
  9
$PDMODE
 70
     0
  9
$PDSIZE
 40
0.3125
  9
$PLINEWID
 40
0.0
  9
$COORDS
 70
     1
  9
$SPLFRAME
 70
     0
  9
$SPLINETYPE
 70
     6
  9
$SPLINESEGS
 70
     8
  9
$ATTDIA
 70
     1
  9
$ATTREQ
 70
     1
  9
$HANDLING
 70
     1
  9
$HANDSEED
  5
131A1
  9
$SURFTAB1
 70
     6
  9
$SURFTAB2
 70
     6
  9
$SURFTYPE
 70
     6
  9
$SURFU
 70
     6
  9
$SURFV
 70
     6
  9
$UCSNAME
  2

  9
$UCSORG
 10
0.0
 20
0.0
 30
0.0
  9
$UCSXDIR
 10
1.0
 20
0.0
 30
0.0
  9
$UCSYDIR
 10
0.0
 20
1.0
 30
0.0
  9
$PUCSNAME
  2

  9
$PUCSORG
 10
0.0
 20
0.0
 30
0.0
  9
$PUCSXDIR
 10
1.0
 20
0.0
 30
0.0
  9
$PUCSYDIR
 10
0.0
 20
1.0
 30
0.0
  9
$USERI1
 70
     0
  9
$USERI2
 70
     0
  9
$USERI3
 70
     0
  9
$USERI4
 70
     0
  9
$USERI5
 70
     0
  9
$USERR1
 40
0.0
  9
$USERR2
 40
0.0
  9
$USERR3
 40
0.0
  9
$USERR4
 40
0.0
  9
$USERR5
 40
0.0
  9
$WORLDVIEW
 70
     1
  9
$SHADEDGE
 70
     3
  9
$SHADEDIF
 70
    70
  9
$TILEMODE
 70
     1
  9
$MAXACTVP
 70
    64
  9
$PLIMCHECK
 70
     0
  9
$PEXTMIN
 10
1.0000000000000000E+20
 20
1.0000000000000000E+20
 30
1.0000000000000000E+20
  9
$PEXTMAX
 10
-1.0000000000000000E+20
 20
-1.0000000000000000E+20
 30
-1.0000000000000000E+20
  9
$PLIMMIN
 10
0.0
 20
0.0
  9
$PLIMMAX
 10
12.0
 20
9.0
  9
$UNITMODE
 70
     0
  9
$VISRETAIN
 70
     1
  9
$PLINEGEN
 70
     0
  9
$PSLTSCALE
 70
     1
  0
ENDSEC
  0
SECTION
  2
TABLES
  0
TABLE
  2
VPORT
 70
     1
  0
VPORT
  2
*ACTIVE
 70
     0
 10
0.0
 20
0.0
 11
1.0
 21
1.0
 12
-152.3293492040756973
 22
64.4591393408703226
 13
0.0
 23
0.0
 14
1.0
 24
1.0
 15
0.0
 25
0.0
 16
0.0
 26
0.0
 36
17.1152628219792007
 17
3803.5440673828129547
 27
125.9952621967499056
 37
0.0
 40
31.7736310498108594
 41
2.6486111111111108
 42
50.0
 43
0.0
 44
0.0
 50
0.0
 51
0.0
 71
     0
 72
   100
 73
     1
 74
     1
 75
     0
 76
     0
 77
     0
 78
     0
  0
ENDTAB
  0
TABLE
  2
LTYPE
 70
     2
  0
LTYPE
  2
CONTINUOUS
 70
     0
  3
Solid line
 72
    65
 73
     0
 40
0.0
  0
LTYPE
  2
PHANTOM2
 70
     0
  3
___ _ _ ___ _ _ ___ _ _ ___ _ _
 72
    65
 73
     6
 40
1.25
 49
0.625
 49
-0.125
 49
0.125
 49
-0.125
 49
0.125
 49
-0.125
  0
ENDTAB
  0
TABLE
  2
LAYER
 70
     2
  0
LAYER
  2
0
 70
     0
 62
   255
  6
CONTINUOUS
  0
LAYER
  2
DEFPOINTS
 70
     0
 62
     7
  6
CONTINUOUS
  0
ENDTAB
  0
TABLE
  2
STYLE
 70
     1
  0
STYLE
  2
STANDARD
 70
     0
 40
0.0
 41
0.8
 50
0.0
 71
     0
 42
0.2
  3
txt
  4

  0
ENDTAB
  0
TABLE
  2
VIEW
 70
     0
  0
ENDTAB
  0
TABLE
  2
UCS
 70
     0
  0
ENDTAB
  0
TABLE
  2
APPID
 70
     9
  0
APPID
  2
ACAD
 70
     0
  0
APPID
  2
ACAD_MLEADERVER
 70
     0
  0
APPID
  2
ACAD_EXEMPT_FROM_CAD_STANDARDS
 70
     0
  0
APPID
  2
ACAD_NAV_VCDISPLAY
 70
     0
  0
APPID
  2
ACAECLAYERSTANDARD
 70
     0
  0
APPID
  2
ACCMTRANSPARENCY
 70
     0
  0
APPID
  2
ACAD_DSTYLE_DIMJAG
 70
     0
  0
APPID
  2
ACAD_DSTYLE_DIMTALN
 70
     0
  0
APPID
  2
ACDBATTR
 70
     0
  0
ENDTAB
  0
TABLE
  2
DIMSTYLE
 70
     1
  0
DIMSTYLE
  2
STANDARD
 70
     0
  3

  4

  5

  6

  7

 40
1.0
 41
0.1875
 42
0.0625
 43
0.38
 44
0.125
 45
0.0
 46
0.0
 47
0.01
 48
0.01
140
0.15625
141
0.09
142
0.0
143
25.3999999999999986
144
1.0
145
0.0
146
1.0
147
0.09
 71
     1
 72
     0
 73
     1
 74
     1
 75
     0
 76
     0
 77
     0
 78
     4
170
     0
171
     2
172
     0
173
     0
174
     0
175
     0
176
     0
177
     0
178
     0
  0
ENDTAB
  0
ENDSEC
  0
SECTION
  2
BLOCKS
  0
BLOCK
  8
0
  2
$MODEL_SPACE
 70
     0
 10
0.0
 20
0.0
 30
0.0
  3
$MODEL_SPACE
  1

  0
ENDBLK
  5
21
  8
0
  0
BLOCK
 67
     1
  8
0
  2
$PAPER_SPACE
 70
     0
 10
0.0
 20
0.0
 30
0.0
  3
$PAPER_SPACE
  1

  0
ENDBLK
  5
1D
 67
     1
  8
0
  0
BLOCK
  8
0
  2
_FILLED
 70
     0
 10
0.0
 20
0.0
 30
0.0
  3
_FILLED
  1

  0
SOLID
  5
1270B
  8
0
  6
BYBLOCK
 62
     0
 10
0.0
 20
0.0
 30
0.0
 11
-1.0
 21
0.1666666667
 31
0.0
 12
-1.0
 22
-0.1666666667
 32
0.0
 13
-1.0
 23
-0.1666666667
 33
0.0
  0
ENDBLK
  5
1270C
  8
0
  6
BYBLOCK
 62
     0
  0
ENDSEC
  0
SECTION
  2
ENTITIES
  0
ATTDEF
  5
121EC
  8
DEFPOINTS
 10
3651.1196306839169665
 20
190.4536611146496909
 30
0.0
 40
0.001
  1
K-99779T-GGR58
  3

  2
MODELNUMBER
 70
     0
1001
ACDBATTR
1070
     0
1070
     1
  0
ATTDEF
  5
121ED
  8
DEFPOINTS
 10
3651.1196306839169665
 20
190.4519944479829974
 30
0.0
 40
0.001
  1
COMFORTABLE
  3

  2
TRADENAME
 70
     0
1001
ACDBATTR
1070
     0
1070
     1
  0
ATTDEF
  5
121EE
  8
DEFPOINTS
 10
3651.1196306839169665
 20
190.4503277813163038
 30
0.0
 40
0.001
  1
BATH
  3

  2
PRODUCT
 70
     0
1001
ACDBATTR
1070
     0
1070
     1
  0
LINE
  5
12D5B
  8
0
 10
3617.6554512085131137
 20
203.0448753797292056
 30
0.0
 11
3617.6554512085131137
 21
174.9386556862617113
 31
0.0
  0
ARC
  5
12D5C
  8
0
 10
3617.8905620477207776
 20
174.9372442044740126
 30
0.0
 40
0.2351150760670746
 50
179.656030415269214
 51
270.0740177413633774
  0
ARC
  5
12D5D
  8
0
 10
3684.3091690357628067
 20
175.0008507133941009
 30
0.0
 40
0.2990060673943311
 50
267.486166056913703
 51
267.4995999366165051
  0
ARC
  5
12D5E
  8
0
 10
3684.3091690357628067
 20
175.0008507133941009
 30
0.0
 40
0.2990060673943311
 50
272.5004000633834949
 51
325.9236043799883191
  0
ARC
  5
12D5F
  8
0
 10
3684.3897460370221779
 20
174.9318983936244933
 30
0.0
 40
0.1940003631112728
 50
329.4597173159539238
 51
359.7940747990497812
  0
LINE
  5
12D60
  8
0
 10
3684.5837451471479653
 20
174.931201143703305
 30
0.0
 11
3684.5837451471479653
 21
203.0579965982032888
 31
0.0
  0
ARC
  5
12D61
  8
0
 10
3684.3138384987969403
 20
203.0356012639776964
 30
0.0
 40
0.2708341740230709
 50
4.7432158680269252
 51
77.3634889423211263
  0
ARC
  5
12D62
  8
0
 10
3651.6463488714221057
 20
51.8840095395694618
 30
0.0
 40
154.9122454503396966
 50
77.8038067508767597
 51
81.7994272958871278
  0
ARC
  5
12D63
  8
0
 10
3659.5247349483220205
 20
97.753360796016338
 30
0.0
 40
108.3954198207971018
 50
82.4628525167418758
 51
89.1341766871472743
  0
ARC
  5
12D64
  8
0
 10
3656.1477142458720664
 20
-1.6268879445701141
 30
0.0
 40
207.8238090677722028
 50
88.6172679743011571
 51
93.4507010556286986
  0
ARC
  5
12D65
  8
0
 10
3677.2082087550370488
 20
-263.1597239882441954
 30
0.0
 40
470.1797551628246765
 50
94.0942206644543546
 51
96.8813597034892666
  0
ARC
  5
12D66
  8
0
 10
3696.6513281845100209
 20
-436.3986361010743167
 30
0.0
 40
644.5019127127309275
 50
96.7521565907688341
 51
97.0243893313837731
  0
ARC
  5
12D67
  8
0
 10
3617.8916657109812149
 20
203.0371919039972965
 30
0.0
 40
0.2357327261348074
 50
104.1576824157968986
 51
161.8043901883139881
  0
ARC
  5
12D68
  8
0
 10
3617.924970820075032
 20
203.0288214732105132
 30
0.0
 40
0.2699973128220173
 50
162.323894528989797
 51
176.5912107162839959
  0
LINE
  5
12D69
  8
0
 10
3618.8290388689051724
 20
184.7930100747032895
 30
0.0
 11
3618.8340823549860943
 21
192.1698025496455102
 31
0.0
  0
ARC
  5
12D6A
  8
0
 10
3626.6242323664678224
 20
192.1644764525248092
 30
0.0
 40
7.7901518321971226
 50
91.0317645767504189
 51
179.9608270908402972
  0
ARC
  5
12D6B
  8
0
 10
-984.5727077079208129
 20
175680.2202593460096978
 30
0.0
 40
175540.8383049260010011
 50
271.505202322131197
 51
271.5169432866541115
  0
ARC
  5
12D6C
  8
0
 10
3663.8680827753091762
 20
159.8958553732819894
 30
0.0
 40
41.0308400218775873
 50
85.7875547725811032
 51
91.9903810320314506
  0
ARC
  5
12D6D
  8
0
 10
3695.6684193246451287
 20
622.7248294999162681
 30
0.0
 40
422.8898711135854001
 50
266.0968160112685723
 51
267.2197579780255978
  0
ARC
  5
12D6E
  8
0
 10
3675.1029909025778579
 20
192.9469842223161891
 30
0.0
 40
7.3859381905386421
 50
7.8296435215728977
 51
89.5887543516794977
  0
ARC
  5
12D6F
  8
0
 10
4060.6760944172301606
 20
218.3569584243826966
 30
0.0
 40
379.0424247493904204
 50
183.6914128669212971
 51
183.8920731040564078
  0
LINE
  5
12D70
  8
0
 10
3682.507861904839956
 20
203.691027835017394
 30
0.0
 11
3682.507864994512147
 21
174.7021293245969105
 31
0.0
  0
LINE
  5
12D71
  8
0
 10
3620.8946419910039367
 20
186.2841900384032954
 30
0.0
 11
3620.8946423498368858
 21
190.6790978309859952
 31
0.0
  0
ARC
  5
12D72
  8
0
 10
3628.7929881976970137
 20
190.5991449817192915
 30
0.0
 40
7.8987505081828058
 50
92.0733973620564115
 51
179.4200299086747918
  0
ARC
  5
12D73
  8
0
 10
7863.129705621670837
 20
-162226.7504501348012127
 30
0.0
 40
162480.4346617881965358
 50
91.4870285910264585
 51
91.4934319486433623
  0
ARC
  5
12D74
  8
0
 10
3656.3344852446489313
 20
191.3597747501999038
 30
0.0
 40
7.8672535506891306
 50
1.1304082247272369
 51
77.006734154730637
  0
LINE
  5
12D75
  8
0
 10
3664.2002076923049572
 20
191.5149804436032923
 30
0.0
 11
3664.2002061547050289
 21
185.4483215896032107
 31
0.0
  0
LINE
  5
12D76
  8
0
 10
3626.1619910092049395
 20
186.2599595861032924
 30
0.0
 11
3626.1585381301238158
 21
190.7033478444143952
 31
0.0
  0
ARC
  5
12D77
  8
0
 10
3628.5226709060598296
 20
190.7051849705289044
 30
0.0
 40
2.3641334897345141
 50
91.3595848889740836
 51
180.044523536358497
  0
LINE
  5
12D78
  8
0
 10
3628.4665770967048957
 20
193.0686528975033127
 30
0.0
 11
3656.9192874536051931
 21
193.8145794570033047
 31
0.0
  0
ARC
  5
12D79
  8
0
 10
3657.1718339794051644
 20
191.377553521021099
 30
0.0
 40
2.45007656213917
 50
4.066340799915789
 51
95.9163852039576739
  0
ARC
  5
12D7A
  8
0
 10
5560.7579331821680171
 20
188.4793205086081969
 30
0.0
 40
1901.1446723613919403
 50
179.907418365587688
 51
180.0924389009144875
  0
ARC
  5
12D7B
  8
0
 10
3625.7557404698768551
 20
197.9345419301531024
 30
0.0
 40
0.1594500747136495
 50
93.9101364413612032
 51
128.3819623749739094
  0
ARC
  5
12D7C
  8
0
 10
3625.6430694772129755
 20
198.2263964973134023
 30
0.0
 40
0.1673086010772529
 50
274.6741971945889986
 51
307.4770320582146041
  0
ARC
  5
12D7D
  8
0
 10
3626.2585548648798977
 20
198.0065731870051877
 30
0.0
 40
0.1693740171609257
 50
91.6919167315976154
 51
124.1222180945477049
  0
ARC
  5
12D7E
  8
0
 10
3626.158851147824862
 20
198.3151317000495908
 30
0.0
 40
0.168408805405471
 50
271.5963953297134026
 51
304.2177394964317045
  0
ARC
  5
12D7F
  8
0
 10
3628.5844201997329037
 20
198.3952813031345954
 30
0.0
 40
0.2218728654323161
 50
79.2601186495207486
 51
103.8467622587540973
  0
ARC
  5
12D80
  8
0
 10
3628.5723657497551358
 20
198.8348961810687001
 30
0.0
 40
0.2279162083239777
 50
259.6249826229533824
 51
283.549176769083374
  0
ARC
  5
12D81
  8
0
 10
3629.6484848644340673
 20
198.3506800084537076
 30
0.0
 40
0.2280275304161642
 50
79.5210209565921105
 51
103.4356910898998052
  0
ARC
  5
12D82
  8
0
 10
3629.6369111691819853
 20
198.7958575455699872
 30
0.0
 40
0.227231543689548
 50
259.4999999732880838
 51
283.499999981057897
  0
ARC
  5
12D83
  8
0
 10
3630.3848650418908619
 20
198.3246944987182872
 30
0.0
 40
0.2069639544959794
 50
78.3327174100451913
 51
104.7234482157243036
  0
ARC
  5
12D84
  8
0
 10
3630.3747179226138542
 20
198.7116638080242979
 30
0.0
 40
0.191477933560721
 50
257.1911936590411756
 51
285.7581427353114236
  0
ARC
  5
12D85
  8
0
 10
3631.5755604806531665
 20
198.4694766319296946
 30
0.0
 40
0.2259239931081925
 50
79.4651459511515128
 51
103.6052996610735022
  0
ARC
  5
12D86
  8
0
 10
3631.5639846688318357
 20
198.9113010786959137
 30
0.0
 40
0.2259832596157281
 50
259.3994645853562133
 51
283.5332654221008966
  0
ARC
  5
12D87
  8
0
 10
3632.6395910828427986
 20
198.4290753949773887
 30
0.0
 40
0.2279570382820292
 50
79.5191653074981843
 51
103.4413929516597932
  0
ARC
  5
12D88
  8
0
 10
3632.6280648634601675
 20
198.8721568760674074
 30
0.0
 40
0.225250121541058
 50
259.3928491017035185
 51
283.6071508526334242
  0
ARC
  5
12D89
  8
0
 10
3633.3761928076419281
 20
198.3868650029583023
 30
0.0
 40
0.2232960779578863
 50
79.2602231435134854
 51
103.689242429477801
  0
ARC
  5
12D8A
  8
0
 10
3633.3650763430609913
 20
198.8186624445332882
 30
0.0
 40
0.2188591591339709
 50
259.0086580093607722
 51
283.9408075636332001
  0
ARC
  5
12D8B
  8
0
 10
3634.5666695920931488
 20
198.5479087779025917
 30
0.0
 40
0.2258168396014967
 50
79.4622716770830664
 51
103.6139115026949042
  0
ARC
  5
12D8C
  8
0
 10
3634.55476752588811
 20
198.9911686895787
 30
0.0
 40
0.2275576783065095
 50
259.5560291595904232
 51
283.5201540201725265
  0
ARC
  5
12D8D
  8
0
 10
3635.630691842025044
 20
198.507401415432696
 30
0.0
 40
0.2279557480889601
 50
79.5191313334380823
 51
103.4414972984662029
  0
ARC
  5
12D8E
  8
0
 10
3635.6192081540830259
 20
198.9517803134031908
 30
0.0
 40
0.2265026147463553
 50
259.4412482590194031
 51
283.5193803728545845
  0
ARC
  5
12D8F
  8
0
 10
3636.3674007070071639
 20
198.4599874809433118
 30
0.0
 40
0.2284308546436233
 50
79.5316160016986942
 51
103.4030416620424973
  0
ARC
  5
12D90
  8
0
 10
3636.357479009177041
 20
198.8473220133666075
 30
0.0
 40
0.1706394440057789
 50
255.3946234903723962
 51
287.5400341733795813
  0
ARC
  5
12D91
  8
0
 10
3637.5574834082030975
 20
198.626307248440213
 30
0.0
 40
0.2257400246601569
 50
79.385012885370756
 51
103.5451508156284035
  0
ARC
  5
12D92
  8
0
 10
3637.5461862656761696
 20
199.068015187348891
 30
0.0
 40
0.226101715464644
 50
259.4046244368504972
 51
283.5255357439518207
  0
ARC
  5
12D93
  8
0
 10
3638.6217924455509092
 20
198.585725458101706
 30
0.0
 40
0.2279564309991004
 50
79.5191493162334666
 51
103.4414420668632033
  0
ARC
  5
12D94
  8
0
 10
3638.6102653910661502
 20
199.0288363921852977
 30
0.0
 40
0.2252795247622093
 50
259.3944532556827767
 51
283.6055466986770739
  0
ARC
  5
12D95
  8
0
 10
3639.35851345527999
 20
198.5384658372614126
 30
0.0
 40
0.2282775863696319
 50
79.5275941859344329
 51
103.415454106689495
  0
ARC
  5
12D96
  8
0
 10
3639.3469594929820232
 20
198.9838941053369865
 30
0.0
 40
0.2272316273550149
 50
259.5000021905515268
 51
283.4999954996504812
  0
ARC
  5
12D97
  8
0
 10
3640.5485954589780704
 20
198.7043845315104988
 30
0.0
 40
0.2259832596157212
 50
79.3994645853561423
 51
103.5332654221012945
  0
ARC
  5
12D98
  8
0
 10
3640.5373914509591486
 20
199.1466907181452086
 30
0.0
 40
0.2264163896271151
 50
259.3928888825377044
 51
283.4792211047926003
  0
ARC
  5
12D99
  8
0
 10
3641.612870541520806
 20
198.6649210358636992
 30
0.0
 40
0.2271042858055309
 50
79.4735863446935156
 51
103.4869752002755945
  0
ARC
  5
12D9A
  8
0
 10
3641.6015068422179866
 20
199.1060997162086892
 30
0.0
 40
0.2242148207510698
 50
259.3071431680463093
 51
283.6343844425314842
  0
ARC
  5
12D9B
  8
0
 10
3642.3496806634771019
 20
198.61844899863911
 30
0.0
 40
0.2266348040292603
 50
79.4679312770229842
 51
103.5320686773029024
  0
ARC
  5
12D9C
  8
0
 10
3642.3380601437820587
 20
199.0622187487699932
 30
0.0
 40
0.2272315436895197
 50
259.4999999732880838
 51
283.499999981057897
  0
ARC
  5
12D9D
  8
0
 10
3643.5396961163778542
 20
198.7827092588105984
 30
0.0
 40
0.2259832596157211
 50
79.3994645853558438
 51
103.5332654221012945
  0
ARC
  5
12D9E
  8
0
 10
3643.5283502740339827
 20
199.225932435185598
 30
0.0
 40
0.2273411936319224
 50
259.4726164209533863
 51
283.4601134901594151
  0
ARC
  5
12D9F
  8
0
 10
3644.6039937603509316
 20
198.7423749126016901
 30
0.0
 40
0.2279564309991072
 50
79.5191493162334666
 51
103.4414420668632033
  0
ARC
  5
12DA0
  8
0
 10
3644.5924367813231584
 20
199.1866287455011104
 30
0.0
 40
0.2263975194984384
 50
259.4551307426261246
 51
283.5448683565604142
  0
ARC
  5
12DA1
  8
0
 10
3645.3407396141069512
 20
198.6954559047229054
 30
0.0
 40
0.2279564309991072
 50
79.5191493162334666
 51
103.4414420668632033
  0
ARC
  5
12DA2
  8
0
 10
3645.329182635079178
 20
199.139709737622411
 30
0.0
 40
0.2263975194984384
 50
259.4551307426261246
 51
283.5448683565604142
  0
ARC
  5
12DA3
  8
0
 10
3646.5309029325071606
 20
198.8590816034229078
 30
0.0
 40
0.2279564309991072
 50
79.5191493162334666
 51
103.4414420668632033
  0
ARC
  5
12DA4
  8
0
 10
3646.5193459534780231
 20
199.3033354363224134
 30
0.0
 40
0.2263975194984384
 50
259.4551307426261246
 51
283.5448683565604142
  0
ARC
  5
12DA5
  8
0
 10
3658.4609335467230267
 20
199.1931816841427008
 30
0.0
 40
0.1406934993130135
 50
65.1821808134753979
 51
104.4677382994667028
  0
ARC
  5
12DA6
  8
0
 10
3658.4849841080440456
 20
199.4587344691354929
 30
0.0
 40
0.1422273379334889
 50
245.4025748525617985
 51
284.2473442603691183
  0
ARC
  5
12DA7
  8
0
 10
3659.7104493553038083
 20
198.8857173735732999
 30
0.0
 40
0.0957573234069814
 50
45.4740880137444421
 51
105.0735888205429944
  0
ARC
  5
12DA8
  8
0
 10
3659.7529852113748348
 20
199.0475533192110049
 30
0.0
 40
0.0967502497473692
 50
225.8102803888502024
 51
284.7373964454533279
  0
ARC
  5
12DA9
  8
0
 10
3660.1510099025099407
 20
198.5713166934197886
 30
0.0
 40
0.0867214751639894
 50
36.3024127455879722
 51
103.9611902214780059
  0
ARC
  5
12DAA
  8
0
 10
3660.1997186767530366
 20
198.7045686494209065
 30
0.0
 40
0.0844998333633546
 50
214.7784640674871071
 51
284.5261563293727249
  0
ARC
  5
12DAB
  8
0
 10
3661.3924942698299674
 20
198.6646437904927041
 30
0.0
 40
0.0727031577363088
 50
206.9779459284380039
 51
288.1635293633113974
  0
ARC
  5
12DAC
  8
0
 10
3661.3492565079959604
 20
198.5598929976596025
 30
0.0
 40
0.0749358919732938
 50
28.4252624414496289
 51
106.7162127704817038
  0
ARC
  5
12DAD
  8
0
 10
3662.5878317469991998
 20
197.3636489507341878
 30
0.0
 40
0.0624968567093234
 50
179.0473698788239005
 51
280.7000603166662245
  0
ARC
  5
12DAE
  8
0
 10
3662.5319147817622252
 20
197.2961768496928983
 30
0.0
 40
0.0677921779462942
 50
5.130177827445598
 51
95.5698824448153488
  0
ARC
  5
12DAF
  8
0
 10
3662.6757137753638744
 20
197.5612181720078127
 30
0.0
 40
0.060231980121251
 50
0.0734760859443247
 51
105.7311306999326064
  0
ARC
  5
12DB0
  8
0
 10
3662.7257591057300488
 20
197.6273954898721001
 30
0.0
 40
0.0668803926915703
 50
187.0437472636571101
 51
278.7608595216739218
  0
ARC
  5
12DB1
  8
0
 10
3663.94084476661601
 20
197.0073880716269059
 30
0.0
 40
0.0537260991567343
 50
347.2011345481756734
 51
110.6463514107094994
  0
ARC
  5
12DB2
  8
0
 10
3663.9747379549589823
 20
197.0462730794426136
 30
0.0
 40
0.0540507779358531
 50
167.8344410964438111
 51
290.013044862428103
  0
ARC
  5
12DB3
  8
0
 10
3664.2490555858807966
 20
195.4873106466831985
 30
0.0
 40
0.0565392343171903
 50
327.1772738809302155
 51
86.8032396766488858
  0
ARC
  5
12DB4
  8
0
 10
3664.2991538125220359
 20
195.5128262380590911
 30
0.0
 40
0.0562216836809206
 50
146.616222581648799
 51
267.3642909951503839
  0
ARC
  5
12DB5
  8
0
 10
3664.891101223017813
 20
195.343419226191287
 30
0.0
 40
0.0545332771423191
 50
135.149548630202986
 51
267.0626466903810865
  0
ARC
  5
12DB6
  8
0
 10
3664.849878048276878
 20
195.3275074863323937
 30
0.0
 40
0.0544321286141736
 50
314.9097752811616147
 51
87.3024200370520873
  0
ARC
  5
12DB7
  8
0
 10
3665.8369115541268002
 20
194.5607125898445133
 30
0.0
 40
0.0478264243428953
 50
303.4094358403784781
 51
105.9762461800024056
  0
ARC
  5
12DB8
  8
0
 10
3665.8507773161431942
 20
194.5670880289235924
 30
0.0
 40
0.0479483760875135
 50
124.3134407649705935
 51
285.0722412553957952
  0
ARC
  5
12DB9
  8
0
 10
3665.1974077240529368
 20
193.5309051547966988
 30
0.0
 40
0.0532554831769344
 50
128.278580668283297
 51
255.4818589051212996
  0
ARC
  5
12DBA
  8
0
 10
3665.1607211335340253
 20
193.5231873043788937
 30
0.0
 40
0.0496615266374569
 50
298.0280760248979277
 51
85.7323635485161333
  0
ARC
  5
12DBB
  8
0
 10
3665.8494852031540177
 20
192.5980835521338008
 30
0.0
 40
0.0552870956632306
 50
98.5562820308420982
 51
238.3618054088427982
  0
ARC
  5
12DBC
  8
0
 10
3665.8118943364152074
 20
192.6057594875179859
 30
0.0
 40
0.0554159083472791
 50
278.9171705090387832
 51
58.0009169306316181
  0
CIRCLE
  5
12DBD
  8
0
 10
3643.6388629761049742
 20
188.4816599503031966
 30
0.0
 40
1.3582677165000001
  0
CIRCLE
  5
12DBE
  8
0
 10
3643.6388629761049742
 20
188.4816599503031966
 30
0.0
 40
1.7865756696999999
  0
ARC
  5
12DBF
  8
0
 10
3665.4233308089837919
 20
191.4602655167032879
 30
0.0
 40
0.0507352936888794
 50
111.3792405096533997
 51
248.6207594903459039
  0
ARC
  5
12DC0
  8
0
 10
3665.3864429617910901
 20
191.4602655167032879
 30
0.0
 40
0.0506981336968827
 50
291.271707533022493
 51
68.7282924669763275
  0
ARC
  5
12DC1
  8
0
 10
3666.3986013439598537
 20
191.4875477506953132
 30
0.0
 40
0.0478022199055556
 50
102.2382447598478024
 51
263.40069667485119
  0
ARC
  5
12DC2
  8
0
 10
3666.3886713286487975
 20
191.4870587092968037
 30
0.0
 40
0.0472053739246597
 50
275.392591947065398
 51
90.2463494876325569
  0
ARC
  5
12DC3
  8
0
 10
3665.8764879745508551
 20
189.9912433649033119
 30
0.0
 40
0.0487488162919025
 50
104.2727343383909044
 51
255.7272656616090956
  0
ARC
  5
12DC4
  8
0
 10
3665.8529605545340928
 20
189.9912433649033119
 30
0.0
 40
0.048625727241827
 50
283.6909821991421836
 51
76.3090178008577453
  0
ARC
  5
12DC5
  8
0
 10
3665.4237570317100108
 20
188.4681395325031872
 30
0.0
 40
0.0508922163254163
 50
111.8260780208119058
 51
248.1739219791869004
  0
ARC
  5
12DC6
  8
0
 10
3665.3864429617910901
 20
188.4681395325031872
 30
0.0
 40
0.0506981336968919
 50
291.2717075330243119
 51
68.7282924669757449
  0
ARC
  5
12DC7
  8
0
 10
3666.3983317835841262
 20
188.4951803707533031
 30
0.0
 40
0.0475320504386457
 50
96.3099643931930416
 51
263.6900356068069868
  0
ARC
  5
12DC8
  8
0
 10
3666.3883977674631751
 20
188.4951803707533031
 30
0.0
 40
0.0474782860486422
 50
275.6931738787044992
 51
84.3068261212954866
  0
ARC
  5
12DC9
  8
0
 10
3665.8764879744639984
 20
186.999117380653189
 30
0.0
 40
0.0487488162219166
 50
104.2727342533807047
 51
255.7272657466191959
  0
ARC
  5
12DCA
  8
0
 10
3665.8529605545750201
 20
186.999117380653189
 30
0.0
 40
0.048625727183548
 50
283.6909821662106879
 51
76.3090178337893548
  0
ARC
  5
12DCB
  8
0
 10
3665.4235724881368697
 20
185.4760135482032126
 30
0.0
 40
0.0508238935285964
 50
111.6329476332605992
 51
248.3670523667381076
  0
ARC
  5
12DCC
  8
0
 10
3665.3864429617910901
 20
185.4760135482032126
 30
0.0
 40
0.0506981336968906
 50
291.2717075330231182
 51
68.7282924669763275
  0
ARC
  5
12DCD
  8
0
 10
3666.3983115012310918
 20
185.5030543865032939
 30
0.0
 40
0.0475298255876956
 50
96.2856627390265203
 51
263.7143372609734797
  0
ARC
  5
12DCE
  8
0
 10
3666.3884895758938001
 20
185.5030543865032939
 30
0.0
 40
0.0474692664999838
 50
275.5829069044675066
 51
84.4170930955326639
  0
ARC
  5
12DCF
  8
0
 10
3665.7956420335867733
 20
184.0011767767701087
 30
0.0
 40
0.0511317034742904
 50
83.4983632338219053
 51
229.1447889950696037
  0
ARC
  5
12DD0
  8
0
 10
3665.7705333828498624
 20
184.0121874284735952
 30
0.0
 40
0.0503798483727577
 50
260.4722474402040007
 51
52.1709047886942727
  0
ARC
  5
12DD1
  8
0
 10
3665.1915753639368631
 20
183.4162778075690028
 30
0.0
 40
0.0518331817674201
 50
103.7737573265850983
 51
239.2147592713845086
  0
ARC
  5
12DD2
  8
0
 10
3665.154165472773002
 20
183.4218725859597896
 30
0.0
 40
0.0512915746422724
 50
282.2472831035884724
 51
60.7412334944006673
  0
ARC
  5
12DD3
  8
0
 10
3665.8625827463838505
 20
182.422572326921312
 30
0.0
 40
0.0479127208633489
 50
74.9388760233347142
 51
236.1970778875827079
  0
ARC
  5
12DD4
  8
0
 10
3665.8489394718399126
 20
182.4287703874668978
 30
0.0
 40
0.047816041993768
 50
254.2086810690566097
 51
56.9272728418766505
  0
ARC
  5
12DD5
  8
0
 10
3664.9649666969698956
 20
181.7490201912881957
 30
0.0
 40
0.0509509648260221
 50
79.5428181086260508
 51
218.7702264142288868
  0
ARC
  5
12DD6
  8
0
 10
3664.934331021962862
 20
181.7673142414184042
 30
0.0
 40
0.0510156497199933
 50
259.7374165374022823
 51
38.5756285204508202
  0
ARC
  5
12DD7
  8
0
 10
3664.2874054116427942
 20
181.4320131229806918
 30
0.0
 40
0.0573543039085396
 50
93.9026690352757782
 51
210.7082956016328126
  0
ARC
  5
12DD8
  8
0
 10
3664.2386984529698566
 20
181.4575789031651993
 30
0.0
 40
0.0548580903647486
 50
269.3680721963797282
 51
35.2428924405361315
  0
ARC
  5
12DD9
  8
0
 10
3663.5535985691872156
 20
180.0177273441724992
 30
0.0
 40
0.0563327200364399
 50
75.2610585612013239
 51
189.3749395617703044
  0
ARC
  5
12DDA
  8
0
 10
3663.5128971098088186
 20
180.0624294445696023
 30
0.0
 40
0.0558950882694463
 50
254.5621776582688085
 51
10.0738215815811607
  0
ARC
  5
12DDB
  8
0
 10
3663.9957447442511693
 20
179.9357095048302995
 30
0.0
 40
0.053944807270555
 50
69.969301075949943
 51
192.5566923086994109
  0
ARC
  5
12DDC
  8
0
 10
3663.962943930469919
 20
179.9730945622353033
 30
0.0
 40
0.0529740708767931
 50
247.9891843634900113
 51
14.5367970560148905
  0
ARC
  5
12DDD
  8
0
 10
3662.5738907013028438
 20
179.5834056384312873
 30
0.0
 40
0.0671400992143338
 50
87.7036451634037348
 51
179.8050330773868097
  0
ARC
  5
12DDE
  8
0
 10
3662.512609443348083
 20
179.6474111711893897
 30
0.0
 40
0.064045576381883
 50
264.7516362723540055
 51
2.7570419453865989
  0
ARC
  5
12DDF
  8
0
 10
3661.638940900480975
 20
178.6686400921547886
 30
0.0
 40
0.0717805163575162
 50
75.9869678476518402
 51
158.3494296345506029
  0
ARC
  5
12DE0
  8
0
 10
3661.5900712622001265
 20
178.7638600846482007
 30
0.0
 40
0.0710160199685269
 50
255.4451106810219017
 51
338.8912867589535836
  0
ARC
  5
12DE1
  8
0
 10
3661.4193253046878453
 20
178.3060384903803879
 30
0.0
 40
0.07537207816384
 50
73.7120437636880865
 51
151.4644257947113033
  0
ARC
  5
12DE2
  8
0
 10
3661.3750566269868614
 20
178.4128818706741129
 30
0.0
 40
0.0739472552762194
 50
252.6415443546902964
 51
332.1926387888806858
  0
ARC
  5
12DE3
  8
0
 10
3660.1763330289541045
 20
178.2453522274929867
 30
0.0
 40
0.0889138243301067
 50
76.6570844592564669
 51
142.3665635764083959
  0
ARC
  5
12DE4
  8
0
 10
3660.127485463478024
 20
178.383203081787201
 30
0.0
 40
0.0862976208540766
 50
255.5280691837037921
 51
323.4955788519476982
  0
ARC
  5
12DE5
  8
0
 10
3659.3744659920121194
 20
177.820306070923607
 30
0.0
 40
0.0995354593725888
 50
74.3134839390743451
 51
131.0904884936938117
  0
ARC
  5
12DE6
  8
0
 10
3659.3337911044250177
 20
178.0007656120646971
 30
0.0
 40
0.1083069966324152
 50
256.7930392959495975
 51
308.6109331382822916
  0
ARC
  5
12DE7
  8
0
 10
3658.512084457887795
 20
177.5074308675746124
 30
0.0
 40
0.1418941875777166
 50
75.8569548478644293
 51
114.7965767201021947
  0
ARC
  5
12DE8
  8
0
 10
3658.4880812235442136
 20
177.7689437300132909
 30
0.0
 40
0.1371085067746676
 50
254.9877550689380996
 51
295.3368773700187262
  0
LINE
  5
12DE9
  8
0
 10
3674.4445643015051246
 20
196.4503433295033119
 30
0.0
 11
3677.3898532143048214
 21
196.5413326422032867
 31
0.0
  0
ARC
  5
12DEA
  8
0
 10
3677.4588368672011711
 20
194.3083584388701013
 30
0.0
 40
2.2340395110915581
 50
26.3988041871592216
 51
91.7694855062097332
  0
LINE
  5
12DEB
  8
0
 10
3679.8707051788051103
 20
191.0611873499032924
 30
0.0
 11
3679.888695468791866
 21
188.4816599503031966
 31
0.0
  0
ARC
  5
12DEC
  8
0
 10
3656.1539436895418476
 20
191.6843408014802037
 30
0.0
 40
23.7249466967327791
 50
358.4949104499420969
 51
4.79138317938295
  0
ARC
  5
12DED
  8
0
 10
3672.7894957966959737
 20
193.0787476799580134
 30
0.0
 40
7.0310566631730111
 50
4.79138317938295
 51
18.4305355657498211
  0
ARC
  5
12DEE
  8
0
 10
3674.3043646034420817
 20
194.5444450773732967
 30
0.0
 40
1.91104790698958
 50
85.7928453520416952
 51
120.1826842194337956
  0
ARC
  5
12DEF
  8
0
 10
3674.1727264201231264
 20
194.9593060318813116
 30
0.0
 40
1.4892680122081421
 50
123.8316992355124029
 51
179.0733886907549106
  0
LINE
  5
12DF0
  8
0
 10
3672.6836531605440541
 20
194.9833900471523123
 30
0.0
 11
3672.7814646713350157
 21
192.5083506114524141
 31
0.0
  0
ARC
  5
12DF1
  8
0
 10
3537.8390943527060699
 20
179.6263227205471935
 30
0.0
 40
135.5558554611048976
 50
3.7455778795782528
 51
5.4531122869918942
  0
ARC
  5
12DF2
  8
0
 10
3675.0324213555750248
 20
195.9736952190457941
 30
0.0
 40
0.1315807353504128
 50
149.2103410827137111
 51
182.9258630900918092
  0
ARC
  5
12DF3
  8
0
 10
3675.1814818065058716
 20
195.8848738163582084
 30
0.0
 40
0.3050980532394259
 50
139.3704771847635868
 51
149.2103410827137111
  0
ARC
  5
12DF4
  8
0
 10
3675.1518525389569731
 20
195.8973509153281043
 30
0.0
 40
0.2746624390719969
 50
115.6824810522201972
 51
137.3206618770848877
  0
ARC
  5
12DF5
  8
0
 10
3675.1413920414352106
 20
195.9253773080353938
 30
0.0
 40
0.2448864740364791
 50
98.5851132399263008
 51
116.3186731348530003
  0
ARC
  5
12DF6
  8
0
 10
3675.1256572358438461
 20
196.0466454190836032
 30
0.0
 40
0.1226546707178165
 50
67.9415046166919723
 51
99.7736792167097519
  0
ARC
  5
12DF7
  8
0
 10
3675.1455029923358779
 20
196.1001862105248961
 30
0.0
 40
0.0656022862310977
 50
24.5024248372114499
 51
66.4440632031553804
  0
ARC
  5
12DF8
  8
0
 10
3675.1329428069379901
 20
196.1030007280085954
 30
0.0
 40
0.0762609583163243
 50
336.404730809250907
 51
18.6544613200397791
  0
ARC
  5
12DF9
  8
0
 10
3675.0064775144719533
 20
196.1463353922021895
 30
0.0
 40
0.2097827639328106
 50
326.4676283777006915
 51
339.3855326531066225
  0
ARC
  5
12DFA
  8
0
 10
3674.8935555326888789
 20
196.219023959353791
 30
0.0
 40
0.3440699679068669
 50
317.1572759896490084
 51
326.7653275711988954
  0
ARC
  5
12DFB
  8
0
 10
3674.8652691232291545
 20
196.2429649148726867
 30
0.0
 40
0.3810934872764226
 50
306.6169319487920006
 51
317.4099126789225807
  0
ARC
  5
12DFC
  8
0
 10
3674.9301578381068794
 20
196.1523534859879874
 30
0.0
 40
0.2696685097732647
 50
291.9995141615007128
 51
307.034205537671312
  0
ARC
  5
12DFD
  8
0
 10
3674.9810667087049296
 20
196.0179750765094013
 30
0.0
 40
0.1260432097903915
 50
260.3208214281165738
 51
293.4251721142488236
  0
ARC
  5
12DFE
  8
0
 10
3674.9733382453450758
 20
195.9590036128211068
 30
0.0
 40
0.0666514059521078
 50
216.4798786824144088
 51
258.3462867913785885
  0
ARC
  5
12DFF
  8
0
 10
3674.977472607297841
 20
195.968762442238301
 30
0.0
 40
0.0759690818505224
 50
200.9513006321055002
 51
220.5474407630655946
  0
ARC
  5
12E00
  8
0
 10
3674.9887544374628305
 20
195.972751650250899
 30
0.0
 40
0.0879319902470925
 50
183.7642212119723979
 51
200.7501978532154112
  0
ARC
  5
12E01
  8
0
 10
3675.0005248707861938
 20
195.9481066033631009
 30
0.0
 40
0.1001999770446254
 50
171.6132785798671136
 51
198.6158568865440941
  0
ARC
  5
12E02
  8
0
 10
3674.9731215001129385
 20
195.9388759064885051
 30
0.0
 40
0.0712837101860606
 50
198.6158568865440941
 51
220.8920550737138058
  0
ARC
  5
12E03
  8
0
 10
3674.973486130927995
 20
195.9391916711190049
 30
0.0
 40
0.0717660616486747
 50
220.8920550737149995
 51
241.3954001783203864
  0
ARC
  5
12E04
  8
0
 10
3674.9793086743079584
 20
195.9498689314768001
 30
0.0
 40
0.0839277186144818
 50
241.3954001783203864
 51
270.7291514824499927
  0
ARC
  5
12E05
  8
0
 10
3674.978188357756153
 20
196.0378972032181935
 30
0.0
 40
0.1719631190790338
 50
270.7291514824499927
 51
292.491255659055696
  0
ARC
  5
12E06
  8
0
 10
3674.9249325455280086
 20
196.1665236277243878
 30
0.0
 40
0.3111785586585995
 50
292.491255659055696
 51
310.5514631901622806
  0
ARC
  5
12E07
  8
0
 10
3674.8438729630438502
 20
196.2612597666048941
 30
0.0
 40
0.4358605217585345
 50
310.5514631901634175
 51
327.758459781421891
  0
ARC
  5
12E08
  8
0
 10
3675.0836865871069676
 20
196.1099981387274909
 30
0.0
 40
0.1523280644381787
 50
327.7584597814205267
 51
352.3784994282020762
  0
ARC
  5
12E09
  8
0
 10
3675.1707065819359741
 20
196.0983539546622865
 30
0.0
 40
0.0645324693179798
 50
352.3784994281988929
 51
26.7024170145422488
  0
ARC
  5
12E0A
  8
0
 10
3675.1874619734890075
 20
196.1067819243247925
 30
0.0
 40
0.0457768349977905
 50
26.7024170145568611
 51
60.8168238009780211
  0
ARC
  5
12E0B
  8
0
 10
3675.1600104405229104
 20
196.0581262813282137
 30
0.0
 40
0.101642135592184
 50
60.6802234216819016
 51
75.6351324506460969
  0
ARC
  5
12E0C
  8
0
 10
3675.1691869006572233
 20
196.1001972075214894
 30
0.0
 40
0.0586303356751735
 50
74.1221309169293932
 51
83.716995855501807
  0
ARC
  5
12E0D
  8
0
 10
3626.6279941889160909
 20
184.8075934186875884
 30
0.0
 40
7.7989689547690944
 50
180.1071378220981103
 51
268.9417608738021954
  0
ARC
  5
12E0E
  8
0
 10
939.7075861962202907
 20
-102356.6881747893930878
 30
0.0
 40
102568.8940145619999385
 50
88.4788801985015141
 51
88.4989741927049636
  0
ARC
  5
12E0F
  8
0
 10
3663.8680827753091762
 20
217.0674645273244892
 30
0.0
 40
41.0308400218775873
 50
268.0096189679684926
 51
274.2124452274189252
  0
ARC
  5
12E10
  8
0
 10
3695.6684193246451287
 20
-245.7615095993095906
 30
0.0
 40
422.8898711135854001
 50
92.7802420219743738
 51
93.9031839887314561
  0
ARC
  5
12E11
  8
0
 10
3675.1029872808799155
 20
184.0163451869615017
 30
0.0
 40
7.3859477249604772
 50
270.4112732131418966
 51
352.1702191792239773
  0
ARC
  5
12E12
  8
0
 10
3628.7929887366481125
 20
186.3641761345224097
 30
0.0
 40
7.898751742521239
 50
180.5802111782863903
 51
267.9265990500996963
  0
ARC
  5
12E13
  8
0
 10
-2612.9080816547780159
 20
-240558.3731807685981039
 30
0.0
 40
240817.7385832614090759
 50
88.5105448442589733
 51
88.5148652081301464
  0
ARC
  5
12E14
  8
0
 10
3656.3414692721808024
 20
185.5966548311747886
 30
0.0
 40
7.8601366488947564
 50
282.9542724767856043
 51
358.9186736027655797
  0
ARC
  5
12E15
  8
0
 10
3628.5200624807630447
 20
186.2521447760474018
 30
0.0
 40
2.3580844209301408
 50
179.8101185650799039
 51
268.7003223611908993
  0
LINE
  5
12E16
  8
0
 10
3628.4665770967048957
 20
183.8946670031033079
 30
0.0
 11
3656.919269761475789
 21
183.1487408898804858
 31
0.0
  0
ARC
  5
12E17
  8
0
 10
3657.2331633241510644
 20
185.5126867042060042
 30
0.0
 40
2.3846947355494148
 50
262.4362982900876204
 51
357.5821800629096856
  0
ARC
  5
12E18
  8
0
 10
3625.7557404698768551
 20
179.0287779704534046
 30
0.0
 40
0.1594500747136495
 50
231.6180376250260906
 51
266.0898635586386831
  0
ARC
  5
12E19
  8
0
 10
3625.6430694772129755
 20
178.7369234032931047
 30
0.0
 40
0.1673086010772529
 50
52.5229679417854385
 51
85.3258028054110724
  0
ARC
  5
12E1A
  8
0
 10
3626.2585548648798977
 20
178.9567467136012908
 30
0.0
 40
0.1693740171609257
 50
235.8777819054523093
 51
268.3080832684024131
  0
ARC
  5
12E1B
  8
0
 10
3626.158851147824862
 20
178.6481882005568878
 30
0.0
 40
0.168408805405471
 50
55.7822605035682813
 51
88.4036046702866543
  0
ARC
  5
12E1C
  8
0
 10
3628.5844201997329037
 20
178.5680385974719115
 30
0.0
 40
0.2218728654323161
 50
256.1532377412453911
 51
280.7398813504793225
  0
ARC
  5
12E1D
  8
0
 10
3628.5723657497551358
 20
178.1284237195378068
 30
0.0
 40
0.2279162083239777
 50
76.4508232309165834
 51
100.3750173770466034
  0
ARC
  5
12E1E
  8
0
 10
3629.6484848644340673
 20
178.6126398921527993
 30
0.0
 40
0.2280275304161642
 50
256.5643089101001806
 51
280.4789790434078895
  0
ARC
  5
12E1F
  8
0
 10
3629.6369111691819853
 20
178.1674623550364913
 30
0.0
 40
0.227231543689548
 50
76.5000000189421314
 51
100.500000026711902
  0
ARC
  5
12E20
  8
0
 10
3630.3848650418908619
 20
178.6386254018881914
 30
0.0
 40
0.2069639544959794
 50
255.2765517842757106
 51
281.6672825899548229
  0
ARC
  5
12E21
  8
0
 10
3630.3747179226138542
 20
178.2516560925822944
 30
0.0
 40
0.191477933560721
 50
74.2418572646885622
 51
102.8088063409586965
  0
ARC
  5
12E22
  8
0
 10
3631.5755604806531665
 20
178.4938432686768124
 30
0.0
 40
0.2259239931081925
 50
256.3947003389263841
 51
280.5348540488485014
  0
ARC
  5
12E23
  8
0
 10
3631.5639846688318357
 20
178.0520188219105933
 30
0.0
 40
0.2259832596157281
 50
76.466734577899075
 51
100.6005354146438009
  0
ARC
  5
12E24
  8
0
 10
3632.6395910828427986
 20
178.5342445056290899
 30
0.0
 40
0.2279570382820292
 50
256.5586070483402068
 51
280.4808346925017872
  0
ARC
  5
12E25
  8
0
 10
3632.6280648634601675
 20
178.0911630245390995
 30
0.0
 40
0.225250121541058
 50
76.3928491473665474
 51
100.6071508982964957
  0
ARC
  5
12E26
  8
0
 10
3633.3761928076419281
 20
178.5764548976482899
 30
0.0
 40
0.2232960779578863
 50
256.3107575705221848
 51
280.7397768564865146
  0
ARC
  5
12E27
  8
0
 10
3633.3650763430609913
 20
178.1446574560731904
 30
0.0
 40
0.2188591591339709
 50
76.0591924363668141
 51
100.9913419906391994
  0
ARC
  5
12E28
  8
0
 10
3634.5666695920931488
 20
178.4154111227040005
 30
0.0
 40
0.2258168396014967
 50
256.3860884973050247
 51
280.5377283229169052
  0
ARC
  5
12E29
  8
0
 10
3634.55476752588811
 20
177.972151211027807
 30
0.0
 40
0.2275576783065095
 50
76.4798459798275019
 51
100.4439708404095057
  0
ARC
  5
12E2A
  8
0
 10
3635.630691842025044
 20
178.455918485173811
 30
0.0
 40
0.2279557480889601
 50
256.5585027015337118
 51
280.4808686665618893
  0
ARC
  5
12E2B
  8
0
 10
3635.6192081540830259
 20
178.0115395872032877
 30
0.0
 40
0.2265026147463553
 50
76.4806196271454155
 51
100.5587517409805969
  0
ARC
  5
12E2C
  8
0
 10
3636.3674007070071639
 20
178.5033324196631952
 30
0.0
 40
0.2284308546436233
 50
256.596958337957517
 51
280.4683839983013058
  0
ARC
  5
12E2D
  8
0
 10
3636.357479009177041
 20
178.1159978872400131
 30
0.0
 40
0.1706394440057789
 50
72.4599658266203619
 51
104.6053765096276038
  0
ARC
  5
12E2E
  8
0
 10
3637.5574834082030975
 20
178.3370126521664076
 30
0.0
 40
0.2257400246601569
 50
256.4548491843714828
 51
280.614987114629173
  0
ARC
  5
12E2F
  8
0
 10
3637.5461862656761696
 20
177.8953047132575875
 30
0.0
 40
0.226101715464644
 50
76.4744642560482077
 51
100.5953755631494033
  0
ARC
  5
12E30
  8
0
 10
3638.6217924455509092
 20
178.377594442504801
 30
0.0
 40
0.2279564309991004
 50
256.5585579331367967
 51
280.4808506837666187
  0
ARC
  5
12E31
  8
0
 10
3638.6102653910661502
 20
177.9344835084212093
 30
0.0
 40
0.2252795247622093
 50
76.3944533013229261
 51
100.6055467443170954
  0
ARC
  5
12E32
  8
0
 10
3639.35851345527999
 20
178.4248540633450943
 30
0.0
 40
0.2282775863696319
 50
256.5845458933105192
 51
280.4724058140656098
  0
ARC
  5
12E33
  8
0
 10
3639.3469594929820232
 20
177.979425795269492
 30
0.0
 40
0.2272316273550149
 50
76.5000045003494336
 51
100.4999978094485016
  0
ARC
  5
12E34
  8
0
 10
3640.5485954589780704
 20
178.2589353690960081
 30
0.0
 40
0.2259832596157212
 50
256.4667345778987055
 51
280.6005354146439004
  0
ARC
  5
12E35
  8
0
 10
3640.5373914509591486
 20
177.8166291824612983
 30
0.0
 40
0.2264163896271151
 50
76.5207788952073713
 51
100.6071111174622956
  0
ARC
  5
12E36
  8
0
 10
3641.612870541520806
 20
178.2983988647428077
 30
0.0
 40
0.2271042858055309
 50
256.5130247997244055
 51
280.5264136553064986
  0
ARC
  5
12E37
  8
0
 10
3641.6015068422179866
 20
177.8572201843977894
 30
0.0
 40
0.2242148207510698
 50
76.3656155574685016
 51
100.6928568319536055
  0
ARC
  5
12E38
  8
0
 10
3642.3496806634771019
 20
178.3448709019675107
 30
0.0
 40
0.2266348040292603
 50
256.4679313226969839
 51
280.5320687229769874
  0
ARC
  5
12E39
  8
0
 10
3642.3380601437820587
 20
177.9011011518365137
 30
0.0
 40
0.2272315436895197
 50
76.5000000189421314
 51
100.500000026711902
  0
ARC
  5
12E3A
  8
0
 10
3643.5396961163778542
 20
178.1806106417959938
 30
0.0
 40
0.2259832596157211
 50
256.4667345778987055
 51
280.6005354146439004
  0
ARC
  5
12E3B
  8
0
 10
3643.5283502740339827
 20
177.7373874654209089
 30
0.0
 40
0.2273411936319224
 50
76.5398865098405849
 51
100.5273835790465995
  0
ARC
  5
12E3C
  8
0
 10
3644.6039937603509316
 20
178.2209449880047885
 30
0.0
 40
0.2279564309991072
 50
256.5585579331367967
 51
280.4808506837666187
  0
ARC
  5
12E3D
  8
0
 10
3644.5924367813231584
 20
177.7766911551053965
 30
0.0
 40
0.2263975194984384
 50
76.4551316434395858
 51
100.5448692573738043
  0
ARC
  5
12E3E
  8
0
 10
3645.3407396141069512
 20
178.2678639958836015
 30
0.0
 40
0.2279564309991072
 50
256.5585579331367967
 51
280.4808506837666187
  0
ARC
  5
12E3F
  8
0
 10
3645.329182635079178
 20
177.823610162984096
 30
0.0
 40
0.2263975194984384
 50
76.4551316434395858
 51
100.5448692573738043
  0
ARC
  5
12E40
  8
0
 10
3646.5309029325071606
 20
178.1042382971835991
 30
0.0
 40
0.2279564309991072
 50
256.5585579331367967
 51
280.4808506837666187
  0
ARC
  5
12E41
  8
0
 10
3646.5193459534780231
 20
177.6599844642840935
 30
0.0
 40
0.2263975194984384
 50
76.4551316434395858
 51
100.5448692573738043
  0
LINE
  5
12E42
  8
0
 10
3674.4445643015051246
 20
180.5129765711033087
 30
0.0
 11
3677.3898532143048214
 21
180.4219872584033055
 31
0.0
  0
ARC
  5
12E43
  8
0
 10
3677.4588368672011711
 20
182.6549614617364057
 30
0.0
 40
2.2340395110915581
 50
268.230514493790281
 51
333.6011958128406718
  0
LINE
  5
12E44
  8
0
 10
3679.8707051788051103
 20
185.9021325507032998
 30
0.0
 11
3679.888695468791866
 21
188.4816599503031966
 31
0.0
  0
ARC
  5
12E45
  8
0
 10
3656.1539436895418476
 20
185.2789790991263033
 30
0.0
 40
23.7249466967327791
 50
355.2086168206154184
 51
1.50508955005623
  0
ARC
  5
12E46
  8
0
 10
3672.7894957966959737
 20
183.8845722206486073
 30
0.0
 40
7.0310566631730111
 50
341.5694644342485731
 51
355.2086168206154184
  0
ARC
  5
12E47
  8
0
 10
3674.3043646034420817
 20
182.4188748232332955
 30
0.0
 40
1.91104790698958
 50
239.8173157805661901
 51
274.2071546479583048
  0
ARC
  5
12E48
  8
0
 10
3674.1727264201231264
 20
182.0040138687251954
 30
0.0
 40
1.4892680122081421
 50
180.9266113092450041
 51
236.1683007644876113
  0
LINE
  5
12E49
  8
0
 10
3672.6836531605440541
 20
181.9799298534541947
 30
0.0
 11
3672.7814646713350157
 21
184.4549692891542065
 31
0.0
  0
ARC
  5
12E4A
  8
0
 10
3537.8390943527060699
 20
197.3369971800593135
 30
0.0
 40
135.5558554611048976
 50
354.5468877130065266
 51
356.2544221204216797
  0
ARC
  5
12E4B
  8
0
 10
3649.6969394124430437
 20
185.8441012398382952
 30
0.0
 40
32.8456236749983077
 50
355.0503185963052033
 51
357.3661178284738185
  0
ARC
  5
12E4C
  8
0
 10
3623.3167894557482214
 20
196.4440431826722886
 30
0.0
 40
0.1385021268598972
 50
112.6804949492704964
 51
152.5715171155842995
  0
ARC
  5
12E4D
  8
0
 10
3623.1384151280649348
 20
196.6378471399995931
 30
0.0
 40
0.1413324877912892
 50
293.0963546448060129
 51
332.1556698218313954
  0
ARC
  5
12E4E
  8
0
 10
3623.2597841219790098
 20
196.2398617209580891
 30
0.0
 40
0.1403727086476986
 50
114.4604721929773063
 51
153.8236136359477086
  0
ARC
  5
12E4F
  8
0
 10
3623.0721579443670635
 20
196.4331928070540982
 30
0.0
 40
0.1451505917929474
 50
295.1336823989673235
 51
333.1504151673879051
  0
ARC
  5
12E50
  8
0
 10
3622.2028335690361018
 20
194.7637087803944098
 30
0.0
 40
0.1395057832514174
 50
127.9391451930757029
 51
167.7226433000139991
  0
ARC
  5
12E51
  8
0
 10
3621.977107241224985
 20
194.9056862682517988
 30
0.0
 40
0.143556335686203
 50
308.5230329053914033
 51
347.1387718318630959
  0
ARC
  5
12E52
  8
0
 10
3621.6164474060028624
 20
194.1562107800286014
 30
0.0
 40
0.1381208973296357
 50
134.1485342148720861
 51
174.1541956297915874
  0
ARC
  5
12E53
  8
0
 10
3621.3796679828378728
 20
194.2709224558309984
 30
0.0
 40
0.1414388130410298
 50
314.6370560032016783
 51
353.6656854540518111
  0
ARC
  5
12E54
  8
0
 10
3621.3935785087642216
 20
193.3355156556658017
 30
0.0
 40
0.1438898434553297
 50
141.1114518078076117
 51
179.7251388834764043
  0
ARC
  5
12E55
  8
0
 10
3621.152122703385885
 20
193.4214072988285977
 30
0.0
 40
0.1295326996999411
 50
318.8707501308617793
 51
1.9658554464748701
  0
ARC
  5
12E56
  8
0
 10
3621.0968855354899461
 20
191.5757574830867895
 30
0.0
 40
0.1551202424496632
 50
155.5724511440305093
 51
191.0489745436890985
  0
ARC
  5
12E57
  8
0
 10
3620.7311883800398391
 20
191.6184008607172018
 30
0.0
 40
0.2253875885140994
 50
341.2705524927537226
 51
5.476301197552357
  0
ARC
  5
12E58
  8
0
 10
3620.5876822701261517
 20
191.4368930874651085
 30
0.0
 40
0.1637952178368097
 50
338.7200137762515055
 51
12.2496562262102309
  0
ARC
  5
12E59
  8
0
 10
3620.8964881680740291
 20
191.412507269367012
 30
0.0
 40
0.1600653855955516
 50
158.3173783671454942
 51
192.6522826402560895
  0
ARC
  5
12E5A
  8
0
 10
3620.9622098455070045
 20
190.019690388915194
 30
0.0
 40
0.1612886199794676
 50
163.0772088212590063
 51
197.2771023689753065
  0
ARC
  5
12E5B
  8
0
 10
3620.6463820675689931
 20
190.0187138626033061
 30
0.0
 40
0.1684831403972367
 50
343.8283941889362723
 51
16.52591700129339
  0
ARC
  5
12E5C
  8
0
 10
3620.8798938628488031
 20
188.4818482623913951
 30
0.0
 40
0.167157087650158
 50
163.6498707470616125
 51
196.4824311428191095
  0
ARC
  5
12E5D
  8
0
 10
3620.5534083975780959
 20
188.4814694047406931
 30
0.0
 40
0.1727281462030298
 50
344.1942392858908875
 51
15.9393823214532606
  0
ARC
  5
12E5E
  8
0
 10
3620.9727861114529333
 20
186.9855969581032866
 30
0.0
 40
0.1713994620240841
 50
164.0000000002725926
 51
195.9999999997274074
  0
ARC
  5
12E5F
  8
0
 10
3620.6432666363562021
 20
186.9855969581032866
 30
0.0
 40
0.1713994620240807
 50
344.000000000272621
 51
15.9999999997274198
  0
ARC
  5
12E60
  8
0
 10
3620.8966865510838034
 20
185.5250332801298896
 30
0.0
 40
0.158275255031457
 50
167.3387759265922909
 51
202.0742846768382037
  0
ARC
  5
12E61
  8
0
 10
3620.587534519953806
 20
185.4995808823072139
 30
0.0
 40
0.1660039343073479
 50
348.171219139646098
 51
21.2418414517665184
  0
ARC
  5
12E62
  8
0
 10
3621.0952597646719369
 20
185.4185042480567915
 30
0.0
 40
0.1569568780284306
 50
168.9352958123378983
 51
203.9825352378562968
  0
ARC
  5
12E63
  8
0
 10
3620.3054149967520061
 20
185.3290864747388014
 30
0.0
 40
0.6469456202639465
 50
2.2697121853831761
 51
10.6481189015049598
  0
ARC
  5
12E64
  8
0
 10
3621.000486951145831
 20
183.9091287278299092
 30
0.0
 40
0.1570508377340836
 50
359.0127461830796847
 51
34.7954853382489873
  0
ARC
  5
12E65
  8
0
 10
3621.2803747038587971
 20
183.9941220865860032
 30
0.0
 40
0.1509496942751474
 50
178.2415894904906111
 51
215.519774243486296
  0
ARC
  5
12E66
  8
0
 10
3621.3917969005319719
 20
182.6688463468499037
 30
0.0
 40
0.1407802716191391
 50
6.3217966899562468
 51
45.5351999230715592
  0
ARC
  5
12E67
  8
0
 10
3621.6277858113971888
 20
182.7835814942258992
 30
0.0
 40
0.1381148541611179
 50
185.9274331077232887
 51
225.9295635052930891
  0
ARC
  5
12E68
  8
0
 10
3621.962888409208972
 20
182.0852030196384135
 30
0.0
 40
0.1409203521462643
 50
12.5168368193923492
 51
51.8702121852827815
  0
ARC
  5
12E69
  8
0
 10
3622.1874919331880847
 20
182.2266079588544017
 30
0.0
 40
0.1409447876486359
 50
192.5203888682021045
 51
231.8666601366078908
  0
ARC
  5
12E6A
  8
0
 10
3622.5012236642019161
 20
181.1378253554846935
 30
0.0
 40
0.1508101233188166
 50
21.1300691296426706
 51
58.6800757340972368
  0
ARC
  5
12E6B
  8
0
 10
3622.7150014343451403
 20
181.3166034756401928
 30
0.0
 40
0.1443028900553471
 50
200.249424467796814
 51
239.5607204626485895
  0
ARC
  5
12E6C
  8
0
 10
3623.1536304396809101
 20
180.3028026345371018
 30
0.0
 40
0.1475075393003733
 50
28.7500604449275485
 51
66.1042118209833518
  0
ARC
  5
12E6D
  8
0
 10
3623.333876208476795
 20
180.4990048570336114
 30
0.0
 40
0.1352082533629549
 50
206.978702928453913
 51
247.8755693374473879
  0
ARC
  5
12E6E
  8
0
 10
3624.3285826581491165
 20
179.6441707730031112
 30
0.0
 40
0.1561587975961005
 50
38.9301870694881487
 51
74.5818056622105132
  0
ARC
  5
12E6F
  8
0
 10
3624.4879886708281447
 20
179.8872890867197043
 30
0.0
 40
0.1498710314345215
 50
218.1412981020444022
 51
255.3406204695631914
  0
ARC
  5
12E70
  8
0
 10
3624.724714597899947
 20
179.2752851074689886
 30
0.0
 40
0.1658978354863326
 50
43.9404414365810894
 51
77.8913244567611827
  0
ARC
  5
12E71
  8
0
 10
3624.8703946415998871
 20
179.5371913132102009
 30
0.0
 40
0.1491119812211359
 50
221.9606953851350113
 51
259.871070508226012
  0
ARC
  5
12E72
  8
0
 10
3627.225626446519982
 20
178.3484589017334088
 30
0.0
 40
0.2008325471784476
 50
66.1438380122393426
 51
93.8185944263829157
  0
ARC
  5
12E73
  8
0
 10
3627.2910401770482167
 20
178.7187287270243132
 30
0.0
 40
0.187264372711641
 50
245.1189853889958954
 51
274.843447049618419
  0
LINE
  5
12E75
  8
0
 10
3617.8908657818210486
 20
174.7021293245969105
 30
0.0
 11
3684.322213583041048
 21
174.7021293245969105
 31
0.0
  0
LINE
  5
12E76
  8
0
 10
3646.644419013247898
 20
199.5535768290532133
 30
0.0
 11
3646.7018158124478759
 21
197.3616814958531904
 31
0.0
  0
ARC
  5
12E77
  8
0
 10
3646.8337053137779549
 20
197.3684740811071947
 30
0.0
 40
0.1320643016699062
 50
182.9482476503413011
 51
267.5042222703501125
  0
ARC
  5
12E78
  8
0
 10
3643.2728447141639663
 20
330.8415602677671927
 30
0.0
 40
133.6523159863128001
 50
271.5242295748280981
 51
272.0987489468884064
  0
ARC
  5
12E79
  8
0
 10
3654.9204056520447921
 20
-13.8089502135310909
 30
0.0
 40
211.1958394662185015
 50
89.4598183680710974
 51
91.8323377539031043
  0
ARC
  5
12E7A
  8
0
 10
3659.5858867947008548
 20
382.3981425707763151
 30
0.0
 40
185.0399666597577948
 50
269.1718800342719078
 51
269.4926000805534727
  0
ARC
  5
12E7B
  8
0
 10
3657.9578617338302138
 20
197.5515017581074062
 30
0.0
 40
0.1863734094939618
 50
266.7302053732029776
 51
349.4782944861718192
  0
ARC
  5
12E7C
  8
0
 10
2962.986859779245151
 20
180.955726391776011
 30
0.0
 40
695.3515017436793642
 50
1.3647884011446481
 51
1.5450776794360921
  0
ARC
  5
12E7D
  8
0
 10
3658.0197408312860716
 20
199.6909650797931022
 30
0.0
 40
0.0672406601796797
 50
11.8596752031669297
 51
73.0088221349697477
  0
ARC
  5
12E7E
  8
0
 10
3657.7291058576611249
 20
198.216219760558289
 30
0.0
 40
1.5700172197470199
 50
78.601529671728585
 51
90.9243584398908382
  0
ARC
  5
12E7F
  8
0
 10
3654.9845646313210636
 20
-16.8650795001907987
 30
0.0
 40
216.6681760717875136
 50
89.2809118244784514
 51
92.0684697792932525
  0
ARC
  5
12E80
  8
0
 10
3647.169926786707947
 20
197.607230929275886
 30
0.0
 40
2.0546943287802679
 50
90.1598592546074542
 51
103.8273344452167066
  0
ARC
  5
12E81
  8
0
 10
3646.7061215183239256
 20
199.546587174591906
 30
0.0
 40
0.0620971368277063
 50
116.0394016824766936
 51
173.5370898136559958
  0
LINE
  5
12E82
  8
0
 10
3646.644419013247898
 20
177.4098002617662928
 30
0.0
 11
3646.7018158124478759
 21
179.6016955949662872
 31
0.0
  0
ARC
  5
12E83
  8
0
 10
3646.8337053137779549
 20
179.5949030097123114
 30
0.0
 40
0.1320643016699062
 50
92.4957777296499017
 51
177.0517523496569936
  0
ARC
  5
12E84
  8
0
 10
3643.2728447141639663
 20
46.1218168230523631
 30
0.0
 40
133.6523159863128001
 50
87.9012510531116504
 51
88.4757704251718451
  0
ARC
  5
12E85
  8
0
 10
3654.9204056520447921
 20
390.7723273043507106
 30
0.0
 40
211.1958394662185015
 50
268.1676622460968815
 51
270.5401816319288741
  0
ARC
  5
12E86
  8
0
 10
3659.5858867947008548
 20
-5.4347654799566953
 30
0.0
 40
185.0399666597577948
 50
90.5073999194464989
 51
90.8281199657282059
  0
ARC
  5
12E87
  8
0
 10
3657.9578617338302138
 20
179.4118753327120999
 30
0.0
 40
0.1863734094939618
 50
10.5217055138281808
 51
93.269794626796994
  0
ARC
  5
12E88
  8
0
 10
2962.986859779245151
 20
196.007650699043495
 30
0.0
 40
695.3515017436793642
 50
358.4549223205639237
 51
358.6352115988538003
  0
ARC
  5
12E89
  8
0
 10
3658.0197408312860716
 20
177.2724120110264039
 30
0.0
 40
0.0672406601796797
 50
286.9911778650302949
 51
348.1403247968315213
  0
ARC
  5
12E8A
  8
0
 10
3657.7291058576611249
 20
178.7471573302611887
 30
0.0
 40
1.5700172197470199
 50
269.0756415601092044
 51
281.3984703282714008
  0
ARC
  5
12E8B
  8
0
 10
3654.9845646313210636
 20
393.828456591010422
 30
0.0
 40
216.6681760717875136
 50
267.9315302207068044
 51
270.7190881755216196
  0
ARC
  5
12E8C
  8
0
 10
3647.169926786707947
 20
179.3561461615435917
 30
0.0
 40
2.0546943287802679
 50
256.1726655547832934
 51
269.840140745392489
  0
ARC
  5
12E8D
  8
0
 10
3646.7061215183239256
 20
177.4167899162276001
 30
0.0
 40
0.0620971368277063
 50
186.4629101863440042
 51
243.9605983175233064
  0
ENDSEC
  0
EOF
