  0
SECTION
  2
HEADER
  9
$ACADVER
  1
AC1009
  9
$INSBASE
 10
3267.2495675800269055
 20
107.7230982318148023
 30
0.0
  9
$EXTMIN
 10
3264.4092133006488439
 20
104.174035726976399
 30
-0.0000000349181948
  9
$EXTMAX
 10
3270.1473605821761339
 20
111.2708684188506965
 30
0.0000000814935746
  9
$LIMMIN
 10
0.0
 20
0.0
  9
$LIMMAX
 10
11.6929133858000007
 20
8.2677165353999982
  9
$ORTHOMODE
 70
     0
  9
$REGENMODE
 70
     1
  9
$FILLMODE
 70
     1
  9
$QTEXTMODE
 70
     0
  9
$MIRRTEXT
 70
     0
  9
$DRAGMODE
 70
     2
  9
$LTSCALE
 40
0.6431102362
  9
$OSMODE
 70
  4095
  9
$ATTMODE
 70
     1
  9
$TEXTSIZE
 40
0.2
  9
$TRACEWID
 40
0.05
  9
$TEXTSTYLE
  7
STANDARD
  9
$CLAYER
  8
0
  9
$CELTYPE
  6
BYLAYER
  9
$CECOLOR
 62
   256
  9
$DIMSCALE
 40
1.0
  9
$DIMASZ
 40
0.1875
  9
$DIMEXO
 40
0.0625
  9
$DIMDLI
 40
0.4443307087
  9
$DIMRND
 40
0.0
  9
$DIMDLE
 40
0.0
  9
$DIMEXE
 40
0.125
  9
$DIMTP
 40
0.01
  9
$DIMTM
 40
0.01
  9
$DIMTXT
 40
2.0
  9
$DIMCEN
 40
0.1052362205
  9
$DIMTSZ
 40
0.0
  9
$DIMTOL
 70
     1
  9
$DIMLIM
 70
     0
  9
$DIMTIH
 70
     1
  9
$DIMTOH
 70
     1
  9
$DIMSE1
 70
     0
  9
$DIMSE2
 70
     0
  9
$DIMTAD
 70
     0
  9
$DIMZIN
 70
     0
  9
$DIMBLK
  1

  9
$DIMASO
 70
     1
  9
$DIMSHO
 70
     1
  9
$DIMPOST
  1
\X
  9
$DIMAPOST
  1

  9
$DIMALT
 70
     1
  9
$DIMALTD
 70
     2
  9
$DIMALTF
 40
25.3999999999999986
  9
$DIMLFAC
 40
1.0
  9
$DIMTOFL
 70
     0
  9
$DIMTVP
 40
0.0
  9
$DIMTIX
 70
     0
  9
$DIMSOXD
 70
     0
  9
$DIMSAH
 70
     0
  9
$DIMBLK1
  1

  9
$DIMBLK2
  1

  9
$DIMSTYLE
  2
STANDARD
  9
$DIMCLRD
 70
     0
  9
$DIMCLRE
 70
     0
  9
$DIMCLRT
 70
     0
  9
$DIMTFAC
 40
1.0
  9
$DIMGAP
 40
0.09
  9
$LUNITS
 70
     2
  9
$LUPREC
 70
     4
  9
$SKETCHINC
 40
0.1
  9
$FILLETRAD
 40
0.0
  9
$AUNITS
 70
     0
  9
$AUPREC
 70
     0
  9
$MENU
  1
.
  9
$ELEVATION
 40
0.0
  9
$PELEVATION
 40
0.0
  9
$THICKNESS
 40
0.0
  9
$LIMCHECK
 70
     0
  9
$BLIPMODE
 70
     0
  9
$CHAMFERA
 40
0.0
  9
$CHAMFERB
 40
0.0
  9
$SKPOLY
 70
     0
  9
$TDCREATE
 40
2458060.468368056230247
  9
$TDUPDATE
 40
2460445.9230092591606081
  9
$TDINDWG
 40
0.311233912
  9
$TDUSRTIMER
 40
0.311233912
  9
$USRTIMER
 70
     1
  9
$ANGBASE
 50
0.0
  9
$ANGDIR
 70
     0
  9
$PDMODE
 70
     0
  9
$PDSIZE
 40
0.3125
  9
$PLINEWID
 40
0.0
  9
$COORDS
 70
     1
  9
$SPLFRAME
 70
     0
  9
$SPLINETYPE
 70
     6
  9
$SPLINESEGS
 70
     8
  9
$ATTDIA
 70
     1
  9
$ATTREQ
 70
     1
  9
$HANDLING
 70
     1
  9
$HANDSEED
  5
7E24
  9
$SURFTAB1
 70
     6
  9
$SURFTAB2
 70
     6
  9
$SURFTYPE
 70
     6
  9
$SURFU
 70
     6
  9
$SURFV
 70
     6
  9
$UCSNAME
  2

  9
$UCSORG
 10
0.0
 20
0.0
 30
0.0
  9
$UCSXDIR
 10
1.0
 20
0.0
 30
0.0
  9
$UCSYDIR
 10
0.0
 20
1.0
 30
0.0
  9
$PUCSNAME
  2

  9
$PUCSORG
 10
0.0
 20
0.0
 30
0.0
  9
$PUCSXDIR
 10
1.0
 20
0.0
 30
0.0
  9
$PUCSYDIR
 10
0.0
 20
1.0
 30
0.0
  9
$USERI1
 70
     0
  9
$USERI2
 70
     0
  9
$USERI3
 70
     0
  9
$USERI4
 70
     0
  9
$USERI5
 70
     0
  9
$USERR1
 40
0.0
  9
$USERR2
 40
0.0
  9
$USERR3
 40
0.0
  9
$USERR4
 40
0.0
  9
$USERR5
 40
0.0
  9
$WORLDVIEW
 70
     1
  9
$SHADEDGE
 70
     3
  9
$SHADEDIF
 70
    70
  9
$TILEMODE
 70
     1
  9
$MAXACTVP
 70
    64
  9
$PLIMCHECK
 70
     0
  9
$PEXTMIN
 10
1.0000000000000000E+20
 20
1.0000000000000000E+20
 30
1.0000000000000000E+20
  9
$PEXTMAX
 10
-1.0000000000000000E+20
 20
-1.0000000000000000E+20
 30
-1.0000000000000000E+20
  9
$PLIMMIN
 10
0.0
 20
0.0
  9
$PLIMMAX
 10
12.0
 20
9.0
  9
$UNITMODE
 70
     0
  9
$VISRETAIN
 70
     1
  9
$PLINEGEN
 70
     0
  9
$PSLTSCALE
 70
     1
  0
ENDSEC
  0
SECTION
  2
TABLES
  0
TABLE
  2
VPORT
 70
     1
  0
VPORT
  2
*ACTIVE
 70
     0
 10
0.0
 20
0.0
 11
1.0
 21
1.0
 12
93.1531648710997615
 22
9.3402117775034412
 13
0.0
 23
0.0
 14
1.0
 24
1.0
 15
0.0
 25
0.0
 16
0.0
 26
0.0
 36
43.2192227472571133
 17
3174.1251220703129547
 27
98.3822402954101705
 37
0.0
 40
7.1451652641231433
 41
2.1579545454545448
 42
50.0
 43
0.0
 44
0.0
 50
0.0
 51
0.0
 71
     0
 72
   100
 73
     1
 74
     1
 75
     0
 76
     0
 77
     0
 78
     0
  0
ENDTAB
  0
TABLE
  2
LTYPE
 70
     3
  0
LTYPE
  2
CONTINUOUS
 70
     0
  3
Solid line
 72
    65
 73
     0
 40
0.0
  0
LTYPE
  2
PHANTOM2
 70
     0
  3
___ _ _ ___ _ _ ___ _ _ ___ _ _
 72
    65
 73
     6
 40
1.25
 49
0.625
 49
-0.125
 49
0.125
 49
-0.125
 49
0.125
 49
-0.125
  0
ENDTAB
  0
TABLE
  2
LAYER
 70
     2
  0
LAYER
  2
0
 70
     0
 62
   255
  6
CONTINUOUS
  0
LAYER
  2
DEFPOINTS
 70
     0
 62
     7
  6
CONTINUOUS
  0
ENDTAB
  0
TABLE
  2
STYLE
 70
     1
  0
STYLE
  2
STANDARD
 70
     0
 40
0.0
 41
0.8
 50
0.0
 71
     0
 42
0.2
  3
txt
  4

  0
ENDTAB
  0
TABLE
  2
VIEW
 70
     0
  0
ENDTAB
  0
TABLE
  2
UCS
 70
     0
  0
ENDTAB
  0
TABLE
  2
APPID
 70
     9
  0
APPID
  2
ACAD
 70
     0
  0
APPID
  2
ACAD_MLEADERVER
 70
     0
  0
APPID
  2
ACAD_EXEMPT_FROM_CAD_STANDARDS
 70
     0
  0
APPID
  2
ACAD_NAV_VCDISPLAY
 70
     0
  0
APPID
  2
ACAECLAYERSTANDARD
 70
     0
  0
APPID
  2
ACCMTRANSPARENCY
 70
     0
  0
APPID
  2
ACAD_DSTYLE_DIMJAG
 70
     0
  0
APPID
  2
ACAD_DSTYLE_DIMTALN
 70
     0
  0
APPID
  2
ACDBATTR
 70
     0
  0
ENDTAB
  0
TABLE
  2
DIMSTYLE
 70
     2
  0
DIMSTYLE
  2
STANDARD
 70
     0
  3

  4

  5

  6

  7

 40
1.0
 41
0.1875
 42
0.0625
 43
0.38
 44
0.125
 45
0.0
 46
0.0
 47
0.01
 48
0.01
140
0.15625
141
0.09
142
0.0
143
25.3999999999999986
144
1.0
145
0.0
146
1.0
147
0.09
 71
     1
 72
     0
 73
     1
 74
     1
 75
     0
 76
     0
 77
     0
 78
     4
170
     0
171
     2
172
     0
173
     0
174
     0
175
     0
176
     0
177
     0
178
     0
  0
ENDTAB
  0
ENDSEC
  0
SECTION
  2
BLOCKS
  0
BLOCK
  8
0
  2
$MODEL_SPACE
 70
     0
 10
0.0
 20
0.0
 30
0.0
  3
$MODEL_SPACE
  1

  0
ENDBLK
  5
21
  8
0
  0
BLOCK
 67
     1
  8
0
  2
$PAPER_SPACE
 70
     0
 10
0.0
 20
0.0
 30
0.0
  3
$PAPER_SPACE
  1

  0
ENDBLK
  5
1D
 67
     1
  8
0
  0
ENDSEC
  0
SECTION
  2
ENTITIES
  0
ATTDEF
  5
3930
  8
DEFPOINTS
 10
3267.2453940407958726
 20
107.7270612886582057
 30
0.0
 40
0.001
  1
K-99729T-9
  3

  2
MODELNUMBER
 70
     0
1001
ACDBATTR
1070
     0
1070
     1
  0
ATTDEF
  5
3931
  8
DEFPOINTS
 10
3267.2453940407958726
 20
107.7253946219915974
 30
0.0
 40
0.001
  1
MODULO
  3

  2
TRADENAME
 70
     0
1001
ACDBATTR
1070
     0
1070
     1
  0
ATTDEF
  5
3932
  8
DEFPOINTS
 10
3267.2453940407958726
 20
107.7237279553249039
 30
0.0
 40
0.001
  1
VALVE TRIM
  3

  2
PRODUCT
 70
     0
1001
ACDBATTR
1070
     0
1070
     1
  0
LINE
  5
7D1B
  8
0
 10
3269.9264730918271198
 20
111.2664053184648054
 30
0.0
 11
3264.5726620682271459
 21
111.2664053184648054
 31
0.0
  0
LINE
  5
7D1C
  8
0
 10
3264.4936620682278772
 20
111.1874053184647977
 30
0.0
 11
3264.4936620682278772
 21
104.2587911451648068
 31
0.0
  0
ARC
  5
7D1D
  8
0
 10
3264.5726620682271459
 20
111.1874053184647977
 30
0.0
 40
0.079
 50
90.0
 51
180.0
  0
LINE
  5
7D1E
  8
0
 10
3269.9264730918271198
 20
104.1797911451647991
 30
0.0
 11
3264.5726620682271459
 21
104.1797911451647991
 31
0.0
  0
ARC
  5
7D1F
  8
0
 10
3264.5726620682271459
 20
104.2587911451648068
 30
0.0
 40
0.079
 50
180.0
 51
270.0
  0
LINE
  5
7D20
  8
0
 10
3270.0054730918268433
 20
111.1874053184647977
 30
0.0
 11
3270.0054730918268433
 21
104.2587911451648068
 31
0.0
  0
ARC
  5
7D21
  8
0
 10
3269.9264730918271198
 20
111.1874053184647977
 30
0.0
 40
0.079
 50
0.0
 51
90.0
  0
ARC
  5
7D22
  8
0
 10
3269.9264730918271198
 20
104.2587911451648068
 30
0.0
 40
0.079
 50
270.0
 51
0.0
  0
LINE
  5
7D24
  8
0
 10
3267.8991995559272254
 20
110.0459328774147991
 30
0.0
 11
3266.5999360839268775
 21
110.0459328774147991
 31
0.0
  0
LINE
  5
7D25
  8
0
 10
3266.5015360839270215
 20
109.9475328774148011
 30
0.0
 11
3266.5015360839270215
 21
108.6482698853148037
 31
0.0
  0
LINE
  5
7D26
  8
0
 10
3266.5999360839268775
 20
108.5498698853148056
 30
0.0
 11
3267.8991995559272254
 21
108.5498698853148056
 31
0.0
  0
ARC
  5
7D27
  8
0
 10
3266.5999360839268775
 20
109.9475328774148011
 30
0.0
 40
0.0984
 50
90.0
 51
180.0000000000015916
  0
ARC
  5
7D28
  8
0
 10
3266.5999360839268775
 20
108.6482698853148037
 30
0.0
 40
0.0984
 50
179.9999999999992042
 51
270.0
  0
ARC
  5
7D29
  8
0
 10
3267.2495675800269055
 20
109.3569564995147942
 30
0.0
 40
0.7174761246999969
 50
73.8315620734960163
 51
106.168561288491901
  0
LINE
  5
7D32
  8
0
 10
3267.9975995559279909
 20
109.9475328774148011
 30
0.0
 11
3267.9975995559279909
 21
108.6482698853148037
 31
0.0
  0
ARC
  5
7D33
  8
0
 10
3267.8991995559272254
 20
109.9475328774148011
 30
0.0
 40
0.0984
 50
359.9999999999976126
 51
90.0
  0
ARC
  5
7D34
  8
0
 10
3267.8991995559272254
 20
108.6482698853148037
 30
0.0
 40
0.0984
 50
270.0
 51
0.0000000000008142
  0
LINE
  5
7D38
  8
0
 10
3268.096028020626818
 20
107.0931769719148008
 30
0.0
 11
3266.403085690226817
 21
107.0931769719148008
 31
0.0
  0
ARC
  5
7D39
  8
0
 10
3267.2495675181698971
 20
106.2137703373679045
 30
0.0
 40
0.9081069078853209
 50
75.5925994036229412
 51
104.4085046719817029
  0
LINE
  5
7D3B
  8
0
 10
3266.304685690226961
 20
105.301813192414798
 30
0.0
 11
3266.304685690226961
 21
106.9947769719148027
 31
0.0
  0
LINE
  5
7D3C
  8
0
 10
3266.403085690226817
 20
105.2034131924147999
 30
0.0
 11
3266.9745332564680211
 21
105.2034131924147999
 31
0.0
  0
LINE
  5
7D3D
  8
0
 10
3267.5246023833869913
 20
105.2034131924147999
 30
0.0
 11
3268.0960499496259217
 21
105.2034131924147999
 31
0.0
  0
ARC
  5
7D42
  8
0
 10
3266.403085690226817
 20
105.301813192414798
 30
0.0
 40
0.0984
 50
180.0
 51
270.0
  0
ARC
  5
7D43
  8
0
 10
3266.403085690226817
 20
106.9947769719148027
 30
0.0
 40
0.0984
 50
90.0
 51
180.0
  0
LINE
  5
7D44
  8
0
 10
3268.1944499496271419
 20
105.301813192414798
 30
0.0
 11
3268.1944499496271419
 21
106.9947769719148027
 31
0.0
  0
ARC
  5
7D48
  8
0
 10
3268.0960499496259217
 20
105.301813192414798
 30
0.0
 40
0.0984
 50
270.0
 51
0.0
  0
ARC
  5
7D49
  8
0
 10
3268.096049945456798
 20
106.9947769701876013
 30
0.0
 40
0.0984000041697302
 50
0.0000010056789734
 51
90.0127662621707714
  0
LINE
  5
7D4A
  8
0
 10
3266.9936770288268235
 20
105.1883614157147946
 30
0.0
 11
3267.5054586110268247
 21
105.1883614157147946
 31
0.0
  0
LINE
  5
7D4B
  8
0
 10
3266.9739770288279033
 20
105.2080614157147949
 30
0.0
 11
3266.9739770288279033
 21
105.2121095728620048
 31
0.0
  0
ARC
  5
7D4C
  8
0
 10
3266.9936770288268235
 20
105.2080614157147949
 30
0.0
 40
0.0197
 50
180.0000000000113971
 51
270.0
  0
ARC
  5
7D4D
  8
0
 10
3267.1973970966719207
 20
93.1492191349443033
 30
0.0
 40
12.0649592723690091
 50
89.7522435422519465
 51
91.2480790349008259
  0
ARC
  5
7D4E
  8
0
 10
3266.9763940775051196
 20
105.8761041049566956
 30
0.0
 40
0.6661001148631643
 50
266.4031457919285799
 51
269.792092826629414
  0
LINE
  5
7D4F
  8
0
 10
3267.5251586110271091
 20
105.2080614157147949
 30
0.0
 11
3267.5251586110271091
 21
105.2121095728620048
 31
0.0
  0
ARC
  5
7D50
  8
0
 10
3267.5054586110268247
 20
105.2080614157147949
 30
0.0
 40
0.0197
 50
270.0
 51
359.9999999999885745
  0
ARC
  5
7D51
  8
0
 10
3267.3017385431821822
 20
93.1492191349443033
 30
0.0
 40
12.0649592723690091
 50
88.7519209650991741
 51
90.2477564577480535
  0
ARC
  5
7D52
  8
0
 10
3267.5227415623489833
 20
105.8761041049566956
 30
0.0
 40
0.6661001148631643
 50
270.207907173370586
 51
273.5968542080713064
  0
ENDSEC
  0
EOF
