  0
SECTION
  2
HEADER
  9
$ACADVER
  1
AC1009
  9
$INSBASE
 10
349.221709698704899
 20
67.5022857816373545
 30
0.0
  9
$EXTMIN
 10
346.1258392024063255
 20
63.9579453088465399
 30
-0.0015258207003583
  9
$EXTMAX
 10
349.2432254517007095
 20
71.0477611730865704
 30
0.0000000349246037
  9
$LIMMIN
 10
0.0
 20
0.0
  9
$LIMMAX
 10
11.6929133858000007
 20
8.2677165353999982
  9
$ORTHOMODE
 70
     0
  9
$REGENMODE
 70
     1
  9
$FILLMODE
 70
     1
  9
$QTEXTMODE
 70
     0
  9
$MIRRTEXT
 70
     0
  9
$DRAGMODE
 70
     2
  9
$LTSCALE
 40
0.6431102362
  9
$OSMODE
 70
  2039
  9
$ATTMODE
 70
     1
  9
$TEXTSIZE
 40
0.2
  9
$TRACEWID
 40
0.05
  9
$TEXTSTYLE
  7
STANDARD
  9
$CLAYER
  8
0
  9
$CELTYPE
  6
BYLAYER
  9
$CECOLOR
 62
   256
  9
$DIMSCALE
 40
1.0
  9
$DIMASZ
 40
0.1875
  9
$DIMEXO
 40
0.0625
  9
$DIMDLI
 40
0.4443307087
  9
$DIMRND
 40
0.0
  9
$DIMDLE
 40
0.0
  9
$DIMEXE
 40
0.125
  9
$DIMTP
 40
0.01
  9
$DIMTM
 40
0.01
  9
$DIMTXT
 40
1.0
  9
$DIMCEN
 40
0.1052362205
  9
$DIMTSZ
 40
0.0
  9
$DIMTOL
 70
     1
  9
$DIMLIM
 70
     0
  9
$DIMTIH
 70
     0
  9
$DIMTOH
 70
     1
  9
$DIMSE1
 70
     0
  9
$DIMSE2
 70
     0
  9
$DIMTAD
 70
     0
  9
$DIMZIN
 70
     0
  9
$DIMBLK
  1

  9
$DIMASO
 70
     1
  9
$DIMSHO
 70
     1
  9
$DIMPOST
  1
\X
  9
$DIMAPOST
  1

  9
$DIMALT
 70
     1
  9
$DIMALTD
 70
     2
  9
$DIMALTF
 40
25.3999999999999986
  9
$DIMLFAC
 40
1.0
  9
$DIMTOFL
 70
     0
  9
$DIMTVP
 40
0.0
  9
$DIMTIX
 70
     0
  9
$DIMSOXD
 70
     0
  9
$DIMSAH
 70
     0
  9
$DIMBLK1
  1

  9
$DIMBLK2
  1

  9
$DIMSTYLE
  2
STANDARD
  9
$DIMCLRD
 70
     0
  9
$DIMCLRE
 70
     0
  9
$DIMCLRT
 70
     0
  9
$DIMTFAC
 40
1.0
  9
$DIMGAP
 40
0.09
  9
$LUNITS
 70
     2
  9
$LUPREC
 70
     4
  9
$SKETCHINC
 40
0.1
  9
$FILLETRAD
 40
0.0
  9
$AUNITS
 70
     0
  9
$AUPREC
 70
     0
  9
$MENU
  1
.
  9
$ELEVATION
 40
0.0
  9
$PELEVATION
 40
0.0
  9
$THICKNESS
 40
0.0
  9
$LIMCHECK
 70
     0
  9
$BLIPMODE
 70
     0
  9
$CHAMFERA
 40
0.0
  9
$CHAMFERB
 40
0.0
  9
$SKPOLY
 70
     0
  9
$TDCREATE
 40
2458172.5207638889551163
  9
$TDUPDATE
 40
2459136.4110879627987742
  9
$TDINDWG
 40
0.2745458102
  9
$TDUSRTIMER
 40
0.2745458102
  9
$USRTIMER
 70
     1
  9
$ANGBASE
 50
0.0
  9
$ANGDIR
 70
     0
  9
$PDMODE
 70
     0
  9
$PDSIZE
 40
0.3125
  9
$PLINEWID
 40
0.0
  9
$COORDS
 70
     1
  9
$SPLFRAME
 70
     0
  9
$SPLINETYPE
 70
     6
  9
$SPLINESEGS
 70
     8
  9
$ATTDIA
 70
     1
  9
$ATTREQ
 70
     1
  9
$HANDLING
 70
     1
  9
$HANDSEED
  5
11CA8
  9
$SURFTAB1
 70
     6
  9
$SURFTAB2
 70
     6
  9
$SURFTYPE
 70
     6
  9
$SURFU
 70
     6
  9
$SURFV
 70
     6
  9
$UCSNAME
  2

  9
$UCSORG
 10
0.0
 20
0.0
 30
0.0
  9
$UCSXDIR
 10
1.0
 20
0.0
 30
0.0
  9
$UCSYDIR
 10
0.0
 20
1.0
 30
0.0
  9
$PUCSNAME
  2

  9
$PUCSORG
 10
0.0
 20
0.0
 30
0.0
  9
$PUCSXDIR
 10
1.0
 20
0.0
 30
0.0
  9
$PUCSYDIR
 10
0.0
 20
1.0
 30
0.0
  9
$USERI1
 70
     0
  9
$USERI2
 70
     0
  9
$USERI3
 70
     0
  9
$USERI4
 70
     0
  9
$USERI5
 70
     0
  9
$USERR1
 40
0.0
  9
$USERR2
 40
0.0
  9
$USERR3
 40
0.0
  9
$USERR4
 40
0.0
  9
$USERR5
 40
0.0
  9
$WORLDVIEW
 70
     1
  9
$SHADEDGE
 70
     3
  9
$SHADEDIF
 70
    70
  9
$TILEMODE
 70
     1
  9
$MAXACTVP
 70
    64
  9
$PLIMCHECK
 70
     0
  9
$PEXTMIN
 10
1.0000000000000000E+20
 20
1.0000000000000000E+20
 30
1.0000000000000000E+20
  9
$PEXTMAX
 10
-1.0000000000000000E+20
 20
-1.0000000000000000E+20
 30
-1.0000000000000000E+20
  9
$PLIMMIN
 10
0.0
 20
0.0
  9
$PLIMMAX
 10
12.0
 20
9.0
  9
$UNITMODE
 70
     0
  9
$VISRETAIN
 70
     1
  9
$PLINEGEN
 70
     0
  9
$PSLTSCALE
 70
     1
  0
ENDSEC
  0
SECTION
  2
TABLES
  0
TABLE
  2
VPORT
 70
     1
  0
VPORT
  2
*ACTIVE
 70
     0
 10
0.0
 20
0.0
 11
1.0
 21
1.0
 12
-81.9447567810002369
 22
-2.199688271252128
 13
0.0
 23
0.0
 14
1.0
 24
1.0
 15
0.0
 25
0.0
 16
0.0
 26
0.0
 36
14.6338572656650907
 17
429.6292891080536833
 27
69.7025415122186871
 37
0.0
 40
7.1488157188661532
 41
2.6486111111111108
 42
50.0
 43
0.0
 44
0.0
 50
0.0
 51
0.0
 71
     0
 72
   100
 73
     1
 74
     1
 75
     0
 76
     0
 77
     0
 78
     0
  0
ENDTAB
  0
TABLE
  2
LTYPE
 70
     2
  0
LTYPE
  2
CONTINUOUS
 70
     0
  3
Solid line
 72
    65
 73
     0
 40
0.0
  0
LTYPE
  2
PHANTOM2
 70
     0
  3
___ _ _ ___ _ _ ___ _ _ ___ _ _
 72
    65
 73
     6
 40
1.25
 49
0.625
 49
-0.125
 49
0.125
 49
-0.125
 49
0.125
 49
-0.125
  0
ENDTAB
  0
TABLE
  2
LAYER
 70
     2
  0
LAYER
  2
0
 70
     0
 62
   255
  6
CONTINUOUS
  0
LAYER
  2
DEFPOINTS
 70
     0
 62
     7
  6
CONTINUOUS
  0
ENDTAB
  0
TABLE
  2
STYLE
 70
     1
  0
STYLE
  2
STANDARD
 70
     0
 40
0.0
 41
0.8
 50
0.0
 71
     0
 42
0.2
  3
txt
  4

  0
ENDTAB
  0
TABLE
  2
VIEW
 70
     0
  0
ENDTAB
  0
TABLE
  2
UCS
 70
     0
  0
ENDTAB
  0
TABLE
  2
APPID
 70
    10
  0
APPID
  2
ACAD
 70
     0
  0
APPID
  2
ACAD_MLEADERVER
 70
     0
  0
APPID
  2
ACAD_EXEMPT_FROM_CAD_STANDARDS
 70
     0
  0
APPID
  2
ACAD_DSTYLE_DIMJAG
 70
     0
  0
APPID
  2
ACAD_DSTYLE_DIMTALN
 70
     0
  0
APPID
  2
ACAD_NAV_VCDISPLAY
 70
     0
  0
APPID
  2
ACAECLAYERSTANDARD
 70
     0
  0
APPID
  2
ACCMTRANSPARENCY
 70
     0
  0
APPID
  2
DCO15
 70
     0
  0
APPID
  2
ACDBATTR
 70
     0
  0
ENDTAB
  0
TABLE
  2
DIMSTYLE
 70
     1
  0
DIMSTYLE
  2
STANDARD
 70
     0
  3

  4

  5

  6

  7

 40
1.0
 41
0.1875
 42
0.0625
 43
0.38
 44
0.125
 45
0.0
 46
0.0
 47
0.01
 48
0.01
140
0.15625
141
0.09
142
0.0
143
25.3999999999999986
144
1.0
145
0.0
146
1.0
147
0.09
 71
     1
 72
     0
 73
     1
 74
     1
 75
     0
 76
     0
 77
     0
 78
     4
170
     0
171
     2
172
     0
173
     0
174
     0
175
     0
176
     0
177
     0
178
     0
  0
ENDTAB
  0
ENDSEC
  0
SECTION
  2
BLOCKS
  0
BLOCK
  8
0
  2
$MODEL_SPACE
 70
     0
 10
0.0
 20
0.0
 30
0.0
  3
$MODEL_SPACE
  1

  0
ENDBLK
  5
21
  8
0
  0
BLOCK
 67
     1
  8
0
  2
$PAPER_SPACE
 70
     0
 10
0.0
 20
0.0
 30
0.0
  3
$PAPER_SPACE
  1

  0
ENDBLK
  5
1D
 67
     1
  8
0
  0
BLOCK
  8
0
  2
_FILLED
 70
     0
 10
0.0
 20
0.0
 30
0.0
  3
_FILLED
  1

  0
SOLID
  5
87E2
  8
0
  6
BYBLOCK
 62
     0
 10
0.0
 20
0.0
 30
0.0
 11
-1.0
 21
0.1666666667
 31
0.0
 12
-1.0
 22
-0.1666666667
 32
0.0
 13
-1.0
 23
-0.1666666667
 33
0.0
  0
ENDBLK
  5
87E3
  8
0
  6
BYBLOCK
 62
     0
  0
ENDSEC
  0
SECTION
  2
ENTITIES
  0
ATTDEF
  5
104A9
  8
DEFPOINTS
 10
349.2219002397569056
 20
67.5058945547359883
 30
0.0
 40
0.001
  1
K-99726T-4
  3

  2
MODELNUMBER
 70
     0
1001
ACDBATTR
1070
     0
1070
     1
  0
ATTDEF
  5
104AA
  8
DEFPOINTS
 10
349.2219002397569056
 20
67.5042278880693232
 30
0.0
 40
0.001
  1
MODULO
  3

  2
TRADENAME
 70
     0
1001
ACDBATTR
1070
     0
1070
     1
  0
ATTDEF
  5
104AB
  8
DEFPOINTS
 10
349.2219002397569056
 20
67.502561221402658
 30
0.0
 40
0.001
  1
VALVE TRIM
  3

  2
PRODUCT
 70
     0
1001
ACDBATTR
1070
     0
1070
     1
  0
LINE
  5
11A77
  8
0
 10
349.221709698704899
 20
63.9589786950373522
 30
0.0
 11
348.6670972679535225
 21
64.0075009953331033
 31
0.0
  0
ARC
  5
11A78
  8
0
 10
348.6705285964010841
 20
64.0467212589939834
 30
0.0
 40
0.0393700786962052
 50
179.9999999369009913
 51
265.0000000046720174
  0
LINE
  5
11A79
  8
0
 10
348.6311585177048755
 20
64.0467212588925463
 30
0.0
 11
348.6311585253159819
 21
70.9578503039925437
 31
0.0
  0
ARC
  5
11A7A
  8
0
 10
348.6705286048655807
 20
70.9578503040645927
 30
0.0
 40
0.0393700795496065
 50
95.0000001114675143
 51
179.999999894116911
  0
LINE
  5
11A7B
  8
0
 10
348.6670972762640872
 20
70.9970705685686738
 30
0.0
 11
349.221709698704899
 21
71.0455928682373496
 31
0.0
  0
LINE
  5
11A7C
  8
0
 10
349.221709698704899
 20
71.0455928682373496
 30
0.0
 11
349.221709698704899
 21
63.9589786950373522
 31
0.0
  0
ARC
  5
11A7D
  8
0
 10
346.9288104753021003
 20
69.4836996032070573
 30
0.0
 40
0.0224950530356954
 50
29.4949319221110109
 51
86.0050680882290379
  0
LINE
  5
11A7E
  8
0
 10
346.9303776659235155
 20
69.5061399981375132
 30
0.0
 11
346.1506717770679984
 21
69.4993349144254182
 31
0.0
  0
ARC
  5
11A7F
  8
0
 10
346.1508438755860766
 20
69.4796507073375125
 30
0.0
 40
0.0196849593999999
 50
90.5009167921799644
 51
179.9982226661003892
  0
LINE
  5
11A80
  8
0
 10
346.1311589161954885
 20
69.4796513179714168
 30
0.0
 11
346.1310331859568237
 21
65.4264950502875848
 31
0.0
  0
ARC
  5
11A81
  8
0
 10
346.1507169189815158
 20
65.426494439691723
 30
0.0
 40
0.0196837330341626
 50
179.9982226661012135
 51
269.8685834167474127
  0
LINE
  5
11A82
  8
0
 10
346.1506717713861008
 20
65.4068107584340055
 30
0.0
 11
346.3081520859860802
 21
65.4054364486371469
 31
0.0
  0
ARC
  5
11A83
  8
0
 10
346.307534905366083
 20
65.4259166164261217
 30
0.0
 40
0.0204894652097708
 50
271.7261160307862724
 51
357.7738840875070991
  0
LINE
  5
11A84
  8
0
 10
346.3280089074860939
 20
65.4251207384375135
 30
0.0
 11
346.3284483077570144
 21
67.4314418611214421
 31
0.0
  0
ARC
  5
11A85
  8
0
 10
346.4851873588214062
 20
67.4321843802453884
 30
0.0
 40
0.156740809820569
 50
89.387291000149915
 51
180.2714249797637933
  0
LINE
  5
11A86
  8
0
 10
346.4868634800860718
 20
67.588916227936636
 30
0.0
 11
347.3711402614301846
 21
67.5811992614126211
 31
0.0
  0
ARC
  5
11A87
  8
0
 10
347.3713159935077783
 20
67.6008835169785129
 30
0.0
 40
0.0196850399782988
 50
269.4885029380952233
 51
359.9999992984875234
  0
LINE
  5
11A88
  8
0
 10
347.3910010334860772
 20
67.6008835167375111
 30
0.0
 11
347.3910010334860772
 21
68.4583115049375124
 31
0.0
  0
ARC
  5
11A89
  8
0
 10
346.9973002466350067
 20
68.4583115049785391
 30
0.0
 40
0.3937007868511468
 50
359.999999994029281
 51
25.0000000118817312
  0
LINE
  5
11A8A
  8
0
 10
347.3541143354860878
 20
68.6246966472375135
 30
0.0
 11
346.9483901524012026
 21
69.4947749652100555
 31
0.0
  0
ARC
  5
11A8B
  8
0
 10
347.4229186878893074
 20
68.5455928694008634
 30
0.0
 40
0.8070866129380007
 50
90.7223628651979794
 51
117.0544322193564994
  0
ARC
  5
11A8C
  8
0
 10
347.4117508249539128
 20
69.431349239133624
 30
0.0
 40
0.0787401577596808
 50
270.7223628651980221
 51
344.9999999716998218
  0
ARC
  5
11A8D
  8
0
 10
1264.1470370590229777
 20
-176.2071308657239115
 30
0.0
 40
948.9954655474028868
 50
164.9959430093919934
 51
164.9999999716997934
  0
ARC
  5
11A8E
  8
0
 10
347.5242295199358864
 20
69.47077548652112
 30
0.0
 40
0.0196992759659969
 50
90.038940314503833
 51
164.9959430093888102
  0
LINE
  5
11A8F
  8
0
 10
347.5242161315861154
 20
69.4904747579375197
 30
0.0
 11
347.548481342881928
 21
69.4904747579375197
 31
0.0
  0
LINE
  5
11A90
  8
0
 10
347.5484813484861206
 20
69.4983487737375185
 30
0.0
 11
347.5484813484861206
 21
67.5928369635052206
 31
0.0
  0
ARC
  5
11A91
  8
0
 10
347.5602923729538247
 20
67.5928369635052206
 30
0.0
 40
0.0118110244677112
 50
180.0
 51
269.999995790697028
  0
LINE
  5
11A92
  8
0
 10
347.5602923720859962
 20
67.5810259390375165
 30
0.0
 11
348.6311585137860902
 21
67.5810258603650311
 31
0.0
  0
LINE
  5
11A93
  8
0
 10
347.3910010334860772
 20
67.7391376207956455
 30
0.0
 11
347.4127491815860935
 21
67.7385794646375103
 31
0.0
  0
ARC
  5
11A94
  8
0
 10
347.4117310165732988
 20
67.6598233520420536
 30
0.0
 40
0.0787626937778406
 50
15.0055072682196897
 51
89.2593170681940933
  0
ARC
  5
11A95
  8
0
 10
344.9663794364274736
 20
66.969813480866577
 30
0.0
 40
2.6195941579608699
 50
14.26502864248428
 51
15.7349712837873508
  0
ARC
  5
11A96
  8
0
 10
347.5242161316861029
 20
67.6203960178375212
 30
0.0
 40
0.019685039400002
 50
194.9999757987721125
 51
269.9999997089253725
  0
LINE
  5
11A97
  8
0
 10
347.5242161315861154
 20
67.6007109784375189
 30
0.0
 11
347.5484813484861206
 21
67.6007109784375189
 31
0.0
  0
LINE
  5
11A98
  8
0
 10
347.5052018415860857
 20
69.4758845737375168
 30
0.0
 11
347.5052018415860857
 21
67.6153011627375093
 31
0.0
  0
ARC
  5
11A99
  8
0
 10
347.5602923720859962
 20
69.4983487737375185
 30
0.0
 40
0.0118110236
 50
89.9999999999902229
 51
180.0000038808213958
  0
LINE
  5
11A9A
  8
0
 10
347.5602923720859962
 20
69.5101597973374936
 30
0.0
 11
348.6311585137860902
 21
69.5101597973373515
 31
0.0
  0
ENDSEC
  0
EOF
