  0
SECTION
  2
HEADER
  9
$ACADVER
  1
AC1009
  9
$INSBASE
 10
349.2215712707449029
 20
67.5023246761056157
 30
0.0
  9
$EXTMIN
 10
346.1258392024063255
 20
63.3181888363755192
 30
-0.0015258207003583
  9
$EXTMAX
 10
349.2432254517007095
 20
71.0475868707740545
 30
0.0000000349246037
  9
$LIMMIN
 10
0.0
 20
0.0
  9
$LIMMAX
 10
11.6929133858000007
 20
8.2677165353999982
  9
$ORTHOMODE
 70
     0
  9
$REGENMODE
 70
     1
  9
$FILLMODE
 70
     1
  9
$QTEXTMODE
 70
     0
  9
$MIRRTEXT
 70
     0
  9
$DRAGMODE
 70
     2
  9
$LTSCALE
 40
0.6431102362
  9
$OSMODE
 70
  2039
  9
$ATTMODE
 70
     1
  9
$TEXTSIZE
 40
0.2
  9
$TRACEWID
 40
0.05
  9
$TEXTSTYLE
  7
STANDARD
  9
$CLAYER
  8
0
  9
$CELTYPE
  6
BYLAYER
  9
$CECOLOR
 62
   256
  9
$DIMSCALE
 40
1.0
  9
$DIMASZ
 40
0.1875
  9
$DIMEXO
 40
0.0625
  9
$DIMDLI
 40
0.4443307087
  9
$DIMRND
 40
0.0
  9
$DIMDLE
 40
0.0
  9
$DIMEXE
 40
0.125
  9
$DIMTP
 40
0.01
  9
$DIMTM
 40
0.01
  9
$DIMTXT
 40
1.0
  9
$DIMCEN
 40
0.1052362205
  9
$DIMTSZ
 40
0.0
  9
$DIMTOL
 70
     1
  9
$DIMLIM
 70
     0
  9
$DIMTIH
 70
     0
  9
$DIMTOH
 70
     1
  9
$DIMSE1
 70
     0
  9
$DIMSE2
 70
     0
  9
$DIMTAD
 70
     0
  9
$DIMZIN
 70
     0
  9
$DIMBLK
  1

  9
$DIMASO
 70
     1
  9
$DIMSHO
 70
     1
  9
$DIMPOST
  1
\X
  9
$DIMAPOST
  1

  9
$DIMALT
 70
     1
  9
$DIMALTD
 70
     2
  9
$DIMALTF
 40
25.3999999999999986
  9
$DIMLFAC
 40
1.0
  9
$DIMTOFL
 70
     0
  9
$DIMTVP
 40
0.0
  9
$DIMTIX
 70
     0
  9
$DIMSOXD
 70
     0
  9
$DIMSAH
 70
     0
  9
$DIMBLK1
  1

  9
$DIMBLK2
  1

  9
$DIMSTYLE
  2
STANDARD
  9
$DIMCLRD
 70
     0
  9
$DIMCLRE
 70
     0
  9
$DIMCLRT
 70
     0
  9
$DIMTFAC
 40
1.0
  9
$DIMGAP
 40
0.09
  9
$LUNITS
 70
     2
  9
$LUPREC
 70
     4
  9
$SKETCHINC
 40
0.1
  9
$FILLETRAD
 40
0.0
  9
$AUNITS
 70
     0
  9
$AUPREC
 70
     0
  9
$MENU
  1
.
  9
$ELEVATION
 40
0.0
  9
$PELEVATION
 40
0.0
  9
$THICKNESS
 40
0.0
  9
$LIMCHECK
 70
     0
  9
$BLIPMODE
 70
     0
  9
$CHAMFERA
 40
0.0
  9
$CHAMFERB
 40
0.0
  9
$SKPOLY
 70
     0
  9
$TDCREATE
 40
2458172.5207638889551163
  9
$TDUPDATE
 40
2459136.4025578708387911
  9
$TDINDWG
 40
0.2734925694
  9
$TDUSRTIMER
 40
0.2734925694
  9
$USRTIMER
 70
     1
  9
$ANGBASE
 50
0.0
  9
$ANGDIR
 70
     0
  9
$PDMODE
 70
     0
  9
$PDSIZE
 40
0.3125
  9
$PLINEWID
 40
0.0
  9
$COORDS
 70
     1
  9
$SPLFRAME
 70
     0
  9
$SPLINETYPE
 70
     6
  9
$SPLINESEGS
 70
     8
  9
$ATTDIA
 70
     1
  9
$ATTREQ
 70
     1
  9
$HANDLING
 70
     1
  9
$HANDSEED
  5
11805
  9
$SURFTAB1
 70
     6
  9
$SURFTAB2
 70
     6
  9
$SURFTYPE
 70
     6
  9
$SURFU
 70
     6
  9
$SURFV
 70
     6
  9
$UCSNAME
  2

  9
$UCSORG
 10
0.0
 20
0.0
 30
0.0
  9
$UCSXDIR
 10
1.0
 20
0.0
 30
0.0
  9
$UCSYDIR
 10
0.0
 20
1.0
 30
0.0
  9
$PUCSNAME
  2

  9
$PUCSORG
 10
0.0
 20
0.0
 30
0.0
  9
$PUCSXDIR
 10
1.0
 20
0.0
 30
0.0
  9
$PUCSYDIR
 10
0.0
 20
1.0
 30
0.0
  9
$USERI1
 70
     0
  9
$USERI2
 70
     0
  9
$USERI3
 70
     0
  9
$USERI4
 70
     0
  9
$USERI5
 70
     0
  9
$USERR1
 40
0.0
  9
$USERR2
 40
0.0
  9
$USERR3
 40
0.0
  9
$USERR4
 40
0.0
  9
$USERR5
 40
0.0
  9
$WORLDVIEW
 70
     1
  9
$SHADEDGE
 70
     3
  9
$SHADEDIF
 70
    70
  9
$TILEMODE
 70
     1
  9
$MAXACTVP
 70
    64
  9
$PLIMCHECK
 70
     0
  9
$PEXTMIN
 10
1.0000000000000000E+20
 20
1.0000000000000000E+20
 30
1.0000000000000000E+20
  9
$PEXTMAX
 10
-1.0000000000000000E+20
 20
-1.0000000000000000E+20
 30
-1.0000000000000000E+20
  9
$PLIMMIN
 10
0.0
 20
0.0
  9
$PLIMMAX
 10
12.0
 20
9.0
  9
$UNITMODE
 70
     0
  9
$VISRETAIN
 70
     1
  9
$PLINEGEN
 70
     0
  9
$PSLTSCALE
 70
     1
  0
ENDSEC
  0
SECTION
  2
TABLES
  0
TABLE
  2
VPORT
 70
     1
  0
VPORT
  2
*ACTIVE
 70
     0
 10
0.0
 20
0.0
 11
1.0
 21
1.0
 12
-81.9447567810002369
 22
-2.5196536586438891
 13
0.0
 23
0.0
 14
1.0
 24
1.0
 15
0.0
 25
0.0
 16
0.0
 26
0.0
 36
14.6338572656650907
 17
429.6292891080536833
 27
69.7025415122186871
 37
0.0
 40
7.7937203481383364
 41
2.6486111111111108
 42
50.0
 43
0.0
 44
0.0
 50
0.0
 51
0.0
 71
     0
 72
   100
 73
     1
 74
     1
 75
     0
 76
     0
 77
     0
 78
     0
  0
ENDTAB
  0
TABLE
  2
LTYPE
 70
     2
  0
LTYPE
  2
CONTINUOUS
 70
     0
  3
Solid line
 72
    65
 73
     0
 40
0.0
  0
LTYPE
  2
PHANTOM2
 70
     0
  3
___ _ _ ___ _ _ ___ _ _ ___ _ _
 72
    65
 73
     6
 40
1.25
 49
0.625
 49
-0.125
 49
0.125
 49
-0.125
 49
0.125
 49
-0.125
  0
ENDTAB
  0
TABLE
  2
LAYER
 70
     2
  0
LAYER
  2
0
 70
     0
 62
   255
  6
CONTINUOUS
  0
LAYER
  2
DEFPOINTS
 70
     0
 62
     7
  6
CONTINUOUS
  0
ENDTAB
  0
TABLE
  2
STYLE
 70
     1
  0
STYLE
  2
STANDARD
 70
     0
 40
0.0
 41
0.8
 50
0.0
 71
     0
 42
0.2
  3
txt
  4

  0
ENDTAB
  0
TABLE
  2
VIEW
 70
     0
  0
ENDTAB
  0
TABLE
  2
UCS
 70
     0
  0
ENDTAB
  0
TABLE
  2
APPID
 70
    10
  0
APPID
  2
ACAD
 70
     0
  0
APPID
  2
ACAD_MLEADERVER
 70
     0
  0
APPID
  2
ACAD_EXEMPT_FROM_CAD_STANDARDS
 70
     0
  0
APPID
  2
ACAD_DSTYLE_DIMJAG
 70
     0
  0
APPID
  2
ACAD_DSTYLE_DIMTALN
 70
     0
  0
APPID
  2
ACAD_NAV_VCDISPLAY
 70
     0
  0
APPID
  2
ACAECLAYERSTANDARD
 70
     0
  0
APPID
  2
ACCMTRANSPARENCY
 70
     0
  0
APPID
  2
DCO15
 70
     0
  0
APPID
  2
ACDBATTR
 70
     0
  0
ENDTAB
  0
TABLE
  2
DIMSTYLE
 70
     1
  0
DIMSTYLE
  2
STANDARD
 70
     0
  3

  4

  5

  6

  7

 40
1.0
 41
0.1875
 42
0.0625
 43
0.38
 44
0.125
 45
0.0
 46
0.0
 47
0.01
 48
0.01
140
0.15625
141
0.09
142
0.0
143
25.3999999999999986
144
1.0
145
0.0
146
1.0
147
0.09
 71
     1
 72
     0
 73
     1
 74
     1
 75
     0
 76
     0
 77
     0
 78
     4
170
     0
171
     2
172
     0
173
     0
174
     0
175
     0
176
     0
177
     0
178
     0
  0
ENDTAB
  0
ENDSEC
  0
SECTION
  2
BLOCKS
  0
BLOCK
  8
0
  2
$MODEL_SPACE
 70
     0
 10
0.0
 20
0.0
 30
0.0
  3
$MODEL_SPACE
  1

  0
ENDBLK
  5
21
  8
0
  0
BLOCK
 67
     1
  8
0
  2
$PAPER_SPACE
 70
     0
 10
0.0
 20
0.0
 30
0.0
  3
$PAPER_SPACE
  1

  0
ENDBLK
  5
1D
 67
     1
  8
0
  0
BLOCK
  8
0
  2
_FILLED
 70
     0
 10
0.0
 20
0.0
 30
0.0
  3
_FILLED
  1

  0
SOLID
  5
87E2
  8
0
  6
BYBLOCK
 62
     0
 10
0.0
 20
0.0
 30
0.0
 11
-1.0
 21
0.1666666667
 31
0.0
 12
-1.0
 22
-0.1666666667
 32
0.0
 13
-1.0
 23
-0.1666666667
 33
0.0
  0
ENDBLK
  5
87E3
  8
0
  6
BYBLOCK
 62
     0
  0
ENDSEC
  0
SECTION
  2
ENTITIES
  0
ATTDEF
  5
104A9
  8
DEFPOINTS
 10
349.2219002397569056
 20
67.5058945547359883
 30
0.0
 40
0.001
  1
K-99725T-4
  3

  2
MODELNUMBER
 70
     0
1001
ACDBATTR
1070
     0
1070
     1
  0
ATTDEF
  5
104AA
  8
DEFPOINTS
 10
349.2219002397569056
 20
67.5042278880693232
 30
0.0
 40
0.001
  1
MODULO
  3

  2
TRADENAME
 70
     0
1001
ACDBATTR
1070
     0
1070
     1
  0
ATTDEF
  5
104AB
  8
DEFPOINTS
 10
349.2219002397569056
 20
67.502561221402658
 30
0.0
 40
0.001
  1
VALVE TRIM
  3

  2
PRODUCT
 70
     0
1001
ACDBATTR
1070
     0
1070
     1
  0
LINE
  5
11637
  8
0
 10
349.2215712707449029
 20
63.9590175895056134
 30
0.0
 11
348.6669588399935265
 21
64.0075398898013646
 31
0.0
  0
ARC
  5
11638
  8
0
 10
348.670390168441088
 20
64.0467601534622446
 30
0.0
 40
0.0393700786962052
 50
179.9999999369009913
 51
265.0000000046720174
  0
LINE
  5
11639
  8
0
 10
348.6310200897448794
 20
64.0467601535056161
 30
0.0
 11
348.6310200973559859
 21
70.9578891986056135
 31
0.0
  0
ARC
  5
1163A
  8
0
 10
348.6703901769055847
 20
70.9578891985328539
 30
0.0
 40
0.0393700795496065
 50
95.0000001114675143
 51
179.999999894116911
  0
LINE
  5
1163B
  8
0
 10
348.6669588483040911
 20
70.997109463036935
 30
0.0
 11
349.2215712707449029
 21
71.0456317627056109
 31
0.0
  0
LINE
  5
1163C
  8
0
 10
349.2215712707449029
 20
71.0456317627056109
 30
0.0
 11
349.2215712707449029
 21
63.9590175895056134
 31
0.0
  0
ARC
  5
1163D
  8
0
 10
346.9286720511610156
 20
67.3971243244751435
 30
0.0
 40
0.0224950530356954
 50
29.4949319221110109
 51
86.0050680882290379
  0
LINE
  5
1163E
  8
0
 10
346.9302392417823171
 20
67.4195647194056136
 30
0.0
 11
346.1505333529268
 21
67.4127596356935328
 31
0.0
  0
ARC
  5
1163F
  8
0
 10
346.1507054514448782
 20
67.3930754286056128
 30
0.0
 40
0.0196849593999999
 50
90.5009167921799644
 51
179.9982226661003892
  0
LINE
  5
11640
  8
0
 10
346.1310204920544038
 20
67.393076039239503
 30
0.0
 11
346.1308947618156253
 21
63.3399197715556923
 31
0.0
  0
ARC
  5
11641
  8
0
 10
346.1505784948403175
 20
63.3399191609598304
 30
0.0
 40
0.0196837330341626
 50
179.9982226661012135
 51
269.8685834167474127
  0
LINE
  5
11642
  8
0
 10
346.1505333472449024
 20
63.3202354797021201
 30
0.0
 11
346.3080136618448819
 21
63.3188611699052402
 31
0.0
  0
ARC
  5
11643
  8
0
 10
346.3073964812248846
 20
63.339341337694222
 30
0.0
 40
0.0204894652097708
 50
271.7261160307862724
 51
357.7738840875070991
  0
LINE
  5
11644
  8
0
 10
346.3278704833448955
 20
63.3385454597056068
 30
0.0
 11
346.328309883615816
 21
65.3448665823895425
 31
0.0
  0
ARC
  5
11645
  8
0
 10
346.4850489346800941
 20
65.3456091015134746
 30
0.0
 40
0.156740809820569
 50
89.387291000149915
 51
180.2714249797637933
  0
LINE
  5
11646
  8
0
 10
346.4867250559448735
 20
65.5023409492047506
 30
0.0
 11
347.3710018372889863
 21
65.4946239826807215
 31
0.0
  0
ARC
  5
11647
  8
0
 10
347.37117756936658
 20
65.5143082382466275
 30
0.0
 40
0.0196850399782988
 50
269.4885029380952233
 51
359.9999992984875234
  0
LINE
  5
11648
  8
0
 10
347.3908626093448788
 20
65.5143082380056114
 30
0.0
 11
347.3908626093448788
 21
66.3717362262056128
 31
0.0
  0
ARC
  5
11649
  8
0
 10
346.9971618224938084
 20
66.3717362262466395
 30
0.0
 40
0.3937007868511468
 50
359.999999994029281
 51
25.0000000118817312
  0
LINE
  5
1164A
  8
0
 10
347.3539759113448895
 20
66.5381213685056139
 30
0.0
 11
346.9482517282600043
 21
67.4081996864781559
 31
0.0
  0
ARC
  5
1164B
  8
0
 10
347.4227802637481091
 20
66.4590175906689637
 30
0.0
 40
0.8070866129380007
 50
90.7223628651979794
 51
117.0544322193564994
  0
ARC
  5
1164C
  8
0
 10
347.4116124008127144
 20
67.3447739604017244
 30
0.0
 40
0.0787401577596808
 50
270.7223628651980221
 51
344.9999999716998218
  0
ARC
  5
1164D
  8
0
 10
1264.1468986348820636
 20
-178.2937061444557969
 30
0.0
 40
948.9954655474028868
 50
164.9959430093919934
 51
164.9999999716997934
  0
ARC
  5
1164E
  8
0
 10
347.5240910957948017
 20
67.3842002077892204
 30
0.0
 40
0.0196992759659969
 50
90.038940314503833
 51
164.9959430093888102
  0
LINE
  5
1164F
  8
0
 10
347.524077707444917
 20
67.4038994792056201
 30
0.0
 11
347.5483429187407864
 21
67.4038994792056201
 31
0.0
  0
LINE
  5
11650
  8
0
 10
347.5483429243449223
 20
67.4117734950056189
 30
0.0
 11
347.5483429243449223
 21
65.506261684773321
 31
0.0
  0
ARC
  5
11651
  8
0
 10
347.5601539488126264
 20
65.506261684773321
 30
0.0
 40
0.0118110244677112
 50
180.0
 51
269.999995790697028
  0
LINE
  5
11652
  8
0
 10
347.5601539479449116
 20
65.4944506603056169
 30
0.0
 11
348.6310200896448919
 21
65.4944505816331315
 31
0.0
  0
LINE
  5
11653
  8
0
 10
347.3908626093448788
 20
65.6525623420637601
 30
0.0
 11
347.4126107574448952
 21
65.6520041859056107
 31
0.0
  0
ARC
  5
11654
  8
0
 10
347.4115925924321004
 20
65.5732480733101539
 30
0.0
 40
0.0787626937778406
 50
15.0055072682196897
 51
89.2593170681940933
  0
ARC
  5
11655
  8
0
 10
344.9662410122862752
 20
64.8832382021346774
 30
0.0
 40
2.6195941579608699
 50
14.26502864248428
 51
15.7349712837873508
  0
ARC
  5
11656
  8
0
 10
347.5240777075449046
 20
65.5338207391056216
 30
0.0
 40
0.019685039400002
 50
194.9999757987721125
 51
269.9999997089253725
  0
LINE
  5
11657
  8
0
 10
347.524077707444917
 20
65.5141356997056192
 30
0.0
 11
347.5483429243449223
 21
65.5141356997056192
 31
0.0
  0
LINE
  5
11658
  8
0
 10
347.5050634174448874
 20
67.389309295005603
 30
0.0
 11
347.5050634174448874
 21
65.5287258840055955
 31
0.0
  0
LINE
  5
11659
  8
0
 10
347.6907507255448877
 20
69.5101986919053587
 30
0.0
 11
347.2161469888270062
 21
69.5101986919056145
 31
0.0
  0
ARC
  5
1165A
  8
0
 10
347.2161469888270062
 20
69.4905136525564302
 30
0.0
 40
0.0196850393491852
 50
89.9999999478507107
 51
175.5882743511623119
  0
ARC
  5
1165B
  8
0
 10
353.3396817023839844
 20
69.0180727073228724
 30
0.0
 40
6.1614175176382391
 50
175.5882743511623119
 51
184.4117256433775083
  0
ARC
  5
1165C
  8
0
 10
347.2161469888014267
 20
68.5456317626743044
 30
0.0
 40
0.0196850393686941
 50
184.4117256433800094
 51
270.0000001265627247
  0
LINE
  5
1165D
  8
0
 10
347.2161469888449119
 20
68.5259467233056228
 30
0.0
 11
347.6907506255449221
 21
68.5259467233056228
 31
0.0
  0
ARC
  5
1165E
  8
0
 10
347.690750623661188
 20
68.5456317646562638
 30
0.0
 40
0.0196850413506447
 50
270.0000054827917779
 51
357.9999884739248159
  0
ARC
  5
1165F
  8
0
 10
347.6907506267207282
 20
69.4905136537317389
 30
0.0
 40
0.0196850381738676
 50
1.999995866912466
 51
89.999712359823917
  0
LINE
  5
11660
  8
0
 10
347.7104236733508174
 20
69.4912006502374453
 30
0.0
 11
347.7131973307448902
 21
69.4117734950056189
 31
0.0
  0
LINE
  5
11661
  8
0
 10
347.7131973307448902
 20
69.4117734950056189
 30
0.0
 11
347.7131973307448902
 21
68.6243719202056184
 31
0.0
  0
LINE
  5
11662
  8
0
 10
347.7131973307448902
 20
68.6243719202056184
 30
0.0
 11
347.7104236732782852
 21
68.5449447626629649
 31
0.0
  0
LINE
  5
11663
  8
0
 10
348.6310200957507845
 20
69.5003561721056116
 30
0.0
 11
347.8239334754449033
 21
69.5003561721056116
 31
0.0
  0
LINE
  5
11664
  8
0
 10
347.8239334754449033
 20
69.5003561721056116
 30
0.0
 11
347.8042484361449169
 21
69.480671132805611
 31
0.0
  0
LINE
  5
11665
  8
0
 10
347.8042484361449169
 20
69.480671132805611
 30
0.0
 11
347.8042484361449169
 21
68.555474282405612
 31
0.0
  0
LINE
  5
11666
  8
0
 10
347.8042484361449169
 20
68.555474282405612
 30
0.0
 11
347.8239334754449033
 21
68.5357892430056097
 31
0.0
  0
LINE
  5
11667
  8
0
 10
347.8239334754449033
 20
68.5357892430056097
 30
0.0
 11
348.6310200896448919
 21
68.5357892430056097
 31
0.0
  0
LINE
  5
11668
  8
0
 10
347.8042484361449169
 20
68.6243719202056184
 30
0.0
 11
347.7131973307448902
 21
68.6243719202056184
 31
0.0
  0
LINE
  5
11669
  8
0
 10
347.8042484361449169
 20
69.4117734950056189
 30
0.0
 11
347.7131973307448902
 21
69.4117734950056189
 31
0.0
  0
LINE
  5
1166A
  8
0
 10
347.3654134158448983
 20
69.4466432640056155
 30
0.0
 11
347.5422960548448827
 21
69.4466432640056155
 31
0.0
  0
ARC
  5
1166B
  8
0
 10
347.7822861235936784
 20
69.1599698182668163
 30
0.0
 40
0.5059293616282304
 50
145.4846216877328118
 51
165.0728219790626099
  0
ARC
  5
1166C
  8
0
 10
348.1419714940586232
 20
69.0224977382477647
 30
0.0
 40
0.8897960909060959
 50
162.4845942370519936
 51
180.2849378949514971
  0
ARC
  5
1166D
  8
0
 10
347.8712336098774927
 20
68.9931736012167391
 30
0.0
 40
0.6195477429740676
 50
177.6967101529409092
 51
194.3621071225234118
  0
ARC
  5
1166E
  8
0
 10
-7237.8494490132961801
 20
-1744.1282866268459202
 30
0.0
 40
7798.7758742857849938
 50
13.4417242932816503
 51
13.4424316400835107
  0
ARC
  5
1166F
  8
0
 10
347.7005086620052907
 20
68.8385247605435637
 30
0.0
 40
0.4174940667597783
 50
192.8248842465636983
 51
216.6175557711490001
  0
LINE
  5
11670
  8
0
 10
347.3654134158448983
 20
68.5895017259056203
 30
0.0
 11
347.5422960548448827
 21
68.5895017259056203
 31
0.0
  0
ARC
  5
11671
  8
0
 10
347.1527086881927175
 20
68.8636128999109616
 30
0.0
 40
0.4763562238173915
 50
324.8700266927826874
 51
345.6875009872670717
  0
ARC
  5
11672
  8
0
 10
344.5443217904930862
 20
69.5290884039703769
 30
0.0
 40
3.1682960178309898
 50
345.6875009872670717
 51
347.4287092155565233
  0
ARC
  5
11673
  8
0
 10
346.9364651861802145
 20
69.0119113959914046
 30
0.0
 40
0.7211111613939253
 50
346.1667127172140113
 51
355.6748898685477229
  0
ARC
  5
11674
  8
0
 10
-11363.6326315888290992
 20
69.0483449874556214
 30
0.0
 40
11711.2881546922999405
 50
359.9995556923452114
 51
0.0001481027402367
  0
ARC
  5
11675
  8
0
 10
346.6791279700577206
 20
68.9831078146835921
 30
0.0
 40
0.9810552663781017
 50
5.5868104248810964
 51
12.5719702780878997
  0
ARC
  5
11676
  8
0
 10
344.5418318401103193
 20
68.5064632384210483
 30
0.0
 40
3.1708554397201851
 50
12.5719702780878997
 51
14.3117686009390006
  0
ARC
  5
11677
  8
0
 10
347.1527412481747206
 20
69.1725468578920157
 30
0.0
 40
0.4763210967868639
 50
14.3117686009390006
 51
35.1307742086685266
  0
ARC
  5
11678
  8
0
 10
347.5601539479449116
 20
67.4117734950056189
 30
0.0
 40
0.0118110236
 50
89.9999999999902229
 51
180.0000038808213958
  0
LINE
  5
11679
  8
0
 10
347.5601539479449116
 20
67.4235845186056224
 30
0.0
 11
348.6310200896448919
 21
67.4235845186054519
 31
0.0
  0
LINE
  5
1167A
  8
0
 10
347.8239334754449033
 20
69.5003561721056116
 30
0.0
 11
347.8239334754449033
 21
68.5357892430056097
 31
0.0
  0
ENDSEC
  0
EOF
