  0
SECTION
  2
HEADER
  9
$ACADVER
  1
AC1009
  9
$INSBASE
 10
338.4612907875651899
 20
78.2263565225101019
 30
0.0
  9
$EXTMIN
 10
335.6815160835309939
 20
75.1301943306945361
 30
-0.0015258207003583
  9
$EXTMAX
 10
341.226485111998727
 20
78.2338598277590336
 30
0.0000000349246037
  9
$LIMMIN
 10
0.0
 20
0.0
  9
$LIMMAX
 10
11.6929133858000007
 20
8.2677165353999982
  9
$ORTHOMODE
 70
     0
  9
$REGENMODE
 70
     1
  9
$FILLMODE
 70
     1
  9
$QTEXTMODE
 70
     0
  9
$MIRRTEXT
 70
     0
  9
$DRAGMODE
 70
     2
  9
$LTSCALE
 40
0.6431102362
  9
$OSMODE
 70
  2039
  9
$ATTMODE
 70
     1
  9
$TEXTSIZE
 40
0.2
  9
$TRACEWID
 40
0.05
  9
$TEXTSTYLE
  7
STANDARD
  9
$CLAYER
  8
0
  9
$CELTYPE
  6
BYLAYER
  9
$CECOLOR
 62
   256
  9
$DIMSCALE
 40
1.0
  9
$DIMASZ
 40
0.1875
  9
$DIMEXO
 40
0.0625
  9
$DIMDLI
 40
0.4443307087
  9
$DIMRND
 40
0.0
  9
$DIMDLE
 40
0.0
  9
$DIMEXE
 40
0.125
  9
$DIMTP
 40
0.01
  9
$DIMTM
 40
0.01
  9
$DIMTXT
 40
1.0
  9
$DIMCEN
 40
0.1052362205
  9
$DIMTSZ
 40
0.0
  9
$DIMTOL
 70
     1
  9
$DIMLIM
 70
     0
  9
$DIMTIH
 70
     0
  9
$DIMTOH
 70
     1
  9
$DIMSE1
 70
     0
  9
$DIMSE2
 70
     0
  9
$DIMTAD
 70
     0
  9
$DIMZIN
 70
     0
  9
$DIMBLK
  1

  9
$DIMASO
 70
     1
  9
$DIMSHO
 70
     1
  9
$DIMPOST
  1
\X
  9
$DIMAPOST
  1

  9
$DIMALT
 70
     1
  9
$DIMALTD
 70
     2
  9
$DIMALTF
 40
25.3999999999999986
  9
$DIMLFAC
 40
1.0
  9
$DIMTOFL
 70
     0
  9
$DIMTVP
 40
0.0
  9
$DIMTIX
 70
     0
  9
$DIMSOXD
 70
     0
  9
$DIMSAH
 70
     0
  9
$DIMBLK1
  1

  9
$DIMBLK2
  1

  9
$DIMSTYLE
  2
STANDARD
  9
$DIMCLRD
 70
     0
  9
$DIMCLRE
 70
     0
  9
$DIMCLRT
 70
     0
  9
$DIMTFAC
 40
1.0
  9
$DIMGAP
 40
0.09
  9
$LUNITS
 70
     2
  9
$LUPREC
 70
     4
  9
$SKETCHINC
 40
0.1
  9
$FILLETRAD
 40
0.0
  9
$AUNITS
 70
     0
  9
$AUPREC
 70
     0
  9
$MENU
  1
.
  9
$ELEVATION
 40
0.0
  9
$PELEVATION
 40
0.0
  9
$THICKNESS
 40
0.0
  9
$LIMCHECK
 70
     0
  9
$BLIPMODE
 70
     0
  9
$CHAMFERA
 40
0.0
  9
$CHAMFERB
 40
0.0
  9
$SKPOLY
 70
     0
  9
$TDCREATE
 40
2458172.5207638889551163
  9
$TDUPDATE
 40
2459136.4029166670516133
  9
$TDINDWG
 40
0.2741638657
  9
$TDUSRTIMER
 40
0.2741638657
  9
$USRTIMER
 70
     1
  9
$ANGBASE
 50
0.0
  9
$ANGDIR
 70
     0
  9
$PDMODE
 70
     0
  9
$PDSIZE
 40
0.3125
  9
$PLINEWID
 40
0.0
  9
$COORDS
 70
     1
  9
$SPLFRAME
 70
     0
  9
$SPLINETYPE
 70
     6
  9
$SPLINESEGS
 70
     8
  9
$ATTDIA
 70
     1
  9
$ATTREQ
 70
     1
  9
$HANDLING
 70
     1
  9
$HANDSEED
  5
11808
  9
$SURFTAB1
 70
     6
  9
$SURFTAB2
 70
     6
  9
$SURFTYPE
 70
     6
  9
$SURFU
 70
     6
  9
$SURFV
 70
     6
  9
$UCSNAME
  2

  9
$UCSORG
 10
0.0
 20
0.0
 30
0.0
  9
$UCSXDIR
 10
1.0
 20
0.0
 30
0.0
  9
$UCSYDIR
 10
0.0
 20
1.0
 30
0.0
  9
$PUCSNAME
  2

  9
$PUCSORG
 10
0.0
 20
0.0
 30
0.0
  9
$PUCSXDIR
 10
1.0
 20
0.0
 30
0.0
  9
$PUCSYDIR
 10
0.0
 20
1.0
 30
0.0
  9
$USERI1
 70
     0
  9
$USERI2
 70
     0
  9
$USERI3
 70
     0
  9
$USERI4
 70
     0
  9
$USERI5
 70
     0
  9
$USERR1
 40
0.0
  9
$USERR2
 40
0.0
  9
$USERR3
 40
0.0
  9
$USERR4
 40
0.0
  9
$USERR5
 40
0.0
  9
$WORLDVIEW
 70
     1
  9
$SHADEDGE
 70
     3
  9
$SHADEDIF
 70
    70
  9
$TILEMODE
 70
     1
  9
$MAXACTVP
 70
    64
  9
$PLIMCHECK
 70
     0
  9
$PEXTMIN
 10
1.0000000000000000E+20
 20
1.0000000000000000E+20
 30
1.0000000000000000E+20
  9
$PEXTMAX
 10
-1.0000000000000000E+20
 20
-1.0000000000000000E+20
 30
-1.0000000000000000E+20
  9
$PLIMMIN
 10
0.0
 20
0.0
  9
$PLIMMAX
 10
12.0
 20
9.0
  9
$UNITMODE
 70
     0
  9
$VISRETAIN
 70
     1
  9
$PLINEGEN
 70
     0
  9
$PSLTSCALE
 70
     1
  0
ENDSEC
  0
SECTION
  2
TABLES
  0
TABLE
  2
VPORT
 70
     1
  0
VPORT
  2
*ACTIVE
 70
     0
 10
0.0
 20
0.0
 11
1.0
 21
1.0
 12
-91.1752885102888371
 22
6.9794855670080969
 13
0.0
 23
0.0
 14
1.0
 24
1.0
 15
0.0
 25
0.0
 16
0.0
 26
0.0
 36
14.6338572656650907
 17
429.6292891080536833
 27
69.7025415122186871
 37
0.0
 40
3.129493503974881
 41
2.6486111111111108
 42
50.0
 43
0.0
 44
0.0
 50
0.0
 51
0.0
 71
     0
 72
   100
 73
     1
 74
     1
 75
     0
 76
     0
 77
     0
 78
     0
  0
ENDTAB
  0
TABLE
  2
LTYPE
 70
     2
  0
LTYPE
  2
CONTINUOUS
 70
     0
  3
Solid line
 72
    65
 73
     0
 40
0.0
  0
LTYPE
  2
PHANTOM2
 70
     0
  3
___ _ _ ___ _ _ ___ _ _ ___ _ _
 72
    65
 73
     6
 40
1.25
 49
0.625
 49
-0.125
 49
0.125
 49
-0.125
 49
0.125
 49
-0.125
  0
ENDTAB
  0
TABLE
  2
LAYER
 70
     2
  0
LAYER
  2
0
 70
     0
 62
   255
  6
CONTINUOUS
  0
LAYER
  2
DEFPOINTS
 70
     0
 62
     7
  6
CONTINUOUS
  0
ENDTAB
  0
TABLE
  2
STYLE
 70
     1
  0
STYLE
  2
STANDARD
 70
     0
 40
0.0
 41
0.8
 50
0.0
 71
     0
 42
0.2
  3
txt
  4

  0
ENDTAB
  0
TABLE
  2
VIEW
 70
     0
  0
ENDTAB
  0
TABLE
  2
UCS
 70
     0
  0
ENDTAB
  0
TABLE
  2
APPID
 70
    10
  0
APPID
  2
ACAD
 70
     0
  0
APPID
  2
ACAD_MLEADERVER
 70
     0
  0
APPID
  2
ACAD_EXEMPT_FROM_CAD_STANDARDS
 70
     0
  0
APPID
  2
ACAD_DSTYLE_DIMJAG
 70
     0
  0
APPID
  2
ACAD_DSTYLE_DIMTALN
 70
     0
  0
APPID
  2
ACAD_NAV_VCDISPLAY
 70
     0
  0
APPID
  2
ACAECLAYERSTANDARD
 70
     0
  0
APPID
  2
ACCMTRANSPARENCY
 70
     0
  0
APPID
  2
DCO15
 70
     0
  0
APPID
  2
ACDBATTR
 70
     0
  0
ENDTAB
  0
TABLE
  2
DIMSTYLE
 70
     1
  0
DIMSTYLE
  2
STANDARD
 70
     0
  3

  4

  5

  6

  7

 40
1.0
 41
0.1875
 42
0.0625
 43
0.38
 44
0.125
 45
0.0
 46
0.0
 47
0.01
 48
0.01
140
0.15625
141
0.09
142
0.0
143
25.3999999999999986
144
1.0
145
0.0
146
1.0
147
0.09
 71
     1
 72
     0
 73
     1
 74
     1
 75
     0
 76
     0
 77
     0
 78
     4
170
     0
171
     2
172
     0
173
     0
174
     0
175
     0
176
     0
177
     0
178
     0
  0
ENDTAB
  0
ENDSEC
  0
SECTION
  2
BLOCKS
  0
BLOCK
  8
0
  2
$MODEL_SPACE
 70
     0
 10
0.0
 20
0.0
 30
0.0
  3
$MODEL_SPACE
  1

  0
ENDBLK
  5
21
  8
0
  0
BLOCK
 67
     1
  8
0
  2
$PAPER_SPACE
 70
     0
 10
0.0
 20
0.0
 30
0.0
  3
$PAPER_SPACE
  1

  0
ENDBLK
  5
1D
 67
     1
  8
0
  0
BLOCK
  8
0
  2
_FILLED
 70
     0
 10
0.0
 20
0.0
 30
0.0
  3
_FILLED
  1

  0
SOLID
  5
87E2
  8
0
  6
BYBLOCK
 62
     0
 10
0.0
 20
0.0
 30
0.0
 11
-1.0
 21
0.1666666667
 31
0.0
 12
-1.0
 22
-0.1666666667
 32
0.0
 13
-1.0
 23
-0.1666666667
 33
0.0
  0
ENDBLK
  5
87E3
  8
0
  6
BYBLOCK
 62
     0
  0
ENDSEC
  0
SECTION
  2
ENTITIES
  0
ATTDEF
  5
10E86
  8
DEFPOINTS
 10
338.4614755938886788
 20
78.2301271484728034
 30
0.0
 40
0.001
  1
K-99725T-4
  3

  2
MODELNUMBER
 70
     0
1001
ACDBATTR
1070
     0
1070
     1
  0
ATTDEF
  5
10E87
  8
DEFPOINTS
 10
338.4614755938886788
 20
78.2284604818061382
 30
0.0
 40
0.001
  1
MODULO
  3

  2
TRADENAME
 70
     0
1001
ACDBATTR
1070
     0
1070
     1
  0
ATTDEF
  5
10E88
  8
DEFPOINTS
 10
338.4614755938886788
 20
78.2267938151394731
 30
0.0
 40
0.001
  1
VALVE TRIM
  3

  2
PRODUCT
 70
     0
1001
ACDBATTR
1070
     0
1070
     1
  0
LINE
  5
114B2
  8
0
 10
341.2171962993651846
 20
78.2263565225101019
 30
0.0
 11
341.1686739939652284
 21
77.6717440338101142
 31
0.0
  0
ARC
  5
114B3
  8
0
 10
341.1294537934325035
 20
77.6751753567371424
 30
0.0
 40
0.039370015327079
 50
269.9999153482406768
 51
355.0000000011427232
  0
LINE
  5
114B4
  8
0
 10
339.4150335271651784
 20
75.1553185986101084
 30
0.0
 11
339.4221570257839744
 21
75.97159069214716
 31
0.0
  0
ARC
  5
114B5
  8
0
 10
339.4077841592514915
 20
75.9718315788427532
 30
0.0
 40
0.0143748850000531
 50
344.6439376959712035
 51
359.0398227858415225
  0
ARC
  5
114B6
  8
0
 10
339.4041208977952806
 20
75.972837587461072
 30
0.0
 40
0.0181737713942139
 50
317.8821569334219816
 51
344.643937695973591
  0
ARC
  5
114B7
  8
0
 10
339.3838233008311818
 20
75.9911893587841831
 30
0.0
 40
0.0455376152983835
 50
293.3782964708992154
 51
317.8821569334214132
  0
ARC
  5
114B8
  8
0
 10
339.3273182371465282
 20
76.1219006789637547
 30
0.0
 40
0.1879394110914931
 50
287.2351413118930168
 51
293.3782964708992154
  0
ARC
  5
114B9
  8
0
 10
339.346025596491927
 20
76.0615979203573147
 30
0.0
 40
0.1248015619895189
 50
276.3166093638519101
 51
287.2351413118930168
  0
ARC
  5
114BA
  8
0
 10
339.3242501388644996
 20
76.1853504326158912
 30
0.0
 40
0.2503273273050548
 50
269.8091862765219844
 51
278.1543336813782048
  0
LINE
  5
114BB
  8
0
 10
339.4221570257577127
 20
75.9715906918655861
 30
0.0
 11
339.4256844287651802
 21
76.375791039510105
 31
0.0
  0
ARC
  5
114BC
  8
0
 10
339.4050960897462232
 20
76.3750666209054145
 30
0.0
 40
0.0206010797259855
 50
2.0151704564277888
 51
87.4848479995555977
  0
LINE
  5
114BD
  8
0
 10
339.406000137165222
 20
76.3956478546101039
 30
0.0
 11
339.2677460347497913
 21
76.3956478546101039
 31
0.0
  0
ARC
  5
114BE
  8
0
 10
339.1139492669350943
 20
76.7073691935564739
 30
0.0
 40
0.1610017028471337
 50
183.2508275456027889
 51
184.3753270857785083
  0
ARC
  5
114BF
  8
0
 10
338.9348051469276015
 20
76.6959239245996827
 30
0.0
 40
0.0185465793701623
 50
7.1713821346758753
 51
24.1148605589877683
  0
ARC
  5
114C0
  8
0
 10
338.9337317321865157
 20
76.6955358771898545
 30
0.0
 40
0.0196850396120657
 50
23.8692605500239807
 51
43.9999998904388292
  0
ARC
  5
114C1
  8
0
 10
338.9337317326082939
 20
76.6955358775972798
 30
0.0
 40
0.0196850390255876
 50
43.9999998904388292
 51
55.4826341641617589
  0
ARC
  5
114C2
  8
0
 10
338.9337317322710987
 20
76.6955358771068063
 30
0.0
 40
0.0196850396208528
 50
55.4826341641622207
 51
74.8305109893636455
  0
ARC
  5
114C3
  8
0
 10
338.9337317324271908
 20
76.6955358776828433
 30
0.0
 40
0.0196850390240107
 50
74.8305109893636455
 51
86.2671332510304438
  0
ARC
  5
114C4
  8
0
 10
338.9337317329146799
 20
76.6955358851540154
 30
0.0
 40
0.0196850315369649
 50
86.2671332510304438
 51
88.0000007068557153
  0
LINE
  5
114C5
  8
0
 10
338.8549915749651973
 20
76.7179825825101034
 30
0.0
 11
338.9344187306115828
 21
76.715208925101507
 31
0.0
  0
LINE
  5
114C6
  8
0
 10
338.8549915749651973
 20
76.7179825825101034
 30
0.0
 11
338.4612907875651899
 21
76.7179825825101034
 31
0.0
  0
ARC
  5
114C7
  8
0
 10
338.9100199840597156
 20
76.6953213320885965
 30
0.0
 40
0.0433974235650258
 50
354.2958052811559924
 51
359.6898636801511202
  0
ARC
  5
114C8
  8
0
 10
338.9140860194552829
 20
76.6932764356106134
 30
0.0
 40
0.0391822200124279
 50
345.8013675433790013
 51
356.6809586495123199
  0
ARC
  5
114C9
  8
0
 10
338.9058691156458849
 20
76.6949803039598663
 30
0.0
 40
0.0475674295100755
 50
330.6729281950662198
 51
346.2394062848529757
  0
ARC
  5
114CA
  8
0
 10
338.9063981343081196
 20
76.6946831037723058
 30
0.0
 40
0.0469606439660239
 50
312.9463987202290127
 51
330.6729281950675841
  0
ARC
  5
114CB
  8
0
 10
351.5874690495742243
 20
63.0703678561493319
 30
0.0
 40
18.5657104573192093
 50
132.946398720228899
 51
133.0536011850913098
  0
ARC
  5
114CC
  8
0
 10
329.5222802827477722
 20
86.6880497796475851
 30
0.0
 40
13.7556053382237806
 50
312.9463988447797078
 51
313.0536011850912814
  0
ARC
  5
114CD
  8
0
 10
338.9612907875651899
 20
76.5470813065101083
 30
0.0
 40
0.098425196900004
 50
133.0000000149350114
 51
179.9999999999974989
  0
LINE
  5
114CE
  8
0
 10
338.8628655906651943
 20
76.5470813065101083
 30
0.0
 11
338.8628655907253915
 21
76.3701986676101114
 31
0.0
  0
ARC
  5
114CF
  8
0
 10
338.961290787711107
 20
76.3701986676352931
 30
0.0
 40
0.0984251970459035
 50
180.0000000146648915
 51
226.9999999428748083
  0
LINE
  5
114D0
  8
0
 10
338.9383930722652281
 20
76.2569716580101016
 30
0.0
 11
338.8941649647965164
 21
76.2982150353877273
 31
0.0
  0
ARC
  5
114D1
  8
0
 10
338.9061726772652037
 20
76.2224195146101238
 30
0.0
 40
0.0472440944999778
 50
23.4999999999940599
 51
47.0000000000053433
  0
ARC
  5
114D2
  8
0
 10
338.9061726772642942
 20
76.2224195146097259
 30
0.0
 40
0.0472440945009543
 50
359.9998963094221267
 51
23.4999999999975913
  0
ARC
  5
114D3
  8
0
 10
749.8375671034001471
 20
76.2216758348100996
 30
0.0
 40
410.8841503323077973
 50
179.999896309422013
 51
180.0001036905779017
  0
ARC
  5
114D4
  8
0
 10
338.9337318062624718
 20
76.2209322048854006
 30
0.0
 40
0.0196849655026737
 50
308.5239849105118992
 51
0.0001036905811923
  0
ARC
  5
114D5
  8
0
 10
338.9337316881944275
 20
76.2209323531899514
 30
0.0
 40
0.0196851550662088
 50
274.4118269168808979
 51
308.5239849105118992
  0
ARC
  5
114D6
  8
0
 10
338.4613016631146252
 20
82.3441844133373877
 30
0.0
 40
6.161134977436868
 50
269.999898862290479
 51
274.4118269168808979
  0
ARC
  5
114D7
  8
0
 10
338.944228875096826
 20
76.6983130246393614
 30
0.0
 40
0.0104575281206318
 50
298.2579159617926052
 51
330.9058921078055278
  0
LINE
  5
114D8
  8
0
 10
338.9491791136031793
 20
76.6891008907380609
 30
0.0
 11
338.9146804073748172
 21
76.6699148096310523
 31
0.0
  0
ARC
  5
114D9
  8
0
 10
338.7662030383951901
 20
76.9478197268931581
 30
0.0
 40
0.3150820085907076
 50
287.8223042762957107
 51
298.1144308312398152
  0
ARC
  5
114DA
  8
0
 10
338.8468590387878976
 20
76.6956136391048346
 30
0.0
 40
0.0502947675875716
 50
277.5994703800427033
 51
288.2856851218130032
  0
ARC
  5
114DB
  8
0
 10
338.8372069815155783
 20
76.7679575446790352
 30
0.0
 40
0.1232797172917188
 50
271.7601430953146746
 51
277.5994703800427033
  0
ARC
  5
114DC
  8
0
 10
338.8140968580958088
 20
77.5199963849199349
 30
0.0
 40
0.8756735603256657
 50
269.993176964421707
 51
271.7601430953146746
  0
ARC
  5
114DD
  8
0
 10
338.8139548983882037
 20
76.3279035144631308
 30
0.0
 40
0.3164193185837502
 50
89.9931769644217923
 51
96.728658713375907
  0
ARC
  5
114DE
  8
0
 10
338.841071007079222
 20
76.0980672668838167
 30
0.0
 40
0.5478496192184893
 50
96.728658713375907
 51
106.4258012062181962
  0
ARC
  5
114DF
  8
0
 10
338.8554108000597012
 20
76.0494257111360099
 30
0.0
 40
0.5985608665734077
 50
106.4258012062181962
 51
113.466919163325997
  0
ARC
  5
114E0
  8
0
 10
338.6633954428526181
 20
76.4858172578770166
 30
0.0
 40
0.12182168593565
 50
112.3596286214924049
 51
131.904849443666393
  0
ARC
  5
114E1
  8
0
 10
338.6119760655761866
 20
76.5452892400203666
 30
0.0
 40
0.0432409749238766
 50
133.8290851141346138
 51
160.9966736635450957
  0
ARC
  5
114E2
  8
0
 10
338.6076691643560252
 20
76.5470302697577409
 30
0.0
 40
0.0386026511786931
 50
161.3584113571492935
 51
179.9241929938459919
  0
LINE
  5
114E3
  8
0
 10
338.569066546965189
 20
76.5470813442101132
 30
0.0
 11
338.569066546965189
 21
76.370198619810111
 31
0.0
  0
ARC
  5
114E4
  8
0
 10
338.944228875096826
 20
76.2189669393808629
 30
0.0
 40
0.0104575281206318
 50
28.8328458496502407
 51
61.7420840382073806
  0
LINE
  5
114E5
  8
0
 10
338.9491791136031793
 20
76.2281790732821634
 30
0.0
 11
338.9146804073748172
 21
76.2473651543891435
 31
0.0
  0
ARC
  5
114E6
  8
0
 10
338.7662030383951901
 20
75.9694602371270662
 30
0.0
 40
0.3150820085907076
 50
61.8855691687601279
 51
72.1776957237043035
  0
ARC
  5
114E7
  8
0
 10
338.8468590387878976
 20
76.2216663249153754
 30
0.0
 40
0.0502947675875716
 50
71.7143148781870252
 51
82.4005296199573536
  0
ARC
  5
114E8
  8
0
 10
338.8372069815155783
 20
76.1493224193411891
 30
0.0
 40
0.1232797172917188
 50
82.4005296199573536
 51
88.239856904685297
  0
ARC
  5
114E9
  8
0
 10
338.8140968580958088
 20
75.3972835791002609
 30
0.0
 40
0.8756735603256657
 50
88.239856904685297
 51
90.0068230355782077
  0
ARC
  5
114EA
  8
0
 10
338.8139548983882037
 20
76.5893764495570792
 30
0.0
 40
0.3164193185837502
 50
263.2713412866240787
 51
270.0068230355781793
  0
ARC
  5
114EB
  8
0
 10
338.841071007079222
 20
76.8192126971363933
 30
0.0
 40
0.5478496192184893
 50
253.5741987937817896
 51
263.2713412866240787
  0
ARC
  5
114EC
  8
0
 10
338.8554108000597012
 20
76.8678542528842144
 30
0.0
 40
0.5985608665734077
 50
246.533080836674003
 51
253.5741987937817896
  0
ARC
  5
114ED
  8
0
 10
338.6633954428526181
 20
76.4314627061431935
 30
0.0
 40
0.12182168593565
 50
228.0951505563334933
 51
247.6403713785074956
  0
ARC
  5
114EE
  8
0
 10
338.6119760655761866
 20
76.3719907239998435
 30
0.0
 40
0.0432409749238766
 50
199.0033263364541085
 51
226.1709148858653862
  0
ARC
  5
114EF
  8
0
 10
338.6076691643560252
 20
76.3702496942624833
 30
0.0
 40
0.0386026511786931
 50
180.0758070061538945
 51
198.6415886428505928
  0
LINE
  5
114F0
  8
0
 10
339.4258037229508886
 20
77.635805341410105
 30
0.0
 11
339.4258037229508886
 21
76.5649391996101087
 31
0.0
  0
ARC
  5
114F1
  8
0
 10
339.4140846623824928
 20
76.5648475335692211
 30
0.0
 40
0.0117194190669735
 50
269.8143691740662007
 51
0.4481562432572308
  0
LINE
  5
114F2
  8
0
 10
339.4140466930651883
 20
76.5531281760101052
 30
0.0
 11
338.8630515145932804
 21
76.5531281760101194
 31
0.0
  0
LINE
  5
114F3
  8
0
 10
339.4061726772652037
 20
76.5531281760101052
 30
0.0
 11
339.4061726773651912
 21
76.5288629593912333
 31
0.0
  0
ARC
  5
114F4
  8
0
 10
339.3864876379652173
 20
76.5288629593101035
 30
0.0
 40
0.0196850394000008
 50
285.0000000000044906
 51
0.0000002361243796
  0
LINE
  5
114F5
  8
0
 10
339.3915824930339795
 20
76.5098486692101147
 30
0.0
 11
339.3266677058948062
 21
76.4924548044180312
 31
0.0
  0
ARC
  5
114F6
  8
0
 10
339.34704715916439
 20
76.4163976493907029
 30
0.0
 40
0.0787401609499293
 50
105.0000000010463026
 51
179.2914606659327035
  0
ARC
  5
114F7
  8
0
 10
338.4768546208848079
 20
76.4271592984769228
 30
0.0
 40
0.7915189193063771
 50
357.7183741723437151
 51
359.2914606659326182
  0
ARC
  5
114F8
  8
0
 10
338.5811097326230765
 20
76.4230054676933577
 30
0.0
 40
0.6871810899550778
 50
354.5426927326249142
 51
357.7183741723437151
  0
ARC
  5
114F9
  8
0
 10
338.3937029111698962
 20
76.4409097653270777
 30
0.0
 40
0.8754412307203113
 50
341.9532954990252733
 51
354.5426927326249142
  0
ARC
  5
114FA
  8
0
 10
339.3810239050574182
 20
76.3564633499935752
 30
0.0
 40
0.0391845159483695
 50
90.043574304052683
 51
102.3328891696819056
  0
ARC
  5
114FB
  8
0
 10
339.3810106786640972
 20
76.3565238448527737
 30
0.0
 40
0.0391225920800407
 50
102.3328891696819056
 51
131.0098545265566088
  0
ARC
  5
114FC
  8
0
 10
339.3811525493165959
 20
76.356360698016843
 30
0.0
 40
0.0393387960857688
 50
131.0098545265566088
 51
162.2232093438470031
  0
ARC
  5
114FD
  8
0
 10
339.3815595892941133
 20
76.3562301936336638
 30
0.0
 40
0.0397662454246312
 50
162.2232093438447009
 51
177.9509613465554025
  0
LINE
  5
114FE
  8
0
 10
339.2651760639652139
 20
76.3576517783100996
 30
0.0
 11
339.3418187619652144
 21
76.3576517783101139
 31
0.0
  0
ARC
  5
114FF
  8
0
 10
339.3418187619652144
 20
76.3550765556085764
 30
0.0
 40
0.0025752227015392
 50
65.1513994942918941
 51
90.0000000000097771
  0
ARC
  5
11500
  8
0
 10
339.341945448071499
 20
76.3553501198053084
 30
0.0
 40
0.0022737484252263
 50
42.7552995459208134
 51
65.1513994943203443
  0
ARC
  5
11501
  8
0
 10
339.3401547009100909
 20
76.3536944629615419
 30
0.0
 40
0.0047125954849512
 50
15.5253860405886108
 51
42.7552995459364098
  0
ARC
  5
11502
  8
0
 10
339.3258079781709853
 20
76.3497089182958462
 30
0.0
 40
0.0196026263658586
 50
4.6014671447549897
 51
15.5253860405870405
  0
ARC
  5
11503
  8
0
 10
339.3070262014131231
 20
76.3481972883683113
 30
0.0
 40
0.0384451358382662
 50
351.6750519957507208
 51
4.6014671447558033
  0
ARC
  5
11504
  8
0
 10
339.0023369562620132
 20
76.3927821435607797
 30
0.0
 40
0.3463791310764148
 50
348.5832068260675101
 51
351.6750519957507208
  0
ARC
  5
11505
  8
0
 10
339.1912633982449279
 20
76.354630262306884
 30
0.0
 40
0.1536389782189101
 50
340.9538271970208143
 51
348.5832068260675101
  0
ARC
  5
11506
  8
0
 10
339.1299115093785872
 20
76.3758107304797988
 30
0.0
 40
0.2185440357990685
 50
325.1690453408028247
 51
340.9538271970208143
  0
ARC
  5
11507
  8
0
 10
339.0412539202130802
 20
76.4375004222849554
 30
0.0
 40
0.3265523048882613
 50
315.9125646512950993
 51
325.1690453408028247
  0
ARC
  5
11508
  8
0
 10
339.0456251203270881
 20
76.4415394462266846
 30
0.0
 40
0.3262768552214719
 50
303.5772814725206104
 51
314.8689875399243192
  0
ARC
  5
11509
  8
0
 10
338.8922437252443274
 20
76.6930373684337354
 30
0.0
 40
0.6207422514751429
 50
291.7323144436886082
 51
302.5337043611490913
  0
ARC
  5
1150A
  8
0
 10
338.5696249804685181
 20
77.5540326979611478
 30
0.0
 40
1.5401162603322029
 50
280.8240009933408032
 51
291.0212458422212194
  0
ARC
  5
1150B
  8
0
 10
338.4648611016677933
 20
78.0912097347402607
 30
0.0
 40
2.0874110826544641
 50
269.9020010811191241
 51
280.8795020192981724
  0
LINE
  5
1150C
  8
0
 10
339.4061726773651912
 20
76.5288629592101017
 30
0.0
 11
338.8628655906651943
 21
76.5288629592101017
 31
0.0
  0
LINE
  5
1150D
  8
0
 10
338.8549915749651973
 20
76.7179825825101034
 30
0.0
 11
338.8549915749651973
 21
76.8090336878101141
 31
0.0
  0
LINE
  5
1150E
  8
0
 10
338.9435742520652184
 20
77.635805341410105
 30
0.0
 11
338.9435742520652184
 21
76.8287187272101022
 31
0.0
  0
LINE
  5
1150F
  8
0
 10
338.9435742520652184
 20
76.8287187272101022
 30
0.0
 11
338.9238892127651752
 21
76.8090336878101141
 31
0.0
  0
LINE
  5
11510
  8
0
 10
338.9238892127651752
 20
76.8090336878101141
 30
0.0
 11
338.4612907875651899
 21
76.8090336878101141
 31
0.0
  0
LINE
  5
11511
  8
0
 10
338.4612907875651899
 20
76.8287187272101022
 30
0.0
 11
338.943574252165206
 21
76.8287187272101022
 31
0.0
  0
LINE
  5
11512
  8
0
 10
341.2171962993651846
 20
78.2263565225101019
 30
0.0
 11
335.7053852757651953
 21
78.2263565225101019
 31
0.0
  0
LINE
  5
11513
  8
0
 10
341.1294537352652014
 20
77.635805341410105
 30
0.0
 11
335.7931278398651784
 21
77.635805341410105
 31
0.0
  0
LINE
  5
11514
  8
0
 10
339.3953492374652114
 20
75.135805341410105
 30
0.0
 11
337.5272323378408146
 21
75.135805341410105
 31
0.0
  0
LINE
  5
11515
  8
0
 10
339.3234164683652239
 20
75.9350244935101131
 30
0.0
 11
337.5991651067652128
 21
75.9350244935101131
 31
0.0
  0
LINE
  5
11516
  8
0
 10
335.7053852757651953
 20
78.2263565225101019
 30
0.0
 11
335.7539075811652083
 21
77.6717440338101142
 31
0.0
  0
ARC
  5
11517
  8
0
 10
335.7931277816978763
 20
77.6751753567371424
 30
0.0
 40
0.039370015327079
 50
184.9999999988571915
 51
270.0000846517593232
  0
ARC
  5
11518
  8
0
 10
337.5272339178462744
 20
75.155491974686143
 30
0.0
 40
0.0196866333394454
 50
180.5045985094594982
 51
269.9954015678767973
  0
LINE
  5
11519
  8
0
 10
337.5075480479652015
 20
75.1553185986101084
 30
0.0
 11
337.5004245493462918
 21
75.97159069214716
 31
0.0
  0
ARC
  5
1151A
  8
0
 10
337.5147974158788884
 20
75.9718315788427532
 30
0.0
 40
0.0143748850000531
 50
180.9601772141585059
 51
195.3560623040287965
  0
ARC
  5
1151B
  8
0
 10
337.5184606773350993
 20
75.972837587461072
 30
0.0
 40
0.0181737713942139
 50
195.356062304026409
 51
222.1178430665779899
  0
ARC
  5
1151C
  8
0
 10
337.5387582742990844
 20
75.9911893587841831
 30
0.0
 40
0.0455376152983835
 50
222.1178430665785868
 51
246.6217035291008983
  0
ARC
  5
1151D
  8
0
 10
337.5952633379839085
 20
76.1219006789637547
 30
0.0
 40
0.1879394110914931
 50
246.6217035291008983
 51
252.7648586881070116
  0
ARC
  5
1151E
  8
0
 10
337.5765559786385097
 20
76.0615979203573147
 30
0.0
 40
0.1248015619895189
 50
252.7648586881070116
 51
263.6833906361480899
  0
ARC
  5
1151F
  8
0
 10
337.5983314362658803
 20
76.1853504326158912
 30
0.0
 40
0.2503273273050548
 50
261.8456663186217952
 51
270.1908137234779019
  0
LINE
  5
11520
  8
0
 10
337.500424549372724
 20
75.9715906918655861
 30
0.0
 11
337.4968971463651997
 21
76.375791039510105
 31
0.0
  0
ARC
  5
11521
  8
0
 10
337.5174854853842135
 20
76.3750666209054145
 30
0.0
 40
0.0206010797259855
 50
92.5151520004444023
 51
177.9848295435722036
  0
LINE
  5
11522
  8
0
 10
337.5165814379652147
 20
76.3956478546101039
 30
0.0
 11
337.6548355403805886
 21
76.3956478546101039
 31
0.0
  0
ARC
  5
11523
  8
0
 10
337.8086323081951718
 20
76.7073691935564739
 30
0.0
 40
0.1610017028471337
 50
355.6246729142213781
 51
356.7491724543971259
  0
ARC
  5
11524
  8
0
 10
337.9877764282027783
 20
76.6959239245996827
 30
0.0
 40
0.0185465793701623
 50
155.8851394410121998
 51
172.8286178653241052
  0
ARC
  5
11525
  8
0
 10
337.988849842943921
 20
76.6955358771898545
 30
0.0
 40
0.0196850396120657
 50
136.000000109561114
 51
156.1307394499760051
  0
ARC
  5
11526
  8
0
 10
337.9888498425219723
 20
76.6955358775972798
 30
0.0
 40
0.0196850390255876
 50
124.5173658358382056
 51
136.000000109561114
  0
ARC
  5
11527
  8
0
 10
337.9888498428592811
 20
76.6955358771068063
 30
0.0
 40
0.0196850396208528
 50
105.1694890106362976
 51
124.5173658358377935
  0
ARC
  5
11528
  8
0
 10
337.9888498427030754
 20
76.6955358776828433
 30
0.0
 40
0.0196850390240107
 50
93.732866748969542
 51
105.1694890106362976
  0
ARC
  5
11529
  8
0
 10
337.9888498422156999
 20
76.6955358851540154
 30
0.0
 40
0.0196850315369649
 50
91.9999992931442847
 51
93.732866748969542
  0
LINE
  5
1152A
  8
0
 10
338.0675900001651826
 20
76.7179825825101034
 30
0.0
 11
337.9881628445187971
 21
76.715208925101507
 31
0.0
  0
LINE
  5
1152B
  8
0
 10
338.0675900001651826
 20
76.7179825825101034
 30
0.0
 11
338.4612907875651899
 21
76.7179825825101034
 31
0.0
  0
ARC
  5
1152C
  8
0
 10
338.0125615910707211
 20
76.6953213320885965
 30
0.0
 40
0.0433974235650258
 50
180.3101363198479987
 51
185.7041947188440076
  0
ARC
  5
1152D
  8
0
 10
338.008495555675097
 20
76.6932764356106134
 30
0.0
 40
0.0391822200124279
 50
183.3190413504875949
 51
194.1986324566209134
  0
ARC
  5
1152E
  8
0
 10
338.016712459484495
 20
76.6949803039598663
 30
0.0
 40
0.0475674295100755
 50
193.7605937151469959
 51
209.3270718049338086
  0
ARC
  5
1152F
  8
0
 10
338.0161834408223172
 20
76.6946831037723058
 30
0.0
 40
0.0469606439660239
 50
209.3270718049323023
 51
227.0536012797709873
  0
ARC
  5
11530
  8
0
 10
325.3351125255562124
 20
63.0703678561493319
 30
0.0
 40
18.5657104573192093
 50
46.9463988149087115
 51
47.0536012797710512
  0
ARC
  5
11531
  8
0
 10
347.4003012923826077
 20
86.6880497796475851
 30
0.0
 40
13.7556053382237806
 50
226.9463988149086902
 51
227.0536011552202922
  0
ARC
  5
11532
  8
0
 10
337.9612907875651899
 20
76.5470813065101083
 30
0.0
 40
0.098425196900004
 50
0.0000000000024427
 51
46.999999985064953
  0
LINE
  5
11533
  8
0
 10
338.0597159844651856
 20
76.5470813065101083
 30
0.0
 11
338.0597159844049884
 21
76.3701986676101114
 31
0.0
  0
ARC
  5
11534
  8
0
 10
337.9612907874192729
 20
76.3701986676352931
 30
0.0
 40
0.0984251970459035
 50
313.0000000571251917
 51
359.9999999853350232
  0
LINE
  5
11535
  8
0
 10
337.9841885028652086
 20
76.2569716580101016
 30
0.0
 11
338.0284166103339203
 21
76.2982150353877273
 31
0.0
  0
ARC
  5
11536
  8
0
 10
338.0164088978651762
 20
76.2224195146101238
 30
0.0
 40
0.0472440944999778
 50
132.9999999999945999
 51
156.5000000000059117
  0
ARC
  5
11537
  8
0
 10
338.0164088978660857
 20
76.2224195146097259
 30
0.0
 40
0.0472440945009543
 50
156.5000000000023874
 51
180.0001036905779017
  0
ARC
  5
11538
  8
0
 10
-72.914985528269753
 20
76.2216758348100996
 30
0.0
 40
410.8841503323077973
 50
359.9998963094221267
 51
0.0001036905779354
  0
ARC
  5
11539
  8
0
 10
337.9888497688677944
 20
76.2209322048854006
 30
0.0
 40
0.0196849655026737
 50
179.9998963094188014
 51
231.4760150894881008
  0
ARC
  5
1153A
  8
0
 10
337.9888498869360092
 20
76.2209323531899514
 30
0.0
 40
0.0196851550662088
 50
231.4760150894881008
 51
265.5881730831191021
  0
ARC
  5
1153B
  8
0
 10
338.4612799120158115
 20
82.3441844133373877
 30
0.0
 40
6.161134977436868
 50
265.5881730831191021
 51
270.0001011377094073
  0
ARC
  5
1153C
  8
0
 10
337.9783527000336107
 20
76.6983130246393614
 30
0.0
 40
0.0104575281206318
 50
209.0941078921945859
 51
241.7420840382073948
  0
LINE
  5
1153D
  8
0
 10
337.9734024615272006
 20
76.6891008907380609
 30
0.0
 11
338.0079011677556196
 21
76.6699148096310523
 31
0.0
  0
ARC
  5
1153E
  8
0
 10
338.1563785367351898
 20
76.9478197268931581
 30
0.0
 40
0.3150820085907076
 50
241.8855691687600995
 51
252.1776957237042893
  0
ARC
  5
1153F
  8
0
 10
338.0757225363424254
 20
76.6956136391048346
 30
0.0
 40
0.0502947675875716
 50
251.7143148781871105
 51
262.4005296199572967
  0
ARC
  5
11540
  8
0
 10
338.0853745936148016
 20
76.7679575446790352
 30
0.0
 40
0.1232797172917188
 50
262.4005296199572967
 51
268.2398569046853254
  0
ARC
  5
11541
  8
0
 10
338.1084847170346279
 20
77.5199963849199349
 30
0.0
 40
0.8756735603256657
 50
268.2398569046853254
 51
270.0068230355781793
  0
ARC
  5
11542
  8
0
 10
338.1086266767421762
 20
76.3279035144631308
 30
0.0
 40
0.3164193185837502
 50
83.2713412866241072
 51
90.0068230355782077
  0
ARC
  5
11543
  8
0
 10
338.0815105680512147
 20
76.0980672668838167
 30
0.0
 40
0.5478496192184893
 50
73.5741987937817612
 51
83.2713412866241072
  0
ARC
  5
11544
  8
0
 10
338.0671707750706787
 20
76.0494257111360099
 30
0.0
 40
0.5985608665734077
 50
66.5330808366739745
 51
73.5741987937817612
  0
ARC
  5
11545
  8
0
 10
338.2591861322778186
 20
76.4858172578770166
 30
0.0
 40
0.12182168593565
 50
48.0951505563335502
 51
67.6403713785075951
  0
ARC
  5
11546
  8
0
 10
338.3106055095541933
 20
76.5452892400203666
 30
0.0
 40
0.0432409749238766
 50
19.003326336454851
 51
46.1709148858653577
  0
ARC
  5
11547
  8
0
 10
338.3149124107744115
 20
76.5470302697577409
 30
0.0
 40
0.0386026511786931
 50
0.0758070061539697
 51
18.64158864285071
  0
LINE
  5
11548
  8
0
 10
338.3535150281651909
 20
76.5470813442101132
 30
0.0
 11
338.3535150281651909
 21
76.370198619810111
 31
0.0
  0
ARC
  5
11549
  8
0
 10
337.9783527000336107
 20
76.2189669393808629
 30
0.0
 40
0.0104575281206318
 50
118.2579159617926052
 51
151.1671541503496883
  0
LINE
  5
1154A
  8
0
 10
337.9734024615272006
 20
76.2281790732821634
 30
0.0
 11
338.0079011677556196
 21
76.2473651543891435
 31
0.0
  0
ARC
  5
1154B
  8
0
 10
338.1563785367351898
 20
75.9694602371270662
 30
0.0
 40
0.3150820085907076
 50
107.8223042762956965
 51
118.1144308312399005
  0
ARC
  5
1154C
  8
0
 10
338.0757225363424254
 20
76.2216663249153754
 30
0.0
 40
0.0502947675875716
 50
97.5994703800426606
 51
108.2856851218129037
  0
ARC
  5
1154D
  8
0
 10
338.0853745936148016
 20
76.1493224193411891
 30
0.0
 40
0.1232797172917188
 50
91.7601430953147172
 51
97.5994703800426606
  0
ARC
  5
1154E
  8
0
 10
338.1084847170346279
 20
75.3972835791002609
 30
0.0
 40
0.8756735603256657
 50
89.9931769644217923
 51
91.7601430953147172
  0
ARC
  5
1154F
  8
0
 10
338.1086266767421762
 20
76.5893764495570792
 30
0.0
 40
0.3164193185837502
 50
269.993176964421707
 51
276.7286587133759213
  0
ARC
  5
11550
  8
0
 10
338.0815105680512147
 20
76.8192126971363933
 30
0.0
 40
0.5478496192184893
 50
276.7286587133759213
 51
286.425801206218182
  0
ARC
  5
11551
  8
0
 10
338.0671707750706787
 20
76.8678542528842144
 30
0.0
 40
0.5985608665734077
 50
286.425801206218182
 51
293.4669191633261107
  0
ARC
  5
11552
  8
0
 10
338.2591861322778186
 20
76.4314627061431935
 30
0.0
 40
0.12182168593565
 50
292.3596286214923907
 51
311.9048494436664782
  0
ARC
  5
11553
  8
0
 10
338.3106055095541933
 20
76.3719907239998435
 30
0.0
 40
0.0432409749238766
 50
313.8290851141346138
 51
340.9966736635452094
  0
ARC
  5
11554
  8
0
 10
338.3149124107744115
 20
76.3702496942624833
 30
0.0
 40
0.0386026511786931
 50
341.3584113571492935
 51
359.9241929938460203
  0
LINE
  5
11555
  8
0
 10
337.4967778521794912
 20
77.635805341410105
 30
0.0
 11
337.4967778521794912
 21
76.5649391996101087
 31
0.0
  0
ARC
  5
11556
  8
0
 10
337.5084969127477734
 20
76.5648475335692211
 30
0.0
 40
0.0117194190669735
 50
179.5518437567428123
 51
270.1856308259337993
  0
LINE
  5
11557
  8
0
 10
337.5085348820651916
 20
76.5531281760101052
 30
0.0
 11
338.0595300605370994
 21
76.5531281760101194
 31
0.0
  0
LINE
  5
11558
  8
0
 10
337.5164088978651762
 20
76.5531281760101052
 30
0.0
 11
337.5164088977651886
 21
76.5288629593912333
 31
0.0
  0
ARC
  5
11559
  8
0
 10
337.5360939371652194
 20
76.5288629593101035
 30
0.0
 40
0.0196850394000008
 50
179.9999997638755929
 51
254.9999999999955094
  0
LINE
  5
1155A
  8
0
 10
337.5309990820964003
 20
76.5098486692101147
 30
0.0
 11
337.5959138692355737
 21
76.4924548044180312
 31
0.0
  0
ARC
  5
1155B
  8
0
 10
337.5755344159659899
 20
76.4163976493907029
 30
0.0
 40
0.0787401609499293
 50
0.7085393340673356
 51
74.9999999989536406
  0
ARC
  5
1155C
  8
0
 10
338.445726954245572
 20
76.4271592984769228
 30
0.0
 40
0.7915189193063771
 50
180.7085393340672965
 51
182.281625827655489
  0
ARC
  5
1155D
  8
0
 10
338.3414718425073033
 20
76.4230054676933577
 30
0.0
 40
0.6871810899550778
 50
182.2816258276563133
 51
185.4573072673751142
  0
ARC
  5
1155E
  8
0
 10
338.5288786639604837
 20
76.4409097653270777
 30
0.0
 40
0.8754412307203113
 50
185.4573072673751142
 51
198.046704500974613
  0
ARC
  5
1155F
  8
0
 10
337.5415576700730185
 20
76.3564633499935752
 30
0.0
 40
0.0391845159483695
 50
77.6671108303180802
 51
89.956425695947317
  0
ARC
  5
11560
  8
0
 10
337.5415708964662258
 20
76.3565238448527737
 30
0.0
 40
0.0391225920800407
 50
48.9901454734434196
 51
77.6671108303180802
  0
ARC
  5
11561
  8
0
 10
337.5414290258137839
 20
76.356360698016843
 30
0.0
 40
0.0393387960857688
 50
17.7767906561529792
 51
48.9901454734434196
  0
ARC
  5
11562
  8
0
 10
337.5410219858363234
 20
76.3562301936336638
 30
0.0
 40
0.0397662454246312
 50
2.0490386534445362
 51
17.7767906561553097
  0
LINE
  5
11563
  8
0
 10
337.6574055111652228
 20
76.3576517783100996
 30
0.0
 11
337.5807628131652223
 21
76.3576517783101139
 31
0.0
  0
ARC
  5
11564
  8
0
 10
337.5807628131652223
 20
76.3550765556085764
 30
0.0
 40
0.0025752227015392
 50
89.9999999999902229
 51
114.8486005057081059
  0
ARC
  5
11565
  8
0
 10
337.5806361270588809
 20
76.3553501198053084
 30
0.0
 40
0.0022737484252263
 50
114.8486005056795989
 51
137.2447004540790942
  0
ARC
  5
11566
  8
0
 10
337.5824268742202889
 20
76.3536944629615419
 30
0.0
 40
0.0047125954849512
 50
137.2447004540636044
 51
164.474613959411414
  0
ARC
  5
11567
  8
0
 10
337.5967735969595083
 20
76.3497089182958462
 30
0.0
 40
0.0196026263658586
 50
164.4746139594130057
 51
175.3985328552450085
  0
ARC
  5
11568
  8
0
 10
337.6155553737173136
 20
76.3481972883683113
 30
0.0
 40
0.0384451358382662
 50
175.3985328552442127
 51
188.3249480042491939
  0
ARC
  5
11569
  8
0
 10
337.9202446188684235
 20
76.3927821435607797
 30
0.0
 40
0.3463791310764148
 50
188.3249480042491939
 51
191.4167931739324899
  0
ARC
  5
1156A
  8
0
 10
337.7313181768855088
 20
76.354630262306884
 30
0.0
 40
0.1536389782189101
 50
191.4167931739324899
 51
199.0461728029792141
  0
ARC
  5
1156B
  8
0
 10
337.7926700657517927
 20
76.3758107304797988
 30
0.0
 40
0.2185440357990685
 50
199.0461728029792141
 51
214.83095465919709
  0
ARC
  5
1156C
  8
0
 10
337.881327654917186
 20
76.4375004222849554
 30
0.0
 40
0.3265523048882613
 50
214.83095465919709
 51
224.0874353487049007
  0
ARC
  5
1156D
  8
0
 10
337.8769564548031781
 20
76.4415394462266846
 30
0.0
 40
0.3262768552214719
 50
225.1310124600757092
 51
236.4227185274789917
  0
ARC
  5
1156E
  8
0
 10
338.0303378498861093
 20
76.6930373684337354
 30
0.0
 40
0.6207422514751429
 50
237.4662956388509087
 51
248.2676855563115055
  0
ARC
  5
1156F
  8
0
 10
338.3529565946619186
 20
77.5540326979611478
 30
0.0
 40
1.5401162603322029
 50
248.978754157778809
 51
259.1759990066590831
  0
ARC
  5
11570
  8
0
 10
338.4577204734624729
 20
78.0912097347402607
 30
0.0
 40
2.0874110826544641
 50
259.1204979807018276
 51
270.0979989188808759
  0
LINE
  5
11571
  8
0
 10
337.5164088977651886
 20
76.5288629592101017
 30
0.0
 11
338.0597159844651856
 21
76.5288629592101017
 31
0.0
  0
LINE
  5
11572
  8
0
 10
338.0637338887968895
 20
76.0413171524101017
 30
0.0
 11
338.8588476863334904
 21
76.0413171524101017
 31
0.0
  0
LINE
  5
11573
  8
0
 10
338.0675900001651826
 20
76.7179825825101034
 30
0.0
 11
338.0675900001651826
 21
76.8090336878101141
 31
0.0
  0
LINE
  5
11574
  8
0
 10
337.9790073230652183
 20
77.635805341410105
 30
0.0
 11
337.9790073230652183
 21
76.8287187272101022
 31
0.0
  0
LINE
  5
11575
  8
0
 10
337.9790073230652183
 20
76.8287187272101022
 30
0.0
 11
337.9986923623652046
 21
76.8090336878101141
 31
0.0
  0
LINE
  5
11576
  8
0
 10
337.9986923623652046
 20
76.8090336878101141
 30
0.0
 11
338.4612907875651899
 21
76.8090336878101141
 31
0.0
  0
LINE
  5
11577
  8
0
 10
338.4612907875651899
 20
76.8287187272101022
 30
0.0
 11
337.9790073229651739
 21
76.8287187272101022
 31
0.0
  0
ARC
  5
11578
  8
0
 10
339.3953492375750898
 20
75.1554903804429699
 30
0.0
 40
0.0196850391328596
 50
269.9999996799163
 51
359.500001047632793
  0
ENDSEC
  0
EOF
