  0
SECTION
  2
HEADER
  9
$ACADVER
  1
AC1009
  9
$INSBASE
 10
4057.0885050924898678
 20
91.6683448554692859
 30
0.0
  9
$EXTMIN
 10
4046.0485726738579615
 20
88.3218881624692926
 30
0.0
  9
$EXTMAX
 10
4062.7899811040929308
 20
96.571630635034623
 30
0.0
  9
$LIMMIN
 10
0.0
 20
0.0
  9
$LIMMAX
 10
11.6929133858000007
 20
8.2677165353999982
  9
$ORTHOMODE
 70
     0
  9
$REGENMODE
 70
     1
  9
$FILLMODE
 70
     1
  9
$QTEXTMODE
 70
     0
  9
$MIRRTEXT
 70
     0
  9
$DRAGMODE
 70
     2
  9
$LTSCALE
 40
0.6431102362
  9
$OSMODE
 70
  4095
  9
$ATTMODE
 70
     1
  9
$TEXTSIZE
 40
0.2
  9
$TRACEWID
 40
0.05
  9
$TEXTSTYLE
  7
STANDARD
  9
$CLAYER
  8
0
  9
$CELTYPE
  6
BYLAYER
  9
$CECOLOR
 62
   256
  9
$DIMSCALE
 40
1.0
  9
$DIMASZ
 40
0.1875
  9
$DIMEXO
 40
0.0625
  9
$DIMDLI
 40
0.4443307087
  9
$DIMRND
 40
0.0
  9
$DIMDLE
 40
0.0
  9
$DIMEXE
 40
0.125
  9
$DIMTP
 40
0.01
  9
$DIMTM
 40
0.01
  9
$DIMTXT
 40
2.0
  9
$DIMCEN
 40
0.1052362205
  9
$DIMTSZ
 40
0.0
  9
$DIMTOL
 70
     1
  9
$DIMLIM
 70
     0
  9
$DIMTIH
 70
     1
  9
$DIMTOH
 70
     1
  9
$DIMSE1
 70
     0
  9
$DIMSE2
 70
     0
  9
$DIMTAD
 70
     0
  9
$DIMZIN
 70
     0
  9
$DIMBLK
  1

  9
$DIMASO
 70
     1
  9
$DIMSHO
 70
     1
  9
$DIMPOST
  1
\X
  9
$DIMAPOST
  1

  9
$DIMALT
 70
     1
  9
$DIMALTD
 70
     2
  9
$DIMALTF
 40
25.3999999999999986
  9
$DIMLFAC
 40
1.0
  9
$DIMTOFL
 70
     0
  9
$DIMTVP
 40
0.0
  9
$DIMTIX
 70
     0
  9
$DIMSOXD
 70
     0
  9
$DIMSAH
 70
     0
  9
$DIMBLK1
  1

  9
$DIMBLK2
  1

  9
$DIMSTYLE
  2
STANDARD
  9
$DIMCLRD
 70
     0
  9
$DIMCLRE
 70
     0
  9
$DIMCLRT
 70
     0
  9
$DIMTFAC
 40
1.0
  9
$DIMGAP
 40
0.09
  9
$LUNITS
 70
     2
  9
$LUPREC
 70
     4
  9
$SKETCHINC
 40
0.1
  9
$FILLETRAD
 40
0.0
  9
$AUNITS
 70
     0
  9
$AUPREC
 70
     0
  9
$MENU
  1
.
  9
$ELEVATION
 40
0.0
  9
$PELEVATION
 40
0.0
  9
$THICKNESS
 40
0.0
  9
$LIMCHECK
 70
     0
  9
$BLIPMODE
 70
     0
  9
$CHAMFERA
 40
0.0
  9
$CHAMFERB
 40
0.0
  9
$SKPOLY
 70
     0
  9
$TDCREATE
 40
2458060.468368056230247
  9
$TDUPDATE
 40
2459132.6565046301111579
  9
$TDINDWG
 40
0.4208519676
  9
$TDUSRTIMER
 40
0.4208519676
  9
$USRTIMER
 70
     1
  9
$ANGBASE
 50
0.0
  9
$ANGDIR
 70
     0
  9
$PDMODE
 70
     0
  9
$PDSIZE
 40
0.3125
  9
$PLINEWID
 40
0.0
  9
$COORDS
 70
     1
  9
$SPLFRAME
 70
     0
  9
$SPLINETYPE
 70
     6
  9
$SPLINESEGS
 70
     8
  9
$ATTDIA
 70
     1
  9
$ATTREQ
 70
     1
  9
$HANDLING
 70
     1
  9
$HANDSEED
  5
A213
  9
$SURFTAB1
 70
     6
  9
$SURFTAB2
 70
     6
  9
$SURFTYPE
 70
     6
  9
$SURFU
 70
     6
  9
$SURFV
 70
     6
  9
$UCSNAME
  2

  9
$UCSORG
 10
0.0
 20
0.0
 30
0.0
  9
$UCSXDIR
 10
1.0
 20
0.0
 30
0.0
  9
$UCSYDIR
 10
0.0
 20
1.0
 30
0.0
  9
$PUCSNAME
  2

  9
$PUCSORG
 10
0.0
 20
0.0
 30
0.0
  9
$PUCSXDIR
 10
1.0
 20
0.0
 30
0.0
  9
$PUCSYDIR
 10
0.0
 20
1.0
 30
0.0
  9
$USERI1
 70
     0
  9
$USERI2
 70
     0
  9
$USERI3
 70
     0
  9
$USERI4
 70
     0
  9
$USERI5
 70
     0
  9
$USERR1
 40
0.0
  9
$USERR2
 40
0.0
  9
$USERR3
 40
0.0
  9
$USERR4
 40
0.0
  9
$USERR5
 40
0.0
  9
$WORLDVIEW
 70
     1
  9
$SHADEDGE
 70
     3
  9
$SHADEDIF
 70
    70
  9
$TILEMODE
 70
     1
  9
$MAXACTVP
 70
    64
  9
$PLIMCHECK
 70
     0
  9
$PEXTMIN
 10
1.0000000000000000E+20
 20
1.0000000000000000E+20
 30
1.0000000000000000E+20
  9
$PEXTMAX
 10
-1.0000000000000000E+20
 20
-1.0000000000000000E+20
 30
-1.0000000000000000E+20
  9
$PLIMMIN
 10
0.0
 20
0.0
  9
$PLIMMAX
 10
12.0
 20
9.0
  9
$UNITMODE
 70
     0
  9
$VISRETAIN
 70
     1
  9
$PLINEGEN
 70
     0
  9
$PSLTSCALE
 70
     1
  0
ENDSEC
  0
SECTION
  2
TABLES
  0
TABLE
  2
VPORT
 70
     1
  0
VPORT
  2
*ACTIVE
 70
     0
 10
0.0
 20
0.0
 11
1.0
 21
1.0
 12
269.8768791497473103
 22
-33.4350042795052431
 13
0.0
 23
0.0
 14
1.0
 24
1.0
 15
0.0
 25
0.0
 16
0.0
 26
0.0
 36
5.1040778033513332
 17
3792.35791015625
 27
120.1806564331053977
 37
0.0
 40
39.4566229233494212
 41
2.005224660397074
 42
50.0
 43
0.0
 44
0.0
 50
0.0
 51
0.0
 71
     0
 72
   100
 73
     1
 74
     1
 75
     0
 76
     0
 77
     0
 78
     0
  0
ENDTAB
  0
TABLE
  2
LTYPE
 70
     2
  0
LTYPE
  2
CONTINUOUS
 70
     0
  3
Solid line
 72
    65
 73
     0
 40
0.0
  0
LTYPE
  2
PHANTOM2
 70
     0
  3
___ _ _ ___ _ _ ___ _ _ ___ _ _
 72
    65
 73
     6
 40
1.25
 49
0.625
 49
-0.125
 49
0.125
 49
-0.125
 49
0.125
 49
-0.125
  0
ENDTAB
  0
TABLE
  2
LAYER
 70
     2
  0
LAYER
  2
0
 70
     0
 62
   255
  6
CONTINUOUS
  0
LAYER
  2
DEFPOINTS
 70
     0
 62
     7
  6
CONTINUOUS
  0
ENDTAB
  0
TABLE
  2
STYLE
 70
     1
  0
STYLE
  2
STANDARD
 70
     0
 40
0.0
 41
0.8
 50
0.0
 71
     0
 42
0.2
  3
txt
  4

  0
ENDTAB
  0
TABLE
  2
VIEW
 70
     0
  0
ENDTAB
  0
TABLE
  2
UCS
 70
     0
  0
ENDTAB
  0
TABLE
  2
APPID
 70
     9
  0
APPID
  2
ACAD
 70
     0
  0
APPID
  2
ACAD_MLEADERVER
 70
     0
  0
APPID
  2
ACAD_EXEMPT_FROM_CAD_STANDARDS
 70
     0
  0
APPID
  2
ACAD_NAV_VCDISPLAY
 70
     0
  0
APPID
  2
ACAECLAYERSTANDARD
 70
     0
  0
APPID
  2
ACCMTRANSPARENCY
 70
     0
  0
APPID
  2
ACAD_DSTYLE_DIMJAG
 70
     0
  0
APPID
  2
ACAD_DSTYLE_DIMTALN
 70
     0
  0
APPID
  2
ACDBATTR
 70
     0
  0
ENDTAB
  0
TABLE
  2
DIMSTYLE
 70
     1
  0
DIMSTYLE
  2
STANDARD
 70
     0
  3

  4

  5

  6

  7

 40
1.0
 41
0.1875
 42
0.0625
 43
0.38
 44
0.125
 45
0.0
 46
0.0
 47
0.01
 48
0.01
140
0.15625
141
0.09
142
0.0
143
25.3999999999999986
144
1.0
145
0.0
146
1.0
147
0.09
 71
     1
 72
     0
 73
     1
 74
     1
 75
     0
 76
     0
 77
     0
 78
     4
170
     0
171
     2
172
     0
173
     0
174
     0
175
     0
176
     0
177
     0
178
     0
  0
ENDTAB
  0
ENDSEC
  0
SECTION
  2
BLOCKS
  0
BLOCK
  8
0
  2
$MODEL_SPACE
 70
     0
 10
0.0
 20
0.0
 30
0.0
  3
$MODEL_SPACE
  1

  0
ENDBLK
  5
21
  8
0
  0
BLOCK
 67
     1
  8
0
  2
$PAPER_SPACE
 70
     0
 10
0.0
 20
0.0
 30
0.0
  3
$PAPER_SPACE
  1

  0
ENDBLK
  5
1D
 67
     1
  8
0
  0
BLOCK
  8
0
  2
_FILLED
 70
     0
 10
0.0
 20
0.0
 30
0.0
  3
_FILLED
  1

  0
SOLID
  5
69B4
  8
0
  6
BYBLOCK
 62
     0
 10
0.0
 20
0.0
 30
0.0
 11
-1.0
 21
0.1666666667
 31
0.0
 12
-1.0
 22
-0.1666666667
 32
0.0
 13
-1.0
 23
-0.1666666667
 33
0.0
  0
ENDBLK
  5
69B5
  8
0
  6
BYBLOCK
 62
     0
  0
BLOCK
  8
0
  2
A$CDFAF6206
 70
     0
 10
0.0
 20
0.0
 30
0.0
  3
A$CDFAF6206
  1

  0
LINE
  5
6A0E
  8
0
 10
7.4646650085734834
 20
10.9287685970688493
 30
0.0
 11
7.4646650085734896
 21
10.8905784766688498
 31
0.0
  0
ARC
  5
6A0F
  8
0
 10
7.7269027075262349
 20
10.8926811525838598
 30
0.0
 40
0.2622461286616791
 50
180.4593995232625048
 51
217.0214027758331099
  0
LINE
  5
6A10
  8
0
 10
9.767814609867095
 20
10.9287685970688493
 30
0.0
 11
9.767814609867095
 21
10.8905433757650094
 31
0.0
  0
ARC
  5
6A11
  8
0
 10
9.5068669568548287
 20
10.8922438613003703
 30
0.0
 40
0.2609531936261092
 50
322.8847083717149076
 51
359.6266329125650145
  0
LINE
  5
6A12
  8
0
 10
7.517522606271406
 20
10.7347792678688396
 30
0.0
 11
9.7149570120691777
 21
10.7347792678688396
 31
0.0
  0
LINE
  5
6A13
  8
0
 10
7.4646650085734834
 20
10.9287685970688493
 30
0.0
 11
9.7678146123202936
 21
10.9287685970688493
 31
0.0
  0
ARC
  5
6A14
  8
0
 10
4.0826771419203629
 20
8.527951346868889
 30
0.0
 40
4.0826771653999172
 50
13.3117747050523896
 51
32.7200330051415591
  0
ARC
  5
6A15
  8
0
 10
4.0826771460567306
 20
8.5279513475907933
 30
0.0
 40
4.0826771612084691
 50
359.6656501984817851
 51
13.3117747085593798
  0
ARC
  5
6A16
  8
0
 10
13.1498041284835097
 20
8.5279508235212234
 30
0.0
 40
4.0826788382043553
 50
147.2799733478981068
 51
166.6882233021349862
  0
ARC
  5
6A17
  8
0
 10
13.1498064934207992
 20
8.5279506557033251
 30
0.0
 40
4.0826811782395342
 50
166.688228652086309
 51
180.3343397625230011
  0
LINE
  5
6A18
  8
0
 10
8.1652847935202928
 20
8.504127000268852
 30
0.0
 11
9.0671948248202892
 21
8.5041270002687881
 31
0.0
  0
LINE
  5
6A19
  8
0
 10
8.1652847935202786
 20
8.5041270002667204
 30
0.0
 11
8.1652847935202928
 21
8.3607006934688481
 31
0.0
  0
ARC
  5
6A1A
  8
0
 10
5.6196779630382627
 20
8.3631022096452732
 30
0.0
 40
2.545607963272567
 50
342.0511668832173768
 51
359.945947387132378
  0
LINE
  5
6A1B
  8
0
 10
9.0671948248202892
 20
8.5041270002687881
 30
0.0
 11
9.0671948248202892
 21
8.2885990108688503
 31
0.0
  0
ARC
  5
6A1C
  8
0
 10
9.4521885297801163
 20
7.9614488056228501
 30
0.0
 40
0.5052201595850959
 50
139.6436242991769916
 51
174.6757930071850069
  0
ARC
  5
6A1D
  8
0
 10
9.9238413395551746
 20
8.1492417579399508
 30
0.0
 40
0.9848265662939324
 50
188.2263441834095943
 51
209.5593615864376034
  0
ARC
  5
6A1E
  8
0
 10
8.0788764238271256
 20
7.5665710856463297
 30
0.0
 40
0.0393715937169877
 50
162.1669117288323037
 51
227.2023190037006088
  0
ARC
  5
6A1F
  8
0
 10
8.7223682141740682
 20
8.2079667397440517
 30
0.0
 40
0.947895137885075
 50
225.0018610752970858
 51
261.4598823366255829
  0
ARC
  5
6A20
  8
0
 10
8.6645157662702701
 20
8.1695128573935332
 30
0.0
 40
0.9027466462812931
 50
264.7303071214498118
 51
281.8608311947915013
  0
ARC
  5
6A21
  8
0
 10
8.6645157662698935
 20
8.1695128573999671
 30
0.0
 40
0.9027466462876658
 50
299.1741886792128753
 51
299.1743179154552195
  0
ARC
  5
6A22
  8
0
 10
9.0843330931590316
 20
7.4150554710086141
 30
0.0
 40
0.0393703053609601
 50
251.9700352025496954
 51
252.4698971938937859
  0
ARC
  5
6A23
  8
0
 10
9.0843330931590316
 20
7.4150554710086141
 30
0.0
 40
0.0393703053609601
 50
297.2453716727138726
 51
6.8376113572703074
  0
LINE
  5
6A24
  8
0
 10
9.0671948248202892
 20
7.663402160468852
 30
0.0
 11
9.1234233799329516
 21
7.419742732911689
 31
0.0
  0
ARC
  5
6A25
  8
0
 10
8.8843741880892395
 20
9.8961379890094676
 30
0.0
 40
2.5255097382132701
 50
263.792800240752797
 51
274.9514951129821156
  0
ARC
  5
6A26
  8
0
 10
8.8258167405968848
 20
9.2763025889666508
 30
0.0
 40
1.9029970832759311
 50
246.0108363320686067
 51
263.5276935074397215
  0
ARC
  5
6A27
  8
0
 10
8.607491361665744
 20
8.3225444804829642
 30
0.0
 40
1.064510137163637
 50
283.1717405874071005
 51
297.7022170607311864
  0
LINE
  5
6A28
  8
0
 10
9.0671948248202892
 20
8.2885990108688503
 30
0.0
 11
26.2014378595979593
 21
8.2885990108689942
 31
0.0
  0
LINE
  5
6A29
  8
0
 10
26.2014378595979913
 20
7.6634021604689053
 30
0.0
 11
9.0671948248202892
 21
7.6634021604688618
 31
0.0
  0
LINE
  5
6A2A
  8
0
 10
27.8039676758446994
 20
10.9287685970690802
 30
0.0
 11
27.8039676758446888
 21
10.8905784766690807
 31
0.0
  0
ARC
  5
6A2B
  8
0
 10
27.5417299768919399
 20
10.8926811525840801
 30
0.0
 40
0.2622461286616791
 50
322.9785972241680838
 51
359.5406004767386889
  0
LINE
  5
6A2C
  8
0
 10
25.5008180745510913
 20
10.9287685970690305
 30
0.0
 11
25.5008180745510913
 21
10.8905433757651799
 31
0.0
  0
ARC
  5
6A2D
  8
0
 10
25.7617657275633505
 20
10.8922438613005497
 30
0.0
 40
0.2609531936261092
 50
180.3733670874362929
 51
217.1152916282862861
  0
LINE
  5
6A2E
  8
0
 10
27.7511100781467803
 20
10.7347792678690706
 30
0.0
 11
25.5536756723490015
 21
10.7347792678690208
 31
0.0
  0
LINE
  5
6A2F
  8
0
 10
27.8039676758446888
 20
10.9287685970686006
 30
0.0
 11
25.5008180745510806
 21
10.9287685970686006
 31
0.0
  0
ARC
  5
6A30
  8
0
 10
31.1859555424978616
 20
8.5279513468691981
 30
0.0
 40
4.0826771653999172
 50
147.2799669948597057
 51
166.6882252949490066
  0
ARC
  5
6A31
  8
0
 10
31.185955538361501
 20
8.5279513475911024
 30
0.0
 40
4.0826771612084691
 50
166.6882252914419098
 51
180.3343498015194086
  0
ARC
  5
6A32
  8
0
 10
22.1188285559344706
 20
8.5279508235212251
 30
0.0
 40
4.0826788382046102
 50
13.3117766978667795
 51
32.7200266521023977
  0
ARC
  5
6A33
  8
0
 10
22.1188261909974315
 20
8.5279506557034264
 30
0.0
 40
4.0826811782395342
 50
359.665660237478221
 51
13.31177134791497
  0
LINE
  5
6A34
  8
0
 10
27.1033478908979397
 20
8.5041270002690652
 30
0.0
 11
26.2014378595979416
 21
8.5041270002689835
 31
0.0
  0
LINE
  5
6A35
  8
0
 10
27.1033478908979504
 20
8.5041270002669354
 30
0.0
 11
27.1033478908979397
 21
8.3607006934690649
 31
0.0
  0
ARC
  5
6A36
  8
0
 10
29.6489547213799689
 20
8.3631022096455467
 30
0.0
 40
2.545607963272567
 50
180.0540526128687873
 51
197.9488331167837032
  0
LINE
  5
6A37
  8
0
 10
26.2014378595979416
 20
8.5041270002689835
 30
0.0
 11
26.2014378595979487
 21
8.2885990108690457
 31
0.0
  0
ARC
  5
6A38
  8
0
 10
25.8164441546381305
 20
7.9614488056230366
 30
0.0
 40
0.5052201595850959
 50
5.324206992816312
 51
40.3563757008241879
  0
ARC
  5
6A39
  8
0
 10
25.3447913448601803
 20
8.149241757940846
 30
0.0
 40
0.9848265662968968
 50
330.4406384136033807
 51
351.7736558165743759
  0
ARC
  5
6A3A
  8
0
 10
27.1897562605911212
 20
7.5665710856465473
 30
0.0
 40
0.0393715937169877
 50
312.7976809963004143
 51
17.8330882711689185
  0
ARC
  5
6A3B
  8
0
 10
26.5462644702441715
 20
8.2079667397442542
 30
0.0
 40
0.947895137885075
 50
278.5401176633754972
 51
314.9981389247041079
  0
ARC
  5
6A3C
  8
0
 10
26.6041169181479695
 20
8.1695128573937392
 30
0.0
 40
0.9027466462812931
 50
258.139168805210204
 51
275.2696928785518935
  0
ARC
  5
6A3D
  8
0
 10
26.6041169181483497
 20
8.1695128574001732
 30
0.0
 40
0.9027466462876658
 50
240.8256820845460027
 51
240.8258113207880058
  0
ARC
  5
6A3E
  8
0
 10
26.1842995912592293
 20
7.4150554710088086
 30
0.0
 40
0.0393703053609601
 50
287.5301028061073794
 51
288.0299647974517825
  0
ARC
  5
6A3F
  8
0
 10
26.1842995912592293
 20
7.4150554710088086
 30
0.0
 40
0.0393703053609601
 50
173.1623886427310026
 51
242.7546283272870085
  0
LINE
  5
6A40
  8
0
 10
26.2014378595981192
 20
7.6634021604690448
 30
0.0
 11
26.1452093044853093
 21
7.4197427329118826
 31
0.0
  0
ARC
  5
6A41
  8
0
 10
26.384258496328961
 20
9.8961379890096666
 30
0.0
 40
2.5255097382132701
 50
265.0485048870193054
 51
276.2071997592482262
  0
ARC
  5
6A42
  8
0
 10
26.4428159438213299
 20
9.2763025889668516
 30
0.0
 40
1.9029970832759311
 50
276.4723064925619838
 51
293.9891636679327007
  0
ARC
  5
6A43
  8
0
 10
26.6611413227524885
 20
8.3225444804831703
 30
0.0
 40
1.064510137163637
 50
242.2977829392704052
 51
256.8282594125943774
  0
LINE
  5
6A44
  8
0
 62
     4
 10
17.9031473532159602
 20
10.9287685970686006
 30
0.0
 11
24.6329820359843588
 21
20.0952817181593808
 31
0.0
  0
LINE
  5
6A45
  8
0
 62
     4
 10
17.9031473532159602
 20
-0.0000000300842942
 30
0.0
 11
22.3963351323106608
 21
4.993614497796286
 31
0.0
  0
ENDBLK
  5
6A49
  8
0
  0
ENDSEC
  0
SECTION
  2
ENTITIES
  0
ATTDEF
  5
3930
  8
DEFPOINTS
 10
4057.089751058038928
 20
91.6726334012671344
 30
0.0
 40
0.001
  1
K-99724T-4
  3

  2
MODELNUMBER
 70
     0
1001
ACDBATTR
1070
     0
1070
     1
  0
ATTDEF
  5
3931
  8
DEFPOINTS
 10
4057.089751058038928
 20
91.6709667346004835
 30
0.0
 40
0.001
  1
MODULO
  3

  2
TRADENAME
 70
     0
1001
ACDBATTR
1070
     0
1070
     1
  0
ATTDEF
  5
3932
  8
DEFPOINTS
 10
4057.089751058038928
 20
91.6693000679338184
 30
0.0
 40
0.001
  1
VALVE TRIM
  3

  2
PRODUCT
 70
     0
1001
ACDBATTR
1070
     0
1070
     1
  0
ARC
  5
A14F
  8
0
 10
4056.1633082624662165
 20
89.9708512921692858
 30
0.0
 40
0.0196850393999965
 50
180.0000002910518049
 51
255.0000000720264097
  0
ARC
  5
A150
  8
0
 10
4056.1357492218107836
 20
90.006927567440556
 30
0.0
 40
0.011811058471288
 50
180.000169161563889
 51
269.9999299309729963
  0
LINE
  5
A151
  8
0
 10
4056.2231282098259726
 20
89.9344431332692977
 30
0.0
 11
4056.1582133993902062
 21
89.9518370042148945
 31
0.0
  0
LINE
  5
A152
  8
0
 10
4056.1436232230671521
 20
89.9708512921692858
 30
0.0
 11
4056.1436232230671521
 21
89.9951165089692893
 31
0.0
  0
LINE
  5
A153
  8
0
 10
4056.1239381633399717
 20
90.0069275325692928
 30
0.0
 11
4056.1239381633399717
 21
91.0777936743692891
 31
0.0
  0
ARC
  5
A154
  8
0
 10
4058.0137019602120745
 20
89.9708512921692858
 30
0.0
 40
0.0196850393999965
 50
284.9999999279735903
 51
359.9999997089474277
  0
ARC
  5
A155
  8
0
 10
4058.0412610275961924
 20
90.0069275029119495
 30
0.0
 40
0.0118109939426886
 50
269.9998561305945941
 51
0.0001438693728988
  0
LINE
  5
A156
  8
0
 10
4057.9538820128527732
 20
89.9344431332692977
 30
0.0
 11
4058.0187968232880849
 21
89.9518370042148945
 31
0.0
  0
LINE
  5
A157
  8
0
 10
4058.0333869996120484
 20
89.9708512921692858
 30
0.0
 11
4058.0333869996120484
 21
89.9951165089692893
 31
0.0
  0
LINE
  5
A158
  8
0
 10
4058.0530720215388101
 20
90.0069275325692928
 30
0.0
 11
4058.0530720215388101
 21
91.0777936743692891
 31
0.0
  0
LINE
  5
A159
  8
0
 10
4058.0187968232880849
 20
89.9518370042148945
 30
0.0
 11
4056.1582225994661712
 21
89.9518370021692846
 31
0.0
  0
LINE
  5
A15A
  8
0
 10
4056.1357492081660894
 20
89.9951165089692893
 30
0.0
 11
4058.0412609979389345
 21
89.9951165089693035
 31
0.0
  0
ARC
  5
A15B
  8
0
 10
4056.1687072697800431
 20
89.8574164212394635
 30
0.0
 40
0.0392749808661529
 50
1.865901900016719
 51
89.8773839481617358
  0
ARC
  5
A15C
  8
0
 10
4056.1951827688158119
 20
89.8723335043911362
 30
0.0
 40
0.0715274708155878
 50
165.4864558185632006
 51
174.9027693100119905
  0
ARC
  5
A15D
  8
0
 10
4056.1363244193739774
 20
89.8851105905670238
 30
0.0
 40
0.0115925017221713
 50
92.5832157805982945
 51
153.633668216562711
  0
ARC
  5
A15E
  8
0
 10
4056.2890040898159896
 20
89.8847263061400952
 30
0.0
 40
0.1651763174592172
 50
182.094858677015111
 51
191.1911806927436999
  0
ARC
  5
A15F
  8
0
 10
4056.3590461554031208
 20
89.8939415288211165
 30
0.0
 40
0.2357190523235951
 50
190.0841789093070986
 51
207.1345678849154979
  0
ARC
  5
A160
  8
0
 10
4056.5013629169211526
 20
89.9821543816435536
 30
0.0
 40
0.4028339035392497
 50
209.0686972810746056
 51
232.635211920141586
  0
ARC
  5
A161
  8
0
 10
4056.7219011041529484
 20
90.2692294909754338
 30
0.0
 40
0.764840284740099
 50
232.5558986861261985
 51
246.2920508986412074
  0
ARC
  5
A162
  8
0
 10
4056.9033753229850845
 20
90.6614627124539254
 30
0.0
 40
1.196967749493564
 50
245.8874750977726933
 51
253.4283671984773889
  0
ARC
  5
A163
  8
0
 10
4057.0710482946151387
 20
91.2675567546552884
 30
0.0
 40
1.8257501475427751
 50
253.8099109015331862
 51
270.5478384203751716
  0
ARC
  5
A164
  8
0
 10
4056.4279569009418083
 20
89.8777849201565289
 30
0.0
 40
0.2261163466096294
 50
191.6498443180819038
 51
223.7483740632179945
  0
ARC
  5
A165
  8
0
 10
4057.0885050923889139
 20
89.8695538489692751
 30
0.0
 40
0.807086614199979
 50
180.7223628865997114
 51
193.1299426035552074
  0
ARC
  5
A166
  8
0
 10
4056.4518272457189596
 20
89.8849484419702662
 30
0.0
 40
0.2485718228535958
 50
221.1355924121558871
 51
233.082166151333098
  0
ARC
  5
A167
  8
0
 10
4056.6079948658198191
 20
90.0946162774973374
 30
0.0
 40
0.5100070016326183
 50
233.2040959364881019
 51
249.2982907951731022
  0
ARC
  5
A168
  8
0
 10
4057.0564446992771082
 20
91.3118134927845375
 30
0.0
 40
1.8071744820329481
 50
249.6403086570124117
 51
271.0150999302342143
  0
ARC
  5
A169
  8
0
 10
4056.313446907046
 20
89.8539452308468753
 30
0.0
 40
0.1091515481933192
 50
181.9192185453896968
 51
191.5314303932948974
  0
ARC
  5
A16A
  8
0
 10
4056.2248992605300373
 20
89.8505984064064336
 30
0.0
 40
0.0205449912961731
 50
165.6602546510887066
 51
180.8609520996270135
  0
ARC
  5
A16B
  8
0
 10
4056.209671960650212
 20
89.8546462721956942
 30
0.0
 40
0.00479193164618
 50
133.073507572822507
 51
167.458700525418692
  0
ARC
  5
A16C
  8
0
 10
4056.2079215121921152
 20
89.8563105916409484
 30
0.0
 40
0.0023849717396036
 50
89.0410816479032547
 51
129.6591525291433129
  0
LINE
  5
A16D
  8
0
 10
4056.1358019412900831
 20
89.8966913121692812
 30
0.0
 11
4056.271478242189005
 21
89.8966913121692812
 31
0.0
  0
ARC
  5
A16E
  8
0
 10
4056.2025127534930107
 20
89.8582025517575431
 30
0.0
 40
0.0789786256465142
 50
0.8532680988929389
 51
74.8690637756423598
  0
ARC
  5
A16F
  8
0
 10
4057.0885050914480416
 20
98.1921309092807775
 30
0.0
 40
9.8702427468114902
 50
264.4956304478798188
 51
270.000000005471577
  0
ARC
  5
A170
  8
0
 10
4056.1436232025607751
 20
88.386995246445494
 30
0.0
 40
0.0196850392220487
 50
179.9999996396757922
 51
264.4956308871621786
  0
LINE
  5
A171
  8
0
 10
4056.1239381633399717
 20
88.3869952465692847
 30
0.0
 11
4056.1239381633399717
 21
89.8786884451159551
 31
0.0
  0
ARC
  5
A172
  8
0
 10
4058.0083029150978291
 20
89.8574164212394635
 30
0.0
 40
0.0392749808661529
 50
90.1226160518382358
 51
178.134098099983305
  0
ARC
  5
A173
  8
0
 10
4057.8880060950591542
 20
89.8847263061405641
 30
0.0
 40
0.1651763174621534
 50
348.808819307301178
 51
357.9051413228643241
  0
ARC
  5
A174
  8
0
 10
4057.8179640294752062
 20
89.8939415288211165
 30
0.0
 40
0.2357190523235951
 50
332.8654321150846158
 51
349.9158210906927025
  0
ARC
  5
A175
  8
0
 10
4057.6756472679571743
 20
89.9821543816435536
 30
0.0
 40
0.4028339035392497
 50
307.3647880798582719
 51
330.9313027189252807
  0
ARC
  5
A176
  8
0
 10
4057.4551090807249238
 20
90.2692294909754338
 30
0.0
 40
0.764840284740099
 50
293.7079491013589063
 51
307.4441013138737731
  0
ARC
  5
A177
  8
0
 10
4057.273634861894152
 20
90.6614627124539254
 30
0.0
 40
1.196967749493564
 50
286.5716328015225258
 51
294.1125249022272783
  0
ARC
  5
A178
  8
0
 10
4057.7490532839369735
 20
89.8777849201565289
 30
0.0
 40
0.2261163466096294
 50
316.2516259367819771
 51
348.3501556819181246
  0
ARC
  5
A179
  8
0
 10
4057.0885050924889583
 20
89.8695538489692751
 30
0.0
 40
0.807086614199979
 50
346.8700573964447926
 51
359.277637113400317
  0
ARC
  5
A17A
  8
0
 10
4057.7251829391589126
 20
89.8849484419702662
 30
0.0
 40
0.2485718228535958
 50
306.9178338486668167
 51
318.8644075878440844
  0
ARC
  5
A17B
  8
0
 10
4057.5690153190580531
 20
90.0946162774973374
 30
0.0
 40
0.5100070016326183
 50
290.7017092048270115
 51
306.7959040635117844
  0
ARC
  5
A17C
  8
0
 10
4057.1205536060319901
 20
91.3118577784889425
 30
0.0
 40
1.8072201341322851
 50
268.9824705421622184
 51
290.3595559633465086
  0
ARC
  5
A17D
  8
0
 10
4057.8635632778327818
 20
89.8539452308468753
 30
0.0
 40
0.1091515481933192
 50
348.4685696067049889
 51
358.0807814546103032
  0
ARC
  5
A17E
  8
0
 10
4057.9521109243491992
 20
89.8505984064064336
 30
0.0
 40
0.0205449912961731
 50
359.139047900372077
 51
14.3397453489112294
  0
ARC
  5
A17F
  8
0
 10
4057.9673382242290245
 20
89.8546462721956942
 30
0.0
 40
0.00479193164618
 50
12.5412994745812991
 51
46.9264924271774788
  0
ARC
  5
A180
  8
0
 10
4057.9690886726862118
 20
89.8563105916409484
 30
0.0
 40
0.0023849717396036
 50
50.34084747085668
 51
90.9589183520967453
  0
LINE
  5
A181
  8
0
 10
4058.0412082435891534
 20
89.8966913121692812
 30
0.0
 11
4057.9055319426888673
 21
89.8966913121692812
 31
0.0
  0
ARC
  5
A182
  8
0
 10
4057.9744974313839521
 20
89.8582025517575431
 30
0.0
 40
0.0789786256465142
 50
105.1309362243575976
 51
179.146731901106989
  0
ARC
  5
A183
  8
0
 10
4057.0885050934311948
 20
98.1921309092807775
 30
0.0
 40
9.8702427468114902
 50
269.999999994528423
 51
275.5043695521201812
  0
ARC
  5
A184
  8
0
 10
4058.0333869823180066
 20
88.3869952464454798
 30
0.0
 40
0.0196850392220382
 50
275.5043691128378214
 51
0.0000003603502299
  0
LINE
  5
A185
  8
0
 10
4058.0530720215388101
 20
88.3869952465752249
 30
0.0
 11
4058.0530720215388101
 21
89.8786884451159551
 31
0.0
  0
ARC
  5
A186
  8
0
 10
4057.9818274160588771
 20
89.872333504390653
 30
0.0
 40
0.0715274708178635
 50
5.0972306902190301
 51
14.5135441813664503
  0
ARC
  5
A187
  8
0
 10
4058.0406857655038948
 20
89.8851105905670238
 30
0.0
 40
0.0115925017221713
 50
26.3663317834372712
 51
87.4167842194017055
  0
ARC
  5
A188
  8
0
 10
4057.1059618902640977
 20
91.2675567546552884
 30
0.0
 40
1.8257501475427751
 50
269.4521615796248284
 51
286.190089098466899
  0
LINE
  5
A189
  8
0
 10
4056.1417349808798463
 20
88.3674009771797557
 30
0.0
 11
4058.0352752040021187
 21
88.3674009771802247
 31
0.0
  0
ARC
  5
A18A
  8
0
 10
4054.4203421447118671
 20
91.1171637531282954
 30
0.0
 40
0.0393700787590264
 50
185.0000000040134864
 51
269.9999999665972723
  0
LINE
  5
A18B
  8
0
 10
4054.3811218809892125
 20
91.1137324246692799
 30
0.0
 11
4054.3325995325471922
 21
91.6683448554692859
 31
0.0
  0
ARC
  5
A18C
  8
0
 10
4059.7566680401660051
 20
91.1171637531282954
 30
0.0
 40
0.0393700787590264
 50
270.000000033402614
 51
354.9999999959865136
  0
LINE
  5
A18D
  8
0
 10
4059.795888303890024
 20
91.1137324246692799
 30
0.0
 11
4059.8444106524329982
 21
91.6683448554692859
 31
0.0
  0
LINE
  5
A18E
  8
0
 10
4054.3325995325471922
 20
91.6683448554692859
 30
0.0
 11
4059.8444106524329982
 21
91.6683448554692859
 31
0.0
  0
LINE
  5
A18F
  8
0
 10
4054.4203421447118671
 20
91.0777936743692891
 30
0.0
 11
4059.7566680401660051
 21
91.0777936743692891
 31
0.0
  0
ENDSEC
  0
EOF
