  0
SECTION
  2
HEADER
  9
$ACADVER
  1
AC1009
  9
$INSBASE
 10
4029.4307094211549156
 20
104.5900846615732007
 30
0.0
  9
$EXTMIN
 10
4016.5334054614509114
 20
97.6437221261163586
 30
0.0
  9
$EXTMAX
 10
4035.3578346629137741
 20
108.9532343156731002
 30
0.0
  9
$LIMMIN
 10
0.0
 20
0.0
  9
$LIMMAX
 10
11.6929133858000007
 20
8.2677165353999982
  9
$ORTHOMODE
 70
     0
  9
$REGENMODE
 70
     1
  9
$FILLMODE
 70
     1
  9
$QTEXTMODE
 70
     0
  9
$MIRRTEXT
 70
     0
  9
$DRAGMODE
 70
     2
  9
$LTSCALE
 40
0.6431102362
  9
$OSMODE
 70
  4095
  9
$ATTMODE
 70
     1
  9
$TEXTSIZE
 40
0.2
  9
$TRACEWID
 40
0.05
  9
$TEXTSTYLE
  7
STANDARD
  9
$CLAYER
  8
0
  9
$CELTYPE
  6
BYLAYER
  9
$CECOLOR
 62
   256
  9
$DIMSCALE
 40
1.0
  9
$DIMASZ
 40
0.1875
  9
$DIMEXO
 40
0.0625
  9
$DIMDLI
 40
0.4443307087
  9
$DIMRND
 40
0.0
  9
$DIMDLE
 40
0.0
  9
$DIMEXE
 40
0.125
  9
$DIMTP
 40
0.01
  9
$DIMTM
 40
0.01
  9
$DIMTXT
 40
2.0
  9
$DIMCEN
 40
0.1052362205
  9
$DIMTSZ
 40
0.0
  9
$DIMTOL
 70
     1
  9
$DIMLIM
 70
     0
  9
$DIMTIH
 70
     1
  9
$DIMTOH
 70
     1
  9
$DIMSE1
 70
     0
  9
$DIMSE2
 70
     0
  9
$DIMTAD
 70
     0
  9
$DIMZIN
 70
     0
  9
$DIMBLK
  1

  9
$DIMASO
 70
     1
  9
$DIMSHO
 70
     1
  9
$DIMPOST
  1
\X
  9
$DIMAPOST
  1

  9
$DIMALT
 70
     1
  9
$DIMALTD
 70
     2
  9
$DIMALTF
 40
25.3999999999999986
  9
$DIMLFAC
 40
1.0
  9
$DIMTOFL
 70
     0
  9
$DIMTVP
 40
0.0
  9
$DIMTIX
 70
     0
  9
$DIMSOXD
 70
     0
  9
$DIMSAH
 70
     0
  9
$DIMBLK1
  1

  9
$DIMBLK2
  1

  9
$DIMSTYLE
  2
STANDARD
  9
$DIMCLRD
 70
     0
  9
$DIMCLRE
 70
     0
  9
$DIMCLRT
 70
     0
  9
$DIMTFAC
 40
1.0
  9
$DIMGAP
 40
0.09
  9
$LUNITS
 70
     2
  9
$LUPREC
 70
     4
  9
$SKETCHINC
 40
0.1
  9
$FILLETRAD
 40
0.0
  9
$AUNITS
 70
     0
  9
$AUPREC
 70
     0
  9
$MENU
  1
.
  9
$ELEVATION
 40
0.0
  9
$PELEVATION
 40
0.0
  9
$THICKNESS
 40
0.0
  9
$LIMCHECK
 70
     0
  9
$BLIPMODE
 70
     0
  9
$CHAMFERA
 40
0.0
  9
$CHAMFERB
 40
0.0
  9
$SKPOLY
 70
     0
  9
$TDCREATE
 40
2458060.468368056230247
  9
$TDUPDATE
 40
2459132.5805208329111338
  9
$TDINDWG
 40
0.419671412
  9
$TDUSRTIMER
 40
0.419671412
  9
$USRTIMER
 70
     1
  9
$ANGBASE
 50
0.0
  9
$ANGDIR
 70
     0
  9
$PDMODE
 70
     0
  9
$PDSIZE
 40
0.3125
  9
$PLINEWID
 40
0.0
  9
$COORDS
 70
     1
  9
$SPLFRAME
 70
     0
  9
$SPLINETYPE
 70
     6
  9
$SPLINESEGS
 70
     8
  9
$ATTDIA
 70
     1
  9
$ATTREQ
 70
     1
  9
$HANDLING
 70
     1
  9
$HANDSEED
  5
A0E5
  9
$SURFTAB1
 70
     6
  9
$SURFTAB2
 70
     6
  9
$SURFTYPE
 70
     6
  9
$SURFU
 70
     6
  9
$SURFV
 70
     6
  9
$UCSNAME
  2

  9
$UCSORG
 10
0.0
 20
0.0
 30
0.0
  9
$UCSXDIR
 10
1.0
 20
0.0
 30
0.0
  9
$UCSYDIR
 10
0.0
 20
1.0
 30
0.0
  9
$PUCSNAME
  2

  9
$PUCSORG
 10
0.0
 20
0.0
 30
0.0
  9
$PUCSXDIR
 10
1.0
 20
0.0
 30
0.0
  9
$PUCSYDIR
 10
0.0
 20
1.0
 30
0.0
  9
$USERI1
 70
     0
  9
$USERI2
 70
     0
  9
$USERI3
 70
     0
  9
$USERI4
 70
     0
  9
$USERI5
 70
     0
  9
$USERR1
 40
0.0
  9
$USERR2
 40
0.0
  9
$USERR3
 40
0.0
  9
$USERR4
 40
0.0
  9
$USERR5
 40
0.0
  9
$WORLDVIEW
 70
     1
  9
$SHADEDGE
 70
     3
  9
$SHADEDIF
 70
    70
  9
$TILEMODE
 70
     1
  9
$MAXACTVP
 70
    64
  9
$PLIMCHECK
 70
     0
  9
$PEXTMIN
 10
1.0000000000000000E+20
 20
1.0000000000000000E+20
 30
1.0000000000000000E+20
  9
$PEXTMAX
 10
-1.0000000000000000E+20
 20
-1.0000000000000000E+20
 30
-1.0000000000000000E+20
  9
$PLIMMIN
 10
0.0
 20
0.0
  9
$PLIMMAX
 10
12.0
 20
9.0
  9
$UNITMODE
 70
     0
  9
$VISRETAIN
 70
     1
  9
$PLINEGEN
 70
     0
  9
$PSLTSCALE
 70
     1
  0
ENDSEC
  0
SECTION
  2
TABLES
  0
TABLE
  2
VPORT
 70
     1
  0
VPORT
  2
*ACTIVE
 70
     0
 10
0.0
 20
0.0
 11
1.0
 21
1.0
 12
245.3351340459275036
 22
-24.9375087010053598
 13
0.0
 23
0.0
 14
1.0
 24
1.0
 15
0.0
 25
0.0
 16
0.0
 26
0.0
 36
5.1040778033513332
 17
3792.35791015625
 27
120.1806564331053977
 37
0.0
 40
56.1283727106620987
 41
2.005224660397074
 42
50.0
 43
0.0
 44
0.0
 50
0.0
 51
0.0
 71
     0
 72
   100
 73
     1
 74
     1
 75
     0
 76
     0
 77
     0
 78
     0
  0
ENDTAB
  0
TABLE
  2
LTYPE
 70
     2
  0
LTYPE
  2
CONTINUOUS
 70
     0
  3
Solid line
 72
    65
 73
     0
 40
0.0
  0
LTYPE
  2
PHANTOM2
 70
     0
  3
___ _ _ ___ _ _ ___ _ _ ___ _ _
 72
    65
 73
     6
 40
1.25
 49
0.625
 49
-0.125
 49
0.125
 49
-0.125
 49
0.125
 49
-0.125
  0
ENDTAB
  0
TABLE
  2
LAYER
 70
     2
  0
LAYER
  2
0
 70
     0
 62
   255
  6
CONTINUOUS
  0
LAYER
  2
DEFPOINTS
 70
     0
 62
     7
  6
CONTINUOUS
  0
ENDTAB
  0
TABLE
  2
STYLE
 70
     1
  0
STYLE
  2
STANDARD
 70
     0
 40
0.0
 41
0.8
 50
0.0
 71
     0
 42
0.2
  3
txt
  4

  0
ENDTAB
  0
TABLE
  2
VIEW
 70
     0
  0
ENDTAB
  0
TABLE
  2
UCS
 70
     0
  0
ENDTAB
  0
TABLE
  2
APPID
 70
     9
  0
APPID
  2
ACAD
 70
     0
  0
APPID
  2
ACAD_MLEADERVER
 70
     0
  0
APPID
  2
ACAD_EXEMPT_FROM_CAD_STANDARDS
 70
     0
  0
APPID
  2
ACAD_NAV_VCDISPLAY
 70
     0
  0
APPID
  2
ACAECLAYERSTANDARD
 70
     0
  0
APPID
  2
ACCMTRANSPARENCY
 70
     0
  0
APPID
  2
ACAD_DSTYLE_DIMJAG
 70
     0
  0
APPID
  2
ACAD_DSTYLE_DIMTALN
 70
     0
  0
APPID
  2
ACDBATTR
 70
     0
  0
ENDTAB
  0
TABLE
  2
DIMSTYLE
 70
     1
  0
DIMSTYLE
  2
STANDARD
 70
     0
  3

  4

  5

  6

  7

 40
1.0
 41
0.1875
 42
0.0625
 43
0.38
 44
0.125
 45
0.0
 46
0.0
 47
0.01
 48
0.01
140
0.15625
141
0.09
142
0.0
143
25.3999999999999986
144
1.0
145
0.0
146
1.0
147
0.09
 71
     1
 72
     0
 73
     1
 74
     1
 75
     0
 76
     0
 77
     0
 78
     4
170
     0
171
     2
172
     0
173
     0
174
     0
175
     0
176
     0
177
     0
178
     0
  0
ENDTAB
  0
ENDSEC
  0
SECTION
  2
BLOCKS
  0
BLOCK
  8
0
  2
$MODEL_SPACE
 70
     0
 10
0.0
 20
0.0
 30
0.0
  3
$MODEL_SPACE
  1

  0
ENDBLK
  5
21
  8
0
  0
BLOCK
 67
     1
  8
0
  2
$PAPER_SPACE
 70
     0
 10
0.0
 20
0.0
 30
0.0
  3
$PAPER_SPACE
  1

  0
ENDBLK
  5
1D
 67
     1
  8
0
  0
BLOCK
  8
0
  2
_FILLED
 70
     0
 10
0.0
 20
0.0
 30
0.0
  3
_FILLED
  1

  0
SOLID
  5
69B4
  8
0
  6
BYBLOCK
 62
     0
 10
0.0
 20
0.0
 30
0.0
 11
-1.0
 21
0.1666666667
 31
0.0
 12
-1.0
 22
-0.1666666667
 32
0.0
 13
-1.0
 23
-0.1666666667
 33
0.0
  0
ENDBLK
  5
69B5
  8
0
  6
BYBLOCK
 62
     0
  0
BLOCK
  8
0
  2
A$CDFAF6206
 70
     0
 10
0.0
 20
0.0
 30
0.0
  3
A$CDFAF6206
  1

  0
LINE
  5
6A0E
  8
0
 10
7.4646650085734834
 20
10.9287685970688493
 30
0.0
 11
7.4646650085734896
 21
10.8905784766688498
 31
0.0
  0
ARC
  5
6A0F
  8
0
 10
7.7269027075262349
 20
10.8926811525838598
 30
0.0
 40
0.2622461286616791
 50
180.4593995232625048
 51
217.0214027758331099
  0
LINE
  5
6A10
  8
0
 10
9.767814609867095
 20
10.9287685970688493
 30
0.0
 11
9.767814609867095
 21
10.8905433757650094
 31
0.0
  0
ARC
  5
6A11
  8
0
 10
9.5068669568548287
 20
10.8922438613003703
 30
0.0
 40
0.2609531936261092
 50
322.8847083717149076
 51
359.6266329125650145
  0
LINE
  5
6A12
  8
0
 10
7.517522606271406
 20
10.7347792678688396
 30
0.0
 11
9.7149570120691777
 21
10.7347792678688396
 31
0.0
  0
LINE
  5
6A13
  8
0
 10
7.4646650085734834
 20
10.9287685970688493
 30
0.0
 11
9.7678146123202936
 21
10.9287685970688493
 31
0.0
  0
ARC
  5
6A14
  8
0
 10
4.0826771419203629
 20
8.527951346868889
 30
0.0
 40
4.0826771653999172
 50
13.3117747050523896
 51
32.7200330051415591
  0
ARC
  5
6A15
  8
0
 10
4.0826771460567306
 20
8.5279513475907933
 30
0.0
 40
4.0826771612084691
 50
359.6656501984817851
 51
13.3117747085593798
  0
ARC
  5
6A16
  8
0
 10
13.1498041284835097
 20
8.5279508235212234
 30
0.0
 40
4.0826788382043553
 50
147.2799733478981068
 51
166.6882233021349862
  0
ARC
  5
6A17
  8
0
 10
13.1498064934207992
 20
8.5279506557033251
 30
0.0
 40
4.0826811782395342
 50
166.688228652086309
 51
180.3343397625230011
  0
LINE
  5
6A18
  8
0
 10
8.1652847935202928
 20
8.504127000268852
 30
0.0
 11
9.0671948248202892
 21
8.5041270002687881
 31
0.0
  0
LINE
  5
6A19
  8
0
 10
8.1652847935202786
 20
8.5041270002667204
 30
0.0
 11
8.1652847935202928
 21
8.3607006934688481
 31
0.0
  0
ARC
  5
6A1A
  8
0
 10
5.6196779630382627
 20
8.3631022096452732
 30
0.0
 40
2.545607963272567
 50
342.0511668832173768
 51
359.945947387132378
  0
LINE
  5
6A1B
  8
0
 10
9.0671948248202892
 20
8.5041270002687881
 30
0.0
 11
9.0671948248202892
 21
8.2885990108688503
 31
0.0
  0
ARC
  5
6A1C
  8
0
 10
9.4521885297801163
 20
7.9614488056228501
 30
0.0
 40
0.5052201595850959
 50
139.6436242991769916
 51
174.6757930071850069
  0
ARC
  5
6A1D
  8
0
 10
9.9238413395551746
 20
8.1492417579399508
 30
0.0
 40
0.9848265662939324
 50
188.2263441834095943
 51
209.5593615864376034
  0
ARC
  5
6A1E
  8
0
 10
8.0788764238271256
 20
7.5665710856463297
 30
0.0
 40
0.0393715937169877
 50
162.1669117288323037
 51
227.2023190037006088
  0
ARC
  5
6A1F
  8
0
 10
8.7223682141740682
 20
8.2079667397440517
 30
0.0
 40
0.947895137885075
 50
225.0018610752970858
 51
261.4598823366255829
  0
ARC
  5
6A20
  8
0
 10
8.6645157662702701
 20
8.1695128573935332
 30
0.0
 40
0.9027466462812931
 50
264.7303071214498118
 51
281.8608311947915013
  0
ARC
  5
6A21
  8
0
 10
8.6645157662698935
 20
8.1695128573999671
 30
0.0
 40
0.9027466462876658
 50
299.1741886792128753
 51
299.1743179154552195
  0
ARC
  5
6A22
  8
0
 10
9.0843330931590316
 20
7.4150554710086141
 30
0.0
 40
0.0393703053609601
 50
251.9700352025496954
 51
252.4698971938937859
  0
ARC
  5
6A23
  8
0
 10
9.0843330931590316
 20
7.4150554710086141
 30
0.0
 40
0.0393703053609601
 50
297.2453716727138726
 51
6.8376113572703074
  0
LINE
  5
6A24
  8
0
 10
9.0671948248202892
 20
7.663402160468852
 30
0.0
 11
9.1234233799329516
 21
7.419742732911689
 31
0.0
  0
ARC
  5
6A25
  8
0
 10
8.8843741880892395
 20
9.8961379890094676
 30
0.0
 40
2.5255097382132701
 50
263.792800240752797
 51
274.9514951129821156
  0
ARC
  5
6A26
  8
0
 10
8.8258167405968848
 20
9.2763025889666508
 30
0.0
 40
1.9029970832759311
 50
246.0108363320686067
 51
263.5276935074397215
  0
ARC
  5
6A27
  8
0
 10
8.607491361665744
 20
8.3225444804829642
 30
0.0
 40
1.064510137163637
 50
283.1717405874071005
 51
297.7022170607311864
  0
LINE
  5
6A28
  8
0
 10
9.0671948248202892
 20
8.2885990108688503
 30
0.0
 11
26.2014378595979593
 21
8.2885990108689942
 31
0.0
  0
LINE
  5
6A29
  8
0
 10
26.2014378595979913
 20
7.6634021604689053
 30
0.0
 11
9.0671948248202892
 21
7.6634021604688618
 31
0.0
  0
LINE
  5
6A2A
  8
0
 10
27.8039676758446994
 20
10.9287685970690802
 30
0.0
 11
27.8039676758446888
 21
10.8905784766690807
 31
0.0
  0
ARC
  5
6A2B
  8
0
 10
27.5417299768919399
 20
10.8926811525840801
 30
0.0
 40
0.2622461286616791
 50
322.9785972241680838
 51
359.5406004767386889
  0
LINE
  5
6A2C
  8
0
 10
25.5008180745510913
 20
10.9287685970690305
 30
0.0
 11
25.5008180745510913
 21
10.8905433757651799
 31
0.0
  0
ARC
  5
6A2D
  8
0
 10
25.7617657275633505
 20
10.8922438613005497
 30
0.0
 40
0.2609531936261092
 50
180.3733670874362929
 51
217.1152916282862861
  0
LINE
  5
6A2E
  8
0
 10
27.7511100781467803
 20
10.7347792678690706
 30
0.0
 11
25.5536756723490015
 21
10.7347792678690208
 31
0.0
  0
LINE
  5
6A2F
  8
0
 10
27.8039676758446888
 20
10.9287685970686006
 30
0.0
 11
25.5008180745510806
 21
10.9287685970686006
 31
0.0
  0
ARC
  5
6A30
  8
0
 10
31.1859555424978616
 20
8.5279513468691981
 30
0.0
 40
4.0826771653999172
 50
147.2799669948597057
 51
166.6882252949490066
  0
ARC
  5
6A31
  8
0
 10
31.185955538361501
 20
8.5279513475911024
 30
0.0
 40
4.0826771612084691
 50
166.6882252914419098
 51
180.3343498015194086
  0
ARC
  5
6A32
  8
0
 10
22.1188285559344706
 20
8.5279508235212251
 30
0.0
 40
4.0826788382046102
 50
13.3117766978667795
 51
32.7200266521023977
  0
ARC
  5
6A33
  8
0
 10
22.1188261909974315
 20
8.5279506557034264
 30
0.0
 40
4.0826811782395342
 50
359.665660237478221
 51
13.31177134791497
  0
LINE
  5
6A34
  8
0
 10
27.1033478908979397
 20
8.5041270002690652
 30
0.0
 11
26.2014378595979416
 21
8.5041270002689835
 31
0.0
  0
LINE
  5
6A35
  8
0
 10
27.1033478908979504
 20
8.5041270002669354
 30
0.0
 11
27.1033478908979397
 21
8.3607006934690649
 31
0.0
  0
ARC
  5
6A36
  8
0
 10
29.6489547213799689
 20
8.3631022096455467
 30
0.0
 40
2.545607963272567
 50
180.0540526128687873
 51
197.9488331167837032
  0
LINE
  5
6A37
  8
0
 10
26.2014378595979416
 20
8.5041270002689835
 30
0.0
 11
26.2014378595979487
 21
8.2885990108690457
 31
0.0
  0
ARC
  5
6A38
  8
0
 10
25.8164441546381305
 20
7.9614488056230366
 30
0.0
 40
0.5052201595850959
 50
5.324206992816312
 51
40.3563757008241879
  0
ARC
  5
6A39
  8
0
 10
25.3447913448601803
 20
8.149241757940846
 30
0.0
 40
0.9848265662968968
 50
330.4406384136033807
 51
351.7736558165743759
  0
ARC
  5
6A3A
  8
0
 10
27.1897562605911212
 20
7.5665710856465473
 30
0.0
 40
0.0393715937169877
 50
312.7976809963004143
 51
17.8330882711689185
  0
ARC
  5
6A3B
  8
0
 10
26.5462644702441715
 20
8.2079667397442542
 30
0.0
 40
0.947895137885075
 50
278.5401176633754972
 51
314.9981389247041079
  0
ARC
  5
6A3C
  8
0
 10
26.6041169181479695
 20
8.1695128573937392
 30
0.0
 40
0.9027466462812931
 50
258.139168805210204
 51
275.2696928785518935
  0
ARC
  5
6A3D
  8
0
 10
26.6041169181483497
 20
8.1695128574001732
 30
0.0
 40
0.9027466462876658
 50
240.8256820845460027
 51
240.8258113207880058
  0
ARC
  5
6A3E
  8
0
 10
26.1842995912592293
 20
7.4150554710088086
 30
0.0
 40
0.0393703053609601
 50
287.5301028061073794
 51
288.0299647974517825
  0
ARC
  5
6A3F
  8
0
 10
26.1842995912592293
 20
7.4150554710088086
 30
0.0
 40
0.0393703053609601
 50
173.1623886427310026
 51
242.7546283272870085
  0
LINE
  5
6A40
  8
0
 10
26.2014378595981192
 20
7.6634021604690448
 30
0.0
 11
26.1452093044853093
 21
7.4197427329118826
 31
0.0
  0
ARC
  5
6A41
  8
0
 10
26.384258496328961
 20
9.8961379890096666
 30
0.0
 40
2.5255097382132701
 50
265.0485048870193054
 51
276.2071997592482262
  0
ARC
  5
6A42
  8
0
 10
26.4428159438213299
 20
9.2763025889668516
 30
0.0
 40
1.9029970832759311
 50
276.4723064925619838
 51
293.9891636679327007
  0
ARC
  5
6A43
  8
0
 10
26.6611413227524885
 20
8.3225444804831703
 30
0.0
 40
1.064510137163637
 50
242.2977829392704052
 51
256.8282594125943774
  0
LINE
  5
6A44
  8
0
 62
     4
 10
17.9031473532159602
 20
10.9287685970686006
 30
0.0
 11
24.6329820359843588
 21
20.0952817181593808
 31
0.0
  0
LINE
  5
6A45
  8
0
 62
     4
 10
17.9031473532159602
 20
-0.0000000300842942
 30
0.0
 11
22.3963351323106608
 21
4.993614497796286
 31
0.0
  0
ENDBLK
  5
6A49
  8
0
  0
ENDSEC
  0
SECTION
  2
ENTITIES
  0
LINE
  5
9FF7
  8
0
 10
4028.9484259565538196
 20
104.0389035591732068
 30
0.0
 11
4028.9484259565538196
 21
103.1924468662732011
 31
0.0
  0
LINE
  5
9FF8
  8
0
 10
4028.9484259565538196
 20
103.1924468662732011
 30
0.0
 11
4028.9681109959537935
 21
103.1727618268731987
 31
0.0
  0
LINE
  5
9FF9
  8
0
 10
4028.9681109959537935
 20
103.1727618268731987
 30
0.0
 11
4029.8933078463542188
 21
103.1727618268731987
 31
0.0
  0
LINE
  5
9FFA
  8
0
 10
4029.8933078463542188
 20
103.1727618268731987
 30
0.0
 11
4029.9129928856541483
 21
103.1924468662732011
 31
0.0
  0
LINE
  5
9FFB
  8
0
 10
4029.9129928856541483
 20
103.1924468662732011
 30
0.0
 11
4029.9128284185958364
 21
104.0389035591732068
 31
0.0
  0
LINE
  5
9FFC
  8
0
 10
4029.0291346180538312
 20
102.910809445573193
 30
0.0
 11
4029.0291346179537868
 21
102.7339268065731943
 31
0.0
  0
LINE
  5
9FFD
  8
0
 10
4028.9978352439547962
 20
102.6619431745731958
 30
0.0
 11
4028.9536071363941119
 21
102.6206997971104045
 31
0.0
  0
LINE
  5
9FFE
  8
0
 10
4028.9536071363909286
 20
103.0240364551732029
 30
0.0
 11
4028.9978352439547962
 21
102.9827930775732057
 31
0.0
  0
ARC
  5
9FFF
  8
0
 10
4028.9307094216569567
 20
102.9108094459286065
 30
0.0
 40
0.0984251962971558
 50
359.9999997931266194
 51
47.0000000000947935
  0
ARC
  5
A000
  8
0
 10
4028.9307094216569567
 20
102.733926806217795
 30
0.0
 40
0.098425196297157
 50
312.9999999999056968
 51
0.00000020687264
  0
ARC
  5
A001
  8
0
 10
4028.9894655553730445
 20
102.5846003875282975
 30
0.0
 40
0.0508821538857307
 50
134.8081141596763928
 51
179.932446024542088
  0
ARC
  5
A002
  8
0
 10
4028.9582684478868941
 20
102.5846603533101984
 30
0.0
 40
0.0196850110327797
 50
179.999923558251993
 51
265.5883319965647047
  0
ARC
  5
A003
  8
0
 10
4029.4307094211039839
 20
108.7081949252463033
 30
0.0
 40
6.16141735027308
 50
265.5882741745728026
 51
274.4117257693208103
  0
LINE
  5
A004
  8
0
 10
4028.9567542360618972
 20
102.5650336668371949
 30
0.0
 11
4029.904664599123862
 21
102.5650336663731963
 31
0.0
  0
ARC
  5
A005
  8
0
 10
4028.988359967398992
 20
103.0596750959497001
 30
0.0
 40
0.0497782279659222
 50
180.4731665521408104
 51
225.7209748727856038
  0
ARC
  5
A006
  8
0
 10
4028.9582684496608636
 20
103.0592640420533002
 30
0.0
 40
0.0196850128075054
 50
91.9999257442849654
 51
180.0000747453294991
  0
ARC
  5
A007
  8
0
 10
4029.4307094180971944
 20
97.204458532396032
 30
0.0
 40
5.8935004935861048
 50
85.3953619137341775
 51
94.6046380862658367
  0
LINE
  5
A008
  8
0
 10
4028.9575814781192094
 20
103.0789370641732035
 30
0.0
 11
4029.9038373570679141
 21
103.0789370641732035
 31
0.0
  0
LINE
  5
A009
  8
0
 10
4029.832284217131928
 20
102.910809445573193
 30
0.0
 11
4029.8322842172310629
 21
102.7339268065731943
 31
0.0
  0
LINE
  5
A00A
  8
0
 10
4029.8635835912309631
 20
102.6619431745731958
 30
0.0
 11
4029.9078116987921021
 21
102.6206997971104045
 31
0.0
  0
LINE
  5
A00B
  8
0
 10
4029.9078116987948306
 20
103.0240364551732029
 30
0.0
 11
4029.8635835912309631
 21
102.9827930775732057
 31
0.0
  0
ARC
  5
A00C
  8
0
 10
4029.9307094135288025
 20
102.9108094459286065
 30
0.0
 40
0.0984251962971558
 50
132.9999999999058105
 51
180.0000002068734943
  0
ARC
  5
A00D
  8
0
 10
4029.9307094135288025
 20
102.733926806217795
 30
0.0
 40
0.098425196297157
 50
179.9999997931273015
 51
227.0000000000941895
  0
ARC
  5
A00E
  8
0
 10
4029.8667767232850565
 20
102.5824424328670972
 30
0.0
 40
0.0561025412444605
 50
2.265710399922563
 51
42.9937487095339392
  0
ARC
  5
A00F
  8
0
 10
4029.903150380921943
 20
102.5846603663576957
 30
0.0
 40
0.0196850245321115
 50
274.4116835881455927
 51
0.0000384618124662
  0
ARC
  5
A010
  8
0
 10
4029.8681735621439657
 20
103.0617585712445958
 30
0.0
 40
0.0547187346169219
 50
316.4187835440887966
 51
357.3870554279383782
  0
ARC
  5
A011
  8
0
 10
4029.901422016917877
 20
103.0575949681534951
 30
0.0
 40
0.0214783363077562
 50
4.4568594410241831
 51
83.5431615366125442
  0
LINE
  5
A012
  8
0
 10
4029.2029382793539298
 20
102.9108094455667981
 30
0.0
 11
4029.2029382793539298
 21
102.7339268065731943
 31
0.0
  0
LINE
  5
A013
  8
0
 10
4028.9536071363909286
 20
103.0240364551732029
 30
0.0
 11
4028.9864732804539926
 21
103.0051742218732045
 31
0.0
  0
ARC
  5
A014
  8
0
 10
4029.1252464612921358
 20
103.2487994390229034
 30
0.0
 40
0.2803769643729776
 50
240.333405010966203
 51
251.5762301046227094
  0
ARC
  5
A015
  8
0
 10
4027.9301410496391327
 20
100.198382041998201
 30
0.0
 40
2.9962101407608599
 50
64.8618439928801678
 51
68.3276720724082338
  0
LINE
  5
A016
  8
0
 10
4028.9536071361239919
 20
102.6206997972469992
 30
0.0
 11
4028.9864732802470826
 21
102.6395620305115983
 31
0.0
  0
ARC
  5
A017
  8
0
 10
4029.1252464608101036
 20
102.3959368132049974
 30
0.0
 40
0.2803769643729776
 50
108.4237698305928035
 51
119.6665949242612044
  0
ARC
  5
A018
  8
0
 10
4027.9301410526068139
 20
105.4463542115809958
 30
0.0
 40
2.9962101407608599
 50
291.672327862799591
 51
295.1381559423343219
  0
LINE
  5
A019
  8
0
 10
4029.6584805629208859
 20
102.9108094455228013
 30
0.0
 11
4029.6584805628867798
 21
102.733926806529098
 31
0.0
  0
LINE
  5
A01A
  8
0
 10
4029.9078116987948306
 20
103.0240364551732029
 30
0.0
 11
4029.874945561839013
 21
103.0051742217872004
 31
0.0
  0
ARC
  5
A01B
  8
0
 10
4029.7361723810481635
 20
103.2487994389637009
 30
0.0
 40
0.2803769643729776
 50
288.4237698842828763
 51
299.6665949779404059
  0
ARC
  5
A01C
  8
0
 10
4030.9312777921099951
 20
100.1983820417078022
 30
0.0
 40
2.9962101407608599
 50
111.6723279165150018
 51
115.1381559960377956
  0
LINE
  5
A01D
  8
0
 10
4029.9078117060939803
 20
102.6206997971546002
 30
0.0
 11
4029.8749455619749824
 21
102.6395620304255942
 31
0.0
  0
ARC
  5
A01E
  8
0
 10
4029.7361723813651224
 20
102.3959368131458945
 30
0.0
 40
0.2803769643729776
 50
60.3334050646680993
 51
71.576230158337637
  0
ARC
  5
A01F
  8
0
 10
4030.9312777901591289
 20
105.4463542112904975
 30
0.0
 40
2.9962101407608599
 50
244.8618440465837125
 51
248.3276721260997135
  0
LINE
  5
A020
  8
0
 10
4029.0370086337538851
 20
103.0847942167176967
 30
0.0
 11
4029.0370086337538851
 21
103.1727618268731987
 31
0.0
  0
LINE
  5
A021
  8
0
 10
4029.8244102085541272
 20
103.0847942163083957
 30
0.0
 11
4029.8244102085541272
 21
103.1727618268731987
 31
0.0
  0
LINE
  5
A022
  8
0
 10
4029.9129928856541483
 20
103.1924468662732011
 30
0.0
 11
4028.9484259565538196
 21
103.1924468662732011
 31
0.0
  0
ARC
  5
A023
  8
0
 10
4028.4779535156540078
 20
102.9286673387731952
 30
0.0
 40
0.0118110236
 50
180.0
 51
270.0
  0
LINE
  5
A024
  8
0
 10
4028.4858275302772199
 20
102.7806409860731947
 30
0.0
 11
4028.4858275313540616
 21
102.9168563151732059
 31
0.0
  0
LINE
  5
A025
  8
0
 10
4028.4661424920550417
 20
102.9286673387731952
 30
0.0
 11
4028.4661424908767913
 21
104.0389035592731943
 31
0.0
  0
ARC
  5
A026
  8
0
 10
4030.3834653235999212
 20
102.9286673387731952
 30
0.0
 40
0.0118110236
 50
270.0
 51
0.0
  0
LINE
  5
A027
  8
0
 10
4030.3952763471997969
 20
102.9286673387731952
 30
0.0
 11
4030.3952763491770384
 21
104.0389035592731943
 31
0.0
  0
LINE
  5
A028
  8
0
 10
4028.4779535164539084
 20
102.9168563151732059
 30
0.0
 11
4029.028948694040082
 21
102.9168563151732059
 31
0.0
  0
LINE
  5
A029
  8
0
 10
4029.8324701411461319
 20
102.9168563151732059
 30
0.0
 11
4030.3834653235999212
 21
102.9168563151732059
 31
0.0
  0
ARC
  5
A02A
  8
0
 10
4029.4307094193159173
 20
102.7806409856708001
 30
0.0
 40
0.9448818890388107
 50
179.9999999756001898
 51
209.0005280287209075
  0
LINE
  5
A02B
  8
0
 10
4028.4447378931540698
 20
101.199408422373196
 30
0.0
 11
4028.4444180767218313
 21
102.4817921411847976
 31
0.0
  0
ARC
  5
A02C
  8
0
 10
4028.5132584049051729
 20
102.4778879867707957
 30
0.0
 40
0.0689509478248504
 50
166.8023506789724877
 51
176.7540508298131101
  0
ARC
  5
A02D
  8
0
 10
4028.4797730781929204
 20
102.4846420883408058
 30
0.0
 40
0.0348244134440503
 50
152.5586534034819977
 51
165.0427003188142123
  0
ARC
  5
A02E
  8
0
 10
4028.453738804465047
 20
102.4978314891648949
 30
0.0
 40
0.0056472196749158
 50
86.9081300355033761
 51
149.5930653569967888
  0
ARC
  5
A02F
  8
0
 10
4028.6916517607041897
 20
102.4995298283270984
 30
0.0
 40
0.2478691591142173
 50
184.1036328039797922
 51
191.9656158742729133
  0
ARC
  5
A030
  8
0
 10
4028.6973070546059716
 20
102.5023490201771068
 30
0.0
 40
0.2539910122332424
 50
192.3232696732866032
 51
209.1509484857741938
  0
ARC
  5
A031
  8
0
 10
4028.8226503233831863
 20
102.5797187471993936
 30
0.0
 40
0.401198846850557
 50
210.0812346721897086
 51
230.0498169529068946
  0
ARC
  5
A032
  8
0
 10
4028.9837145138872074
 20
102.7631617240608932
 30
0.0
 40
0.6452745361009536
 50
229.5454996336590909
 51
239.4112851791605863
  0
ARC
  5
A033
  8
0
 10
4029.2802098343909165
 20
103.3454068008606015
 30
0.0
 40
1.29802318276545
 50
241.2236747089608002
 51
260.8057038595305812
  0
ARC
  5
A034
  8
0
 10
4029.4300312617028794
 20
104.0526132250952003
 30
0.0
 40
2.0203838500499072
 50
259.8160143404743962
 51
270.0192413567726248
  0
ARC
  5
A035
  8
0
 10
4028.4645300174488511
 20
101.1995120636943
 30
0.0
 40
0.0197923956516366
 50
180.3000262083899088
 51
267.9387242637084796
  0
ARC
  5
A036
  8
0
 10
4029.4307106399501208
 20
132.6611073715340865
 30
0.0
 40
31.4962195591608882
 50
268.2408185309570854
 51
269.9999984111857998
  0
ARC
  5
A037
  8
0
 10
4028.4878589729100895
 20
102.4904666056218048
 30
0.0
 40
0.0130151596617207
 50
87.6147203301395052
 51
123.7964489381862023
  0
ARC
  5
A038
  8
0
 10
4028.4865010446569613
 20
102.4936722700667957
 30
0.0
 40
0.0096181583067957
 50
127.6993563280783945
 51
158.9717534533565981
  0
ARC
  5
A039
  8
0
 10
4028.4934388583901637
 20
102.4909288791687061
 30
0.0
 40
0.0170784932400766
 50
158.732863950594691
 51
183.3207012079884919
  0
ARC
  5
A03A
  8
0
 10
4028.5486056415238636
 20
102.4946382295863998
 30
0.0
 40
0.072369292074878
 50
183.7225795591683948
 51
202.286518035485102
  0
ARC
  5
A03B
  8
0
 10
4028.7138189425459132
 20
102.5558676508751006
 30
0.0
 40
0.248533969552349
 50
200.9032422465024865
 51
224.0275187497126126
  0
ARC
  5
A03C
  8
0
 10
4028.9501742293641655
 20
102.7872409543826961
 30
0.0
 40
0.579283952653201
 50
224.2343349774207866
 51
248.353017746107497
  0
ARC
  5
A03D
  8
0
 10
4029.3763331109648789
 20
103.806133491813199
 30
0.0
 40
1.683644552104995
 50
247.6639566462615107
 51
271.8507914607986891
  0
LINE
  5
A03E
  8
0
 10
4028.4540441440540235
 20
102.5034704883731962
 30
0.0
 11
4028.5273942474841533
 21
102.5034704883731962
 31
0.0
  0
LINE
  5
A03F
  8
0
 10
4028.5512689202550973
 20
102.3868707892732033
 30
0.0
 11
4028.5717875272539459
 21
102.3868707892732033
 31
0.0
  0
ARC
  5
A040
  8
0
 10
4028.5500442169432063
 20
102.3553945965914949
 30
0.0
 40
0.031500009586302
 50
87.7718095248842047
 51
118.2771254149318025
  0
ARC
  5
A041
  8
0
 10
4025.9717004629837902
 20
104.0782736380487989
 30
0.0
 40
0.0393700787756098
 50
185.0000001084044072
 51
269.9999999572174829
  0
LINE
  5
A042
  8
0
 10
4025.9324801992429457
 20
104.0748423095893997
 30
0.0
 11
4025.8874023345538262
 21
104.5900846615732007
 31
0.0
  0
LINE
  5
A043
  8
0
 10
4030.3755913119321121
 20
102.7806409860731947
 30
0.0
 11
4030.3755913108539062
 21
102.9168563151732059
 31
0.0
  0
ARC
  5
A044
  8
0
 10
4029.4307094228920505
 20
102.7806409856708001
 30
0.0
 40
0.9448818890388107
 50
330.9994719712789788
 51
0.0000000243997906
  0
LINE
  5
A045
  8
0
 10
4030.4168443087860396
 20
101.199408422373196
 30
0.0
 11
4030.4168443087860396
 21
102.4817921411847976
 31
0.0
  0
ARC
  5
A046
  8
0
 10
4030.3638447668167828
 20
102.4808557202100019
 30
0.0
 40
0.0530078138870007
 50
1.012223610198997
 51
13.9451657518073002
  0
ARC
  5
A047
  8
0
 10
4030.3816457640150475
 20
102.4846420883408058
 30
0.0
 40
0.0348244134440503
 50
14.9572996811858197
 51
27.4413465965180201
  0
ARC
  5
A048
  8
0
 10
4030.4076800377429208
 20
102.4978314891648949
 30
0.0
 40
0.0056472196749158
 50
30.4069346430031615
 51
93.0918699644966239
  0
ARC
  5
A049
  8
0
 10
4030.1986000772149055
 20
102.494444799693099
 30
0.0
 40
0.2186106913701715
 50
347.7714412892260043
 51
356.6820045401435095
  0
ARC
  5
A04A
  8
0
 10
4030.1641117876019962
 20
102.5023490201771068
 30
0.0
 40
0.2539910122332424
 50
330.8490515142257777
 51
347.6767303267134253
  0
ARC
  5
A04B
  8
0
 10
4030.0387685188247815
 20
102.5797187471993936
 30
0.0
 40
0.401198846850557
 50
309.9501830470931054
 51
329.9187653278103198
  0
ARC
  5
A04C
  8
0
 10
4029.8777043283212151
 20
102.7631617240608932
 30
0.0
 40
0.6452745361009536
 50
300.5887148208394137
 51
310.4545003663408806
  0
ARC
  5
A04D
  8
0
 10
4029.5812090078179608
 20
103.3454068008606015
 30
0.0
 40
1.29802318276545
 50
279.1942961404694188
 51
298.7763252910390861
  0
ARC
  5
A04E
  8
0
 10
4029.4313875842908601
 20
104.0526131968453996
 30
0.0
 40
2.0203838215757819
 50
269.9807775955807756
 51
280.1839856955011783
  0
ARC
  5
A04F
  8
0
 10
4030.3967590118818407
 20
101.199804026486305
 30
0.0
 40
0.0200891924758112
 50
272.4013228227260015
 51
358.8716365134928878
  0
ARC
  5
A050
  8
0
 10
4029.430708202254209
 20
132.661107371667697
 30
0.0
 40
31.4962195592944987
 50
270.0000028456602763
 51
271.7591814690428009
  0
ARC
  5
A051
  8
0
 10
4030.3735598692987878
 20
102.4904666056218048
 30
0.0
 40
0.0130151596617207
 50
56.2035510618137408
 51
92.385279669860509
  0
ARC
  5
A052
  8
0
 10
4030.3749177975510065
 20
102.4936722700667957
 30
0.0
 40
0.0096181583067957
 50
21.0282465466433912
 51
52.3006436719216197
  0
ARC
  5
A053
  8
0
 10
4030.3679799838178042
 20
102.4909288791687061
 30
0.0
 40
0.0170784932400766
 50
356.6792987920114797
 51
21.267136049405309
  0
ARC
  5
A054
  8
0
 10
4030.3128132006850137
 20
102.4946382295863998
 30
0.0
 40
0.072369292074878
 50
337.7134819645149264
 51
356.2774204408315768
  0
ARC
  5
A055
  8
0
 10
4030.1475998996620547
 20
102.5558676508751006
 30
0.0
 40
0.248533969552349
 50
315.9724812502873874
 51
339.0967577534975135
  0
ARC
  5
A056
  8
0
 10
4029.9112446128451666
 20
102.7872409543826961
 30
0.0
 40
0.579283952653201
 50
291.6469822538924745
 51
315.7656650225792987
  0
ARC
  5
A057
  8
0
 10
4029.485085731243089
 20
103.806133491813199
 30
0.0
 40
1.683644552104995
 50
268.1492085392011973
 51
292.3360433537383756
  0
LINE
  5
A058
  8
0
 10
4030.4073746981539443
 20
102.5034704883731962
 30
0.0
 11
4030.3340245947251788
 21
102.5034704883731962
 31
0.0
  0
LINE
  5
A059
  8
0
 10
4030.31014992195378
 20
102.3868707892732033
 30
0.0
 11
4030.2896313149531125
 21
102.3868707892732033
 31
0.0
  0
ARC
  5
A05A
  8
0
 10
4030.3113746252661258
 20
102.3553945965914949
 30
0.0
 40
0.031500009586302
 50
61.7228745850681833
 51
92.2281904751158095
  0
ARC
  5
A05B
  8
0
 10
4032.8897183792250871
 20
104.0782736380487989
 30
0.0
 40
0.0393700787756098
 50
270.0000000427825171
 51
354.9999998915956212
  0
LINE
  5
A05C
  8
0
 10
4032.9289386429641127
 20
104.0748423095893997
 30
0.0
 11
4032.974016507754186
 21
104.5900846615732007
 31
0.0
  0
LINE
  5
A05D
  8
0
 10
4025.8874023345538262
 20
104.5900846615732007
 30
0.0
 11
4032.974016507754186
 21
104.5900846615732007
 31
0.0
  0
LINE
  5
A05E
  8
0
 10
4025.9717004629837902
 20
104.0389035591732068
 30
0.0
 11
4032.8897183792250871
 21
104.0389035591732068
 31
0.0
  0
ATTDEF
  5
A060
  8
DEFPOINTS
 10
4029.4323007102848351
 20
104.5938015366574945
 30
0.0
 40
0.001
  1
K-99721T-4
  3

  2
MODELNUMBER
 70
     0
1001
ACDBATTR
1070
     0
1070
     1
  0
ATTDEF
  5
A061
  8
DEFPOINTS
 10
4029.4323007102848351
 20
104.5921348699908009
 30
0.0
 40
0.001
  1
MODULO
  3

  2
TRADENAME
 70
     0
1001
ACDBATTR
1070
     0
1070
     1
  0
ATTDEF
  5
A062
  8
DEFPOINTS
 10
4029.4323007102848351
 20
104.5904682033240931
 30
0.0
 40
0.001
  1
VALVE TRIM
  3

  2
PRODUCT
 70
     0
1001
ACDBATTR
1070
     0
1070
     1
  0
ENDSEC
  0
EOF
