  0
SECTION
  2
HEADER
  9
$ACADVER
  1
AC1009
  9
$INSBASE
 10
3978.7635031219128905
 20
104.6916552457296063
 30
0.0
  9
$EXTMIN
 10
3943.1721025823831042
 20
88.936684894174391
 30
-0.0000000349181948
  9
$EXTMAX
 10
4014.2279695967081352
 20
120.4457761040061001
 30
0.0000000814935746
  9
$LIMMIN
 10
0.0
 20
0.0
  9
$LIMMAX
 10
11.6929133858000007
 20
8.2677165353999982
  9
$ORTHOMODE
 70
     0
  9
$REGENMODE
 70
     1
  9
$FILLMODE
 70
     1
  9
$QTEXTMODE
 70
     0
  9
$MIRRTEXT
 70
     0
  9
$DRAGMODE
 70
     2
  9
$LTSCALE
 40
0.6431102362
  9
$OSMODE
 70
  4095
  9
$ATTMODE
 70
     1
  9
$TEXTSIZE
 40
0.2
  9
$TRACEWID
 40
0.05
  9
$TEXTSTYLE
  7
STANDARD
  9
$CLAYER
  8
0
  9
$CELTYPE
  6
BYLAYER
  9
$CECOLOR
 62
   256
  9
$DIMSCALE
 40
1.0
  9
$DIMASZ
 40
0.1875
  9
$DIMEXO
 40
0.0625
  9
$DIMDLI
 40
0.4443307087
  9
$DIMRND
 40
0.0
  9
$DIMDLE
 40
0.0
  9
$DIMEXE
 40
0.125
  9
$DIMTP
 40
0.01
  9
$DIMTM
 40
0.01
  9
$DIMTXT
 40
2.0
  9
$DIMCEN
 40
0.1052362205
  9
$DIMTSZ
 40
0.0
  9
$DIMTOL
 70
     1
  9
$DIMLIM
 70
     0
  9
$DIMTIH
 70
     1
  9
$DIMTOH
 70
     1
  9
$DIMSE1
 70
     0
  9
$DIMSE2
 70
     0
  9
$DIMTAD
 70
     0
  9
$DIMZIN
 70
     0
  9
$DIMBLK
  1

  9
$DIMASO
 70
     1
  9
$DIMSHO
 70
     1
  9
$DIMPOST
  1
\X
  9
$DIMAPOST
  1

  9
$DIMALT
 70
     1
  9
$DIMALTD
 70
     2
  9
$DIMALTF
 40
25.3999999999999986
  9
$DIMLFAC
 40
1.0
  9
$DIMTOFL
 70
     0
  9
$DIMTVP
 40
0.0
  9
$DIMTIX
 70
     0
  9
$DIMSOXD
 70
     0
  9
$DIMSAH
 70
     0
  9
$DIMBLK1
  1

  9
$DIMBLK2
  1

  9
$DIMSTYLE
  2
STANDARD
  9
$DIMCLRD
 70
     0
  9
$DIMCLRE
 70
     0
  9
$DIMCLRT
 70
     0
  9
$DIMTFAC
 40
1.0
  9
$DIMGAP
 40
0.09
  9
$LUNITS
 70
     2
  9
$LUPREC
 70
     4
  9
$SKETCHINC
 40
0.1
  9
$FILLETRAD
 40
0.0
  9
$AUNITS
 70
     0
  9
$AUPREC
 70
     0
  9
$MENU
  1
.
  9
$ELEVATION
 40
0.0
  9
$PELEVATION
 40
0.0
  9
$THICKNESS
 40
0.0
  9
$LIMCHECK
 70
     0
  9
$BLIPMODE
 70
     0
  9
$CHAMFERA
 40
0.0
  9
$CHAMFERB
 40
0.0
  9
$SKPOLY
 70
     0
  9
$TDCREATE
 40
2458060.468368056230247
  9
$TDUPDATE
 40
2459818.5162384258583188
  9
$TDINDWG
 40
0.3886876157
  9
$TDUSRTIMER
 40
0.3886876157
  9
$USRTIMER
 70
     1
  9
$ANGBASE
 50
0.0
  9
$ANGDIR
 70
     0
  9
$PDMODE
 70
     0
  9
$PDSIZE
 40
0.3125
  9
$PLINEWID
 40
0.0
  9
$COORDS
 70
     1
  9
$SPLFRAME
 70
     0
  9
$SPLINETYPE
 70
     6
  9
$SPLINESEGS
 70
     8
  9
$ATTDIA
 70
     1
  9
$ATTREQ
 70
     1
  9
$HANDLING
 70
     1
  9
$HANDSEED
  5
A98A
  9
$SURFTAB1
 70
     6
  9
$SURFTAB2
 70
     6
  9
$SURFTYPE
 70
     6
  9
$SURFU
 70
     6
  9
$SURFV
 70
     6
  9
$UCSNAME
  2

  9
$UCSORG
 10
0.0
 20
0.0
 30
0.0
  9
$UCSXDIR
 10
1.0
 20
0.0
 30
0.0
  9
$UCSYDIR
 10
0.0
 20
1.0
 30
0.0
  9
$PUCSNAME
  2

  9
$PUCSORG
 10
0.0
 20
0.0
 30
0.0
  9
$PUCSXDIR
 10
1.0
 20
0.0
 30
0.0
  9
$PUCSYDIR
 10
0.0
 20
1.0
 30
0.0
  9
$USERI1
 70
     0
  9
$USERI2
 70
     0
  9
$USERI3
 70
     0
  9
$USERI4
 70
     0
  9
$USERI5
 70
     0
  9
$USERR1
 40
0.0
  9
$USERR2
 40
0.0
  9
$USERR3
 40
0.0
  9
$USERR4
 40
0.0
  9
$USERR5
 40
0.0
  9
$WORLDVIEW
 70
     1
  9
$SHADEDGE
 70
     3
  9
$SHADEDIF
 70
    70
  9
$TILEMODE
 70
     1
  9
$MAXACTVP
 70
    64
  9
$PLIMCHECK
 70
     0
  9
$PEXTMIN
 10
1.0000000000000000E+20
 20
1.0000000000000000E+20
 30
1.0000000000000000E+20
  9
$PEXTMAX
 10
-1.0000000000000000E+20
 20
-1.0000000000000000E+20
 30
-1.0000000000000000E+20
  9
$PLIMMIN
 10
0.0
 20
0.0
  9
$PLIMMAX
 10
12.0
 20
9.0
  9
$UNITMODE
 70
     0
  9
$VISRETAIN
 70
     1
  9
$PLINEGEN
 70
     0
  9
$PSLTSCALE
 70
     1
  0
ENDSEC
  0
SECTION
  2
TABLES
  0
TABLE
  2
VPORT
 70
     1
  0
VPORT
  2
*ACTIVE
 70
     0
 10
0.0
 20
0.0
 11
1.0
 21
1.0
 12
109.3975458551704065
 22
-25.4801148568344296
 13
0.0
 23
0.0
 14
1.0
 24
1.0
 15
0.0
 25
0.0
 16
0.0
 26
0.0
 36
50.1863853749498219
 17
3869.302490234375
 27
130.1713453559245863
 37
0.0
 40
45.0427686444659514
 41
1.5825
 42
50.0
 43
0.0
 44
0.0
 50
0.0
 51
0.0
 71
     0
 72
   100
 73
     1
 74
     1
 75
     0
 76
     0
 77
     0
 78
     0
  0
ENDTAB
  0
TABLE
  2
LTYPE
 70
     2
  0
LTYPE
  2
CONTINUOUS
 70
     0
  3
Solid line
 72
    65
 73
     0
 40
0.0
  0
LTYPE
  2
PHANTOM2
 70
     0
  3
___ _ _ ___ _ _ ___ _ _ ___ _ _
 72
    65
 73
     6
 40
1.25
 49
0.625
 49
-0.125
 49
0.125
 49
-0.125
 49
0.125
 49
-0.125
  0
ENDTAB
  0
TABLE
  2
LAYER
 70
     2
  0
LAYER
  2
0
 70
     0
 62
   255
  6
CONTINUOUS
  0
LAYER
  2
DEFPOINTS
 70
     0
 62
     7
  6
CONTINUOUS
  0
ENDTAB
  0
TABLE
  2
STYLE
 70
     1
  0
STYLE
  2
STANDARD
 70
     0
 40
0.0
 41
0.8
 50
0.0
 71
     0
 42
0.2
  3
txt
  4

  0
ENDTAB
  0
TABLE
  2
VIEW
 70
     0
  0
ENDTAB
  0
TABLE
  2
UCS
 70
     0
  0
ENDTAB
  0
TABLE
  2
APPID
 70
     9
  0
APPID
  2
ACAD
 70
     0
  0
APPID
  2
ACAD_MLEADERVER
 70
     0
  0
APPID
  2
ACAD_EXEMPT_FROM_CAD_STANDARDS
 70
     0
  0
APPID
  2
ACAD_NAV_VCDISPLAY
 70
     0
  0
APPID
  2
ACAECLAYERSTANDARD
 70
     0
  0
APPID
  2
ACCMTRANSPARENCY
 70
     0
  0
APPID
  2
ACAD_DSTYLE_DIMJAG
 70
     0
  0
APPID
  2
ACAD_DSTYLE_DIMTALN
 70
     0
  0
APPID
  2
ACDBATTR
 70
     0
  0
ENDTAB
  0
TABLE
  2
DIMSTYLE
 70
     1
  0
DIMSTYLE
  2
STANDARD
 70
     0
  3

  4

  5

  6

  7

 40
1.0
 41
0.1875
 42
0.0625
 43
0.38
 44
0.125
 45
0.0
 46
0.0
 47
0.01
 48
0.01
140
0.15625
141
0.09
142
0.0
143
25.3999999999999986
144
1.0
145
0.0
146
1.0
147
0.09
 71
     1
 72
     0
 73
     1
 74
     1
 75
     0
 76
     0
 77
     0
 78
     4
170
     0
171
     2
172
     0
173
     0
174
     0
175
     0
176
     0
177
     0
178
     0
  0
ENDTAB
  0
ENDSEC
  0
SECTION
  2
BLOCKS
  0
BLOCK
  8
0
  2
$MODEL_SPACE
 70
     0
 10
0.0
 20
0.0
 30
0.0
  3
$MODEL_SPACE
  1

  0
ENDBLK
  5
21
  8
0
  0
BLOCK
 67
     1
  8
0
  2
$PAPER_SPACE
 70
     0
 10
0.0
 20
0.0
 30
0.0
  3
$PAPER_SPACE
  1

  0
ENDBLK
  5
1D
 67
     1
  8
0
  0
ENDSEC
  0
SECTION
  2
ENTITIES
  0
ATTDEF
  5
A4C0
  8
DEFPOINTS
 10
3978.7592211473479438
 20
104.6887487459992059
 30
0.0
 40
0.001
  1
K-99718T
  3

  2
MODELNUMBER
 70
     0
1001
ACDBATTR
1070
     0
1070
     1
  0
ATTDEF
  5
A4C1
  8
DEFPOINTS
 10
3978.7592211473479438
 20
104.6870820793324981
 30
0.0
 40
0.001
  1

  3

  2
TRADENAME
 70
     0
1001
ACDBATTR
1070
     0
1070
     1
  0
ATTDEF
  5
A4C2
  8
DEFPOINTS
 10
3978.7592211473479438
 20
104.6854154126658045
 30
0.0
 40
0.001
  1
BATH
  3

  2
PRODUCT
 70
     0
1001
ACDBATTR
1070
     0
1070
     1
  0
LINE
  5
A7E4
  8
0
 10
3962.2276582742451865
 20
114.5438147259352064
 30
0.0
 11
3995.2993479695751375
 21
114.5438147259352064
 31
0.0
  0
LINE
  5
A7E5
  8
0
 10
3962.1014142124249702
 20
94.8394637999506926
 30
0.0
 11
3995.4255920314008108
 21
94.8394637999506926
 31
0.0
  0
LINE
  5
A7E6
  8
0
 10
3957.7461143613950298
 20
116.8096198789797029
 30
0.0
 11
3972.5113197807258985
 21
116.8096198789797029
 31
0.0
  0
LINE
  5
A7E7
  8
0
 10
3957.3211927800721242
 20
92.5704738094191839
 30
0.0
 11
4000.2058134637532021
 21
92.5704738094191839
 31
0.0
  0
LINE
  5
A7E8
  8
0
 10
3958.7680396077439582
 20
120.439686741829604
 30
0.0
 11
3998.7589666360818228
 21
120.439686741829604
 31
0.0
  0
LINE
  5
A7E9
  8
0
 10
3958.7994802678767883
 20
88.9436237497296247
 30
0.0
 11
3998.7275259759480832
 21
88.9436237497296247
 31
0.0
  0
CIRCLE
  5
A7EA
  8
0
 10
3978.7635031219128905
 20
104.6916552457296063
 30
0.0
 40
1.0275590551
  0
CIRCLE
  5
A7EB
  8
0
 10
3978.7635031219128905
 20
104.6916552457296063
 30
0.0
 40
2.316750601799999
  0
ARC
  5
A7EC
  8
0
 10
3962.2403767369810339
 20
104.691153359499296
 30
0.0
 40
9.8526695753461286
 50
90.0739611161756102
 51
269.1918707816765846
  0
ARC
  5
A7ED
  8
0
 10
3958.3529225878478428
 20
90.7095678852111291
 30
0.0
 40
26.1071049774025212
 50
91.3318474645955547
 51
98.3540617304380334
  0
ARC
  5
A7EE
  8
0
 10
3956.2749581108569146
 20
104.8600131570407967
 30
0.0
 40
11.8049010298046593
 50
98.3540617304380334
 51
126.0412355744953032
  0
ARC
  5
A7EF
  8
0
 10
3956.3647165806178236
 20
104.7366580137518071
 30
0.0
 40
11.9574561813717199
 50
126.0412355744953032
 51
167.5031208652488885
  0
ARC
  5
A7F0
  8
0
 10
3956.5654893626688136
 20
104.6921592328830997
 30
0.0
 40
12.16310114608312
 50
167.5031208652488885
 51
193.2540910560722125
  0
ARC
  5
A7F1
  8
0
 10
3956.4135922742520961
 20
104.6563807689739036
 30
0.0
 40
12.0070472324850996
 50
193.2540910560722125
 51
218.2234266384201078
  0
ARC
  5
A7F2
  8
0
 10
3956.1388141326901859
 20
104.4399697138671002
 30
0.0
 40
11.6572804932826699
 50
218.2234266384201078
 51
242.7379712503694122
  0
ARC
  5
A7F3
  8
0
 10
3956.4256504871891593
 20
104.9966097906102931
 30
0.0
 40
12.2834779615772192
 50
242.7379712503694122
 51
253.773228993952614
  0
ARC
  5
A7F4
  8
0
 10
3957.4289055153180925
 20
108.4438234743931986
 30
0.0
 40
15.8737151171320203
 50
253.773228993952614
 51
269.611210580187219
  0
ARC
  5
A7F5
  8
0
 10
3959.0964020721139605
 20
104.7398475157070976
 30
0.0
 40
15.7990141408463796
 50
234.415637428205514
 51
268.9231373739370952
  0
ARC
  5
A7F6
  8
0
 10
3959.0444236891139553
 20
104.6672029990540977
 30
0.0
 40
15.7096890150474806
 50
200.8571077574003141
 51
234.415637428205514
  0
ARC
  5
A7F7
  8
0
 10
3959.1063396832309991
 20
104.6907933234230939
 30
0.0
 40
15.7759467974674301
 50
155.8739063678627019
 51
200.8571077574003141
  0
ARC
  5
A7F8
  8
0
 10
3959.0388985434010465
 20
104.7209980704738967
 30
0.0
 40
15.7020506941465605
 50
127.6473085439635042
 51
155.8739063678627019
  0
ARC
  5
A7F9
  8
0
 10
3959.1005866854620763
 20
104.6410310597197935
 30
0.0
 40
15.8030464845538603
 50
103.9161399805559967
 51
127.6473085439635042
  0
ARC
  5
A7FA
  8
0
 10
3959.0473429169492192
 20
104.8559195443118028
 30
0.0
 40
15.5816600357912307
 50
95.9666376305615358
 51
103.9161399805559967
  0
ARC
  5
A7FB
  8
0
 10
3959.1874956994352033
 20
103.5149442065297052
 30
0.0
 40
16.929939553910021
 50
91.4197051991941549
 51
95.9666376305615358
  0
LINE
  5
A7FC
  8
0
 10
3984.805745566332007
 20
116.7641099982295998
 30
0.0
 11
3999.7808918824312059
 21
116.8096198789797029
 31
0.0
  0
LINE
  5
A7FD
  8
0
 10
3973.3993361845318759
 20
117.0192903686295978
 30
0.0
 11
3984.1276700592939051
 21
117.0192903686295978
 31
0.0
  0
ARC
  5
A7FE
  8
0
 10
3973.4488149405701733
 20
116.6151022905163046
 30
0.0
 40
0.4072052919449801
 50
96.9791493910664855
 51
131.1606648790838108
  0
ARC
  5
A7FF
  8
0
 10
3973.4322101706848116
 20
116.6340960611681936
 30
0.0
 40
0.381976702873682
 50
131.1606648790838108
 51
169.2317416454444015
  0
ARC
  5
A800
  8
0
 10
3974.068759168212182
 20
123.4872259717792957
 30
0.0
 40
6.8568243798631441
 50
256.8714192059807147
 51
261.5143942992718848
  0
ARC
  5
A801
  8
0
 10
3984.0781913032551529
 20
116.6151022905163046
 30
0.0
 40
0.4072052919449801
 50
48.8393351209162176
 51
83.0208506089335145
  0
ARC
  5
A802
  8
0
 10
3984.0947960731409694
 20
116.6340960611681936
 30
0.0
 40
0.381976702873682
 50
10.7682583545555506
 51
48.8393351209162176
  0
ARC
  5
A803
  8
0
 10
3983.4582470756140538
 20
123.4872259717792957
 30
0.0
 40
6.8568243798631441
 50
278.4856057007281152
 51
281.3334919436717882
  0
LINE
  5
A804
  8
0
 10
3973.3441140128388724
 20
115.8459071736295982
 30
0.0
 11
3984.2003704689100232
 21
115.8459071736295982
 31
0.0
  0
ARC
  5
A805
  8
0
 10
3983.6487534108218824
 20
116.4245480162118014
 30
0.0
 40
0.8680068311101518
 50
1.266224924586232
 51
18.8827630475050192
  0
ARC
  5
A806
  8
0
 10
3983.6465435344498474
 20
116.4244991704467935
 30
0.0
 40
0.8702172472458318
 50
348.7338749466657077
 51
1.266224924586232
  0
ARC
  5
A807
  8
0
 10
3982.7163010822969227
 20
116.609808075656801
 30
0.0
 40
1.8187373630774111
 50
336.4313019227063251
 51
348.7338749466657077
  0
ARC
  5
A808
  8
0
 10
3984.1945206035929914
 20
116.349661488780697
 30
0.0
 40
0.5037882798928272
 50
270.6653194173524071
 51
292.0096594457587003
  0
ARC
  5
A809
  8
0
 10
3973.7164482543980739
 20
116.4566619206939038
 30
0.0
 40
0.7048597944350079
 50
159.3302929820717111
 51
182.7442847344495931
  0
ARC
  5
A80A
  8
0
 10
3975.2224847482120822
 20
116.5288514676828981
 30
0.0
 40
2.2126254431327679
 50
182.7442847344503889
 51
187.1229559832435996
  0
ARC
  5
A80B
  8
0
 10
3974.1090492318371616
 20
116.3897126928920045
 30
0.0
 40
1.0905299713583709
 50
187.1229559832435996
 51
207.7118424057111952
  0
ARC
  5
A80C
  8
0
 10
3973.3659700798471022
 20
116.531721287534296
 30
0.0
 40
0.6861622887450017
 50
251.0907835999404938
 51
268.1746705285476082
  0
ARC
  5
A80D
  8
0
 10
3995.2866295068452018
 20
104.691153359499296
 30
0.0
 40
9.8526695753461286
 50
270.8081292183234154
 51
89.926038883824404
  0
ARC
  5
A80E
  8
0
 10
3999.1740836559779382
 20
90.7095678852111291
 30
0.0
 40
26.1071049774025212
 50
81.6459382695619666
 51
88.6681525354044453
  0
ARC
  5
A80F
  8
0
 10
4001.2520481329679569
 20
104.8600131570407967
 30
0.0
 40
11.8049010298046593
 50
53.958764425504647
 51
81.6459382695619666
  0
ARC
  5
A810
  8
0
 10
4001.1622896632079573
 20
104.7366580137518071
 30
0.0
 40
11.9574561813717199
 50
12.4968791347511008
 51
53.958764425504647
  0
ARC
  5
A811
  8
0
 10
4000.9615168811569674
 20
104.6921592328830997
 30
0.0
 40
12.16310114608312
 50
346.7459089439278159
 51
12.4968791347511008
  0
ARC
  5
A812
  8
0
 10
4001.1134139695741396
 20
104.6563807689739036
 30
0.0
 40
12.0070472324850996
 50
321.7765733615800059
 51
346.7459089439278159
  0
ARC
  5
A813
  8
0
 10
4001.3881921111351403
 20
104.4399697138671002
 30
0.0
 40
11.6572804932826699
 50
297.2620287496305878
 51
321.7765733615800059
  0
ARC
  5
A814
  8
0
 10
4001.1013557566370764
 20
104.9966097906102931
 30
0.0
 40
12.2834779615772192
 50
286.226771006047386
 51
297.2620287496305878
  0
ARC
  5
A815
  8
0
 10
4000.0981007285081432
 20
108.4438234743931986
 30
0.0
 40
15.8737151171320203
 50
270.388789419812781
 51
286.226771006047386
  0
ARC
  5
A816
  8
0
 10
3998.4306041717118205
 20
104.7398475157070976
 30
0.0
 40
15.7990141408463796
 50
271.0768626260629048
 51
305.5843625717733971
  0
ARC
  5
A817
  8
0
 10
3998.4825825547109162
 20
104.6672029990540977
 30
0.0
 40
15.7096890150474806
 50
305.5843625717733971
 51
339.142892242599828
  0
ARC
  5
A818
  8
0
 10
3998.4206665605961462
 20
104.6907933234230939
 30
0.0
 40
15.7759467974674301
 50
339.142892242599828
 51
24.1260936321372697
  0
ARC
  5
A819
  8
0
 10
3998.4881077004260987
 20
104.7209980704738967
 30
0.0
 40
15.7020506941465605
 50
24.1260936321372697
 51
52.3526914560364816
  0
ARC
  5
A81A
  8
0
 10
3998.4264195583641595
 20
104.6410310597197935
 30
0.0
 40
15.8030464845538603
 50
52.3526914560364816
 51
76.0838600194439607
  0
ARC
  5
A81B
  8
0
 10
3998.4796633268770165
 20
104.8559195443118028
 30
0.0
 40
15.5816600357912307
 50
76.0838600194439607
 51
84.0333623694384784
  0
ARC
  5
A81C
  8
0
 10
3998.339510544390123
 20
103.5149442065297052
 30
0.0
 40
16.929939553910021
 50
84.0333623694384784
 51
88.5802948008058593
  0
LINE
  5
A8B7
  8
0
 10
3974.6880504753021341
 20
116.9320401958296003
 30
0.0
 11
3982.8389557685241016
 21
116.9320401958296003
 31
0.0
  0
LINE
  5
A8B8
  8
0
 10
3974.708344002083777
 20
116.7641099982295998
 30
0.0
 11
3982.8186622417429135
 21
116.7641099982295998
 31
0.0
  0
ARC
  5
A8B9
  8
0
 10
3974.8558275929531192
 20
113.5726842767399063
 30
0.0
 40
3.3635429761383522
 50
92.8591611970047239
 51
96.5003863318471247
  0
ARC
  5
A8BA
  8
0
 10
3974.5149948064408818
 20
116.7662158275788045
 30
0.0
 40
0.153672207746592
 50
105.0696172517449014
 51
122.3376073815042986
  0
LINE
  5
A8BB
  8
0
 10
3974.4327944605129233
 20
116.896055153529602
 30
0.0
 11
3974.4327944605129233
 21
116.8000950406295999
 31
0.0
  0
ARC
  5
A8BC
  8
0
 10
3974.4507017018959232
 20
116.8091044374766057
 30
0.0
 40
0.0200459104422717
 50
206.7076417677606912
 51
252.6307618535084885
  0
ARC
  5
A8BD
  8
0
 10
3974.5828891828318774
 20
117.2624136512558977
 30
0.0
 40
0.4922316278572876
 50
253.6977292494931078
 51
266.6250072918958267
  0
ARC
  5
A8BE
  8
0
 10
3974.7223267852400568
 20
118.8011669491494047
 30
0.0
 40
2.0371049407223238
 50
265.2577160516544836
 51
269.6067160135388008
  0
ARC
  5
A8BF
  8
0
 10
3982.6711786508749356
 20
113.5726842767399063
 30
0.0
 40
3.3635429761383522
 50
83.4996136681528753
 51
87.1408388029953045
  0
ARC
  5
A8C0
  8
0
 10
3983.0120114373858087
 20
116.7662158275788045
 30
0.0
 40
0.153672207746592
 50
57.6623926184957085
 51
74.9303827482550275
  0
LINE
  5
A8C1
  8
0
 10
3983.0942117833128577
 20
116.896055153529602
 30
0.0
 11
3983.0942117833128577
 21
116.8000950406295999
 31
0.0
  0
ARC
  5
A8C2
  8
0
 10
3983.0763045419298578
 20
116.8091044374766057
 30
0.0
 40
0.0200459104422717
 50
287.3692381464916252
 51
333.2923582322392804
  0
ARC
  5
A8C3
  8
0
 10
3982.9441170609939036
 20
117.2624136512558977
 30
0.0
 40
0.4922316278572876
 50
273.3749927081041164
 51
286.3022707505069775
  0
ARC
  5
A8C4
  8
0
 10
3982.8046794585870884
 20
118.8011669491494047
 30
0.0
 40
2.0371049407223238
 50
270.3932839864611992
 51
274.7422839483455164
  0
ENDSEC
  0
EOF
