  0
SECTION
  2
HEADER
  9
$ACADVER
  1
AC1009
  9
$INSBASE
 10
398.1756149821396775
 20
67.5078800621692778
 30
0.0
  9
$EXTMIN
 10
397.2909871553022185
 20
67.5020346385863093
 30
-0.0000000349181948
  9
$EXTMAX
 10
400.6841279312366169
 20
81.0128248412703442
 30
0.0000000814935746
  9
$LIMMIN
 10
0.0
 20
0.0
  9
$LIMMAX
 10
11.6929133858000007
 20
8.2677165353999982
  9
$ORTHOMODE
 70
     0
  9
$REGENMODE
 70
     1
  9
$FILLMODE
 70
     1
  9
$QTEXTMODE
 70
     0
  9
$MIRRTEXT
 70
     0
  9
$DRAGMODE
 70
     2
  9
$LTSCALE
 40
0.6431102362
  9
$OSMODE
 70
  4095
  9
$ATTMODE
 70
     1
  9
$TEXTSIZE
 40
0.2
  9
$TRACEWID
 40
0.05
  9
$TEXTSTYLE
  7
STANDARD
  9
$CLAYER
  8
0
  9
$CELTYPE
  6
BYLAYER
  9
$CECOLOR
 62
   256
  9
$DIMSCALE
 40
1.0
  9
$DIMASZ
 40
0.1875
  9
$DIMEXO
 40
0.0625
  9
$DIMDLI
 40
0.4443307087
  9
$DIMRND
 40
0.0
  9
$DIMDLE
 40
0.0
  9
$DIMEXE
 40
0.125
  9
$DIMTP
 40
0.01
  9
$DIMTM
 40
0.01
  9
$DIMTXT
 40
1.0
  9
$DIMCEN
 40
0.1052362205
  9
$DIMTSZ
 40
0.0
  9
$DIMTOL
 70
     1
  9
$DIMLIM
 70
     0
  9
$DIMTIH
 70
     0
  9
$DIMTOH
 70
     1
  9
$DIMSE1
 70
     0
  9
$DIMSE2
 70
     0
  9
$DIMTAD
 70
     0
  9
$DIMZIN
 70
     0
  9
$DIMBLK
  1

  9
$DIMASO
 70
     1
  9
$DIMSHO
 70
     1
  9
$DIMPOST
  1
\X
  9
$DIMAPOST
  1

  9
$DIMALT
 70
     1
  9
$DIMALTD
 70
     2
  9
$DIMALTF
 40
25.3999999999999986
  9
$DIMLFAC
 40
1.0
  9
$DIMTOFL
 70
     0
  9
$DIMTVP
 40
0.0
  9
$DIMTIX
 70
     0
  9
$DIMSOXD
 70
     0
  9
$DIMSAH
 70
     0
  9
$DIMBLK1
  1

  9
$DIMBLK2
  1

  9
$DIMSTYLE
  2
STANDARD
  9
$DIMCLRD
 70
     0
  9
$DIMCLRE
 70
     0
  9
$DIMCLRT
 70
     0
  9
$DIMTFAC
 40
1.0
  9
$DIMGAP
 40
0.09
  9
$LUNITS
 70
     2
  9
$LUPREC
 70
     4
  9
$SKETCHINC
 40
0.1
  9
$FILLETRAD
 40
0.0
  9
$AUNITS
 70
     0
  9
$AUPREC
 70
     0
  9
$MENU
  1
.
  9
$ELEVATION
 40
0.0
  9
$PELEVATION
 40
0.0
  9
$THICKNESS
 40
0.0
  9
$LIMCHECK
 70
     0
  9
$BLIPMODE
 70
     0
  9
$CHAMFERA
 40
0.0
  9
$CHAMFERB
 40
0.0
  9
$SKPOLY
 70
     0
  9
$TDCREATE
 40
2458172.5207638889551163
  9
$TDUPDATE
 40
2459054.9006828712299466
  9
$TDINDWG
 40
0.2713745139
  9
$TDUSRTIMER
 40
0.2713745139
  9
$USRTIMER
 70
     1
  9
$ANGBASE
 50
0.0
  9
$ANGDIR
 70
     0
  9
$PDMODE
 70
     0
  9
$PDSIZE
 40
0.3125
  9
$PLINEWID
 40
0.0
  9
$COORDS
 70
     1
  9
$SPLFRAME
 70
     0
  9
$SPLINETYPE
 70
     6
  9
$SPLINESEGS
 70
     8
  9
$ATTDIA
 70
     1
  9
$ATTREQ
 70
     1
  9
$HANDLING
 70
     1
  9
$HANDSEED
  5
F744
  9
$SURFTAB1
 70
     6
  9
$SURFTAB2
 70
     6
  9
$SURFTYPE
 70
     6
  9
$SURFU
 70
     6
  9
$SURFV
 70
     6
  9
$UCSNAME
  2

  9
$UCSORG
 10
0.0
 20
0.0
 30
0.0
  9
$UCSXDIR
 10
1.0
 20
0.0
 30
0.0
  9
$UCSYDIR
 10
0.0
 20
1.0
 30
0.0
  9
$PUCSNAME
  2

  9
$PUCSORG
 10
0.0
 20
0.0
 30
0.0
  9
$PUCSXDIR
 10
1.0
 20
0.0
 30
0.0
  9
$PUCSYDIR
 10
0.0
 20
1.0
 30
0.0
  9
$USERI1
 70
     0
  9
$USERI2
 70
     0
  9
$USERI3
 70
     0
  9
$USERI4
 70
     0
  9
$USERI5
 70
     0
  9
$USERR1
 40
0.0
  9
$USERR2
 40
0.0
  9
$USERR3
 40
0.0
  9
$USERR4
 40
0.0
  9
$USERR5
 40
0.0
  9
$WORLDVIEW
 70
     1
  9
$SHADEDGE
 70
     3
  9
$SHADEDIF
 70
    70
  9
$TILEMODE
 70
     1
  9
$MAXACTVP
 70
    64
  9
$PLIMCHECK
 70
     0
  9
$PEXTMIN
 10
1.0000000000000000E+20
 20
1.0000000000000000E+20
 30
1.0000000000000000E+20
  9
$PEXTMAX
 10
-1.0000000000000000E+20
 20
-1.0000000000000000E+20
 30
-1.0000000000000000E+20
  9
$PLIMMIN
 10
0.0
 20
0.0
  9
$PLIMMAX
 10
12.0
 20
9.0
  9
$UNITMODE
 70
     0
  9
$VISRETAIN
 70
     1
  9
$PLINEGEN
 70
     0
  9
$PSLTSCALE
 70
     1
  0
ENDSEC
  0
SECTION
  2
TABLES
  0
TABLE
  2
VPORT
 70
     1
  0
VPORT
  2
*ACTIVE
 70
     0
 10
0.0
 20
0.0
 11
1.0
 21
1.0
 12
-30.6417315647843189
 22
4.5548882277096387
 13
0.0
 23
0.0
 14
1.0
 24
1.0
 15
0.0
 25
0.0
 16
0.0
 26
0.0
 36
14.6338572656650907
 17
429.6292891080536833
 27
69.7025415122186871
 37
0.0
 40
13.6232239630392407
 41
2.6486111111111108
 42
50.0
 43
0.0
 44
0.0
 50
0.0
 51
0.0
 71
     0
 72
   100
 73
     1
 74
     1
 75
     0
 76
     0
 77
     0
 78
     0
  0
ENDTAB
  0
TABLE
  2
LTYPE
 70
     2
  0
LTYPE
  2
CONTINUOUS
 70
     0
  3
Solid line
 72
    65
 73
     0
 40
0.0
  0
LTYPE
  2
PHANTOM2
 70
     0
  3
___ _ _ ___ _ _ ___ _ _ ___ _ _
 72
    65
 73
     6
 40
1.25
 49
0.625
 49
-0.125
 49
0.125
 49
-0.125
 49
0.125
 49
-0.125
  0
ENDTAB
  0
TABLE
  2
LAYER
 70
     2
  0
LAYER
  2
0
 70
     0
 62
   255
  6
CONTINUOUS
  0
LAYER
  2
DEFPOINTS
 70
     0
 62
     7
  6
CONTINUOUS
  0
ENDTAB
  0
TABLE
  2
STYLE
 70
     1
  0
STYLE
  2
STANDARD
 70
     0
 40
0.0
 41
0.8
 50
0.0
 71
     0
 42
0.2
  3
txt
  4

  0
ENDTAB
  0
TABLE
  2
VIEW
 70
     0
  0
ENDTAB
  0
TABLE
  2
UCS
 70
     0
  0
ENDTAB
  0
TABLE
  2
APPID
 70
    10
  0
APPID
  2
ACAD
 70
     0
  0
APPID
  2
ACAD_MLEADERVER
 70
     0
  0
APPID
  2
ACAD_EXEMPT_FROM_CAD_STANDARDS
 70
     0
  0
APPID
  2
ACAD_DSTYLE_DIMJAG
 70
     0
  0
APPID
  2
ACAD_DSTYLE_DIMTALN
 70
     0
  0
APPID
  2
ACAD_NAV_VCDISPLAY
 70
     0
  0
APPID
  2
ACAECLAYERSTANDARD
 70
     0
  0
APPID
  2
ACCMTRANSPARENCY
 70
     0
  0
APPID
  2
DCO15
 70
     0
  0
APPID
  2
ACDBATTR
 70
     0
  0
ENDTAB
  0
TABLE
  2
DIMSTYLE
 70
     1
  0
DIMSTYLE
  2
STANDARD
 70
     0
  3

  4

  5

  6

  7

 40
1.0
 41
0.1875
 42
0.0625
 43
0.38
 44
0.125
 45
0.0
 46
0.0
 47
0.01
 48
0.01
140
0.15625
141
0.09
142
0.0
143
25.3999999999999986
144
1.0
145
0.0
146
1.0
147
0.09
 71
     1
 72
     0
 73
     1
 74
     1
 75
     0
 76
     0
 77
     0
 78
     4
170
     0
171
     2
172
     0
173
     0
174
     0
175
     0
176
     0
177
     0
178
     0
  0
ENDTAB
  0
ENDSEC
  0
SECTION
  2
BLOCKS
  0
BLOCK
  8
0
  2
$MODEL_SPACE
 70
     0
 10
0.0
 20
0.0
 30
0.0
  3
$MODEL_SPACE
  1

  0
ENDBLK
  5
21
  8
0
  0
BLOCK
 67
     1
  8
0
  2
$PAPER_SPACE
 70
     0
 10
0.0
 20
0.0
 30
0.0
  3
$PAPER_SPACE
  1

  0
ENDBLK
  5
1D
 67
     1
  8
0
  0
BLOCK
  8
0
  2
_FILLED
 70
     0
 10
0.0
 20
0.0
 30
0.0
  3
_FILLED
  1

  0
SOLID
  5
87E2
  8
0
  6
BYBLOCK
 62
     0
 10
0.0
 20
0.0
 30
0.0
 11
-1.0
 21
0.1666666667
 31
0.0
 12
-1.0
 22
-0.1666666667
 32
0.0
 13
-1.0
 23
-0.1666666667
 33
0.0
  0
ENDBLK
  5
87E3
  8
0
  6
BYBLOCK
 62
     0
  0
ENDSEC
  0
SECTION
  2
ENTITIES
  0
ATTDEF
  5
E04D
  8
DEFPOINTS
 10
398.1759128086306987
 20
67.5114360263773108
 30
0.0
 40
0.001
  1
K-99480T-4E
  3

  2
MODELNUMBER
 70
     0
1001
ACDBATTR
1070
     0
1070
     1
  0
ATTDEF
  5
E04E
  8
DEFPOINTS
 10
398.1759128086306987
 20
67.5097693597106456
 30
0.0
 40
0.001
  1
KUMIN
  3

  2
TRADENAME
 70
     0
1001
ACDBATTR
1070
     0
1070
     1
  0
ATTDEF
  5
E04F
  8
DEFPOINTS
 10
398.1759128086306987
 20
67.5081026930439805
 30
0.0
 40
0.001
  1
KITCHEN SINK FAUCET
  3

  2
PRODUCT
 70
     0
1001
ACDBATTR
1070
     0
1070
     1
  0
LINE
  5
EA89
  8
0
 10
399.0358512025896971
 20
67.5078800621692778
 30
0.0
 11
397.3153787616896011
 21
67.5078800621692778
 31
0.0
  0
LINE
  5
EA8A
  8
0
 10
397.3153787616896011
 20
67.5078800621692778
 30
0.0
 11
397.3153787616896011
 21
67.5482424013357132
 31
0.0
  0
ARC
  5
EA8B
  8
0
 10
397.3340715407231869
 20
67.5482424013357132
 30
0.0
 40
0.0186927790335751
 50
90.005926836397407
 51
180.0
  0
LINE
  5
EA8C
  8
0
 10
397.3094732496896881
 20
67.566935180269283
 30
0.0
 11
399.0417567170262032
 21
67.566935180269283
 31
0.0
  0
LINE
  5
EA8D
  8
0
 10
399.0358512025896971
 20
67.5078800621692778
 30
0.0
 11
399.0358512026896847
 21
67.5482443347692794
 31
0.0
  0
ARC
  5
EA8E
  8
0
 10
399.01716035723598
 20
67.5482443348155783
 30
0.0
 40
0.0186908454536941
 50
359.9999998580551051
 51
90.0000001419482345
  0
ARC
  5
EA8F
  8
0
 10
407.3738936015537888
 20
68.0193159975160171
 30
0.0
 40
10.0693356824427607
 50
164.490120891051987
 51
178.2096775622700022
  0
ARC
  5
EA90
  8
0
 10
395.8386776413514099
 20
71.1503956029112601
 30
0.0
 40
1.88429260786746
 50
346.5433279143645109
 51
359.3776072405382251
  0
LINE
  5
EA91
  8
0
 10
397.7228590765897138
 20
71.1299273062692805
 30
0.0
 11
397.7228579404896891
 21
71.316935180269283
 31
0.0
  0
ARC
  5
EA92
  8
0
 10
397.7327004601896761
 20
71.316935180269283
 30
0.0
 40
0.0098425196999958
 50
89.9999999999902229
 51
180.0000017021457097
  0
LINE
  5
EA93
  8
0
 10
397.7327004601896761
 20
71.3267776999692842
 30
0.0
 11
398.618529504089679
 21
71.3267776999691137
 31
0.0
  0
ARC
  5
EA94
  8
0
 10
398.618529504089679
 20
71.3169351805691178
 30
0.0
 40
0.0098425194000011
 50
359.9999982545629109
 51
89.9999999999902229
  0
LINE
  5
EA95
  8
0
 10
398.6283720234895895
 20
71.316935180269283
 30
0.0
 11
398.6283708875895968
 21
71.1299273062692805
 31
0.0
  0
ARC
  5
EA96
  8
0
 10
403.9467871130701155
 20
71.6311318673732984
 30
0.0
 40
5.3419806401297851
 50
185.3836222390702062
 51
196.3507826284657085
  0
ARC
  5
EA97
  8
0
 10
399.243896875339999
 20
70.2049901864839683
 30
0.0
 40
0.4301198711900901
 50
190.409940809932209
 51
224.5559308467038022
  0
ARC
  5
EA98
  8
0
 10
399.070106135423373
 20
70.0454384101057173
 30
0.0
 40
0.1945148277751595
 50
226.9842024131729943
 51
268.7877679612926727
  0
ARC
  5
EA99
  8
0
 10
399.0871439442216229
 20
70.3283155398948026
 30
0.0
 40
0.4778168727122678
 50
267.4626884336682906
 51
270.4660589728196101
  0
LINE
  5
EA9A
  8
0
 10
399.6521664560896738
 20
69.8505144747692839
 30
0.0
 11
399.0910305897480725
 21
69.8505144747692839
 31
0.0
  0
ARC
  5
EA9B
  8
0
 10
399.6521664560896738
 20
69.8308294353692816
 30
0.0
 40
0.0196850394000014
 50
0.0000000000040711
 51
90.0
  0
LINE
  5
EA9C
  8
0
 10
399.6718514954895909
 20
69.8308294353692816
 30
0.0
 11
399.6718514954898183
 21
68.4922472240692741
 31
0.0
  0
ARC
  5
EA9D
  8
0
 10
399.6521580470670187
 20
68.4922505141610998
 30
0.0
 40
0.0196934486975805
 50
270.0244650660180241
 51
359.9904278636258823
  0
ARC
  5
EA9E
  8
0
 10
399.2591125122943936
 20
68.2735097987855255
 30
0.0
 40
0.1990472693507238
 50
90.0053797444374766
 51
144.9818195379849897
  0
ARC
  5
EA9F
  8
0
 10
399.3662471735506188
 20
68.1984528240652708
 30
0.0
 40
0.3298577622576102
 50
144.9832699666800977
 51
183.044174375062795
  0
LINE
  5
EAA0
  8
0
 10
399.0368548776896773
 20
68.1809354398692733
 30
0.0
 11
399.0417567143896918
 21
67.7047304558692815
 31
0.0
  0
LINE
  5
EAA1
  8
0
 10
399.0417567143896918
 20
67.7047304558692815
 30
0.0
 11
399.0417567170262032
 21
67.566935180269283
 31
0.0
  0
ARC
  5
EAA2
  8
0
 10
399.6000963955896736
 20
68.9282950002694292
 30
0.0
 40
0.8661417322998465
 50
79.7677969454619102
 51
85.2479120207008236
  0
ARC
  5
EAA3
  8
0
 10
399.6000963955896736
 20
69.3947811932692815
 30
0.0
 40
0.8661417323000024
 50
274.7520879803449816
 51
296.0538331098958906
  0
LINE
  5
EAA4
  8
0
 10
399.7539614387897018
 20
69.8366000397692801
 30
0.0
 11
399.7539614387897018
 21
69.1897913159692735
 31
0.0
  0
ARC
  5
EAA5
  8
0
 10
400.1476622257611098
 20
69.1897913159692735
 30
0.0
 40
0.3937007869713849
 50
180.0
 51
205.0000231814904907
  0
LINE
  5
EAA6
  8
0
 10
399.7908482040847957
 20
69.0234060293688998
 30
0.0
 11
400.0427785970966852
 21
68.4831401287608514
 31
0.0
  0
ARC
  5
EAA7
  8
0
 10
400.0593951769641876
 20
68.4908935251096693
 30
0.0
 40
0.018336463165936
 50
205.0140404463120944
 51
269.9563750157070103
  0
ARC
  5
EAA8
  8
0
 10
400.3169535655482036
 20
67.7812057925971914
 30
0.0
 40
0.6990011248952868
 50
81.5155824817425838
 51
98.4844175184385477
  0
ARC
  5
EAA9
  8
0
 10
400.4427922851505741
 20
68.5602154332774205
 30
0.0
 40
0.0876584868240435
 50
270.0951226582207028
 51
285.116575770048712
  0
ARC
  5
EAAA
  8
0
 10
400.4560495682836745
 20
68.5029332608060457
 30
0.0
 40
0.0289802512196331
 50
289.3507875736426058
 51
334.9685260962999109
  0
ARC
  5
EAAB
  8
0
 10
399.4268244006279929
 20
69.1075918160668294
 30
0.0
 40
1.22255319895611
 50
329.6940992798852221
 51
357.3000356391506784
  0
ARC
  5
EAAC
  8
0
 10
396.9584125878195096
 20
69.3432674967137643
 30
0.0
 40
3.7012444613564841
 50
355.4554523594425177
 51
0.5705943356285892
  0
LINE
  5
EAAD
  8
0
 10
400.6594735120896758
 20
69.3801266551692777
 30
0.0
 11
400.6594735120896758
 21
71.5328843248692721
 31
0.0
  0
ARC
  5
EAAE
  8
0
 10
397.1433827529459109
 20
71.5702000162679468
 30
0.0
 40
3.5162887662080351
 50
359.391952168421426
 51
5.0080947380535576
  0
ARC
  5
EAAF
  8
0
 10
399.4051726914224787
 20
71.8011178971390365
 30
0.0
 40
1.2434023461260479
 50
3.5061801726962201
 51
26.9236081438743717
  0
ARC
  5
EAB0
  8
0
 10
400.4626255232234939
 20
72.3320347314176786
 30
0.0
 40
0.0604114004736165
 50
32.0953654470907921
 51
147.9141560669731064
  0
ARC
  5
EAB1
  8
0
 10
401.5330443243292962
 20
71.7960969801620053
 30
0.0
 40
1.257238117717415
 50
153.1403902074017083
 51
176.3117563232895009
  0
ARC
  5
EAB2
  8
0
 10
403.9488941978627281
 20
71.569883363345383
 30
0.0
 40
3.6833078330341431
 50
175.2175237644308936
 51
180.5755522324265883
  0
LINE
  5
EAB3
  8
0
 10
400.2657722002895753
 20
71.5328841216692837
 30
0.0
 11
400.2657720538896911
 21
70.2934276334467825
 31
0.0
  0
ARC
  5
EAB4
  8
0
 10
399.8049317687271014
 20
70.2582495959448039
 30
0.0
 40
0.4621809848438473
 50
323.6043482519681902
 51
4.3651823065129154
  0
ARC
  5
EAB5
  8
0
 10
399.8884138254402956
 20
70.2402470787891389
 30
0.0
 40
0.3858955882806005
 50
273.8867489447646903
 51
318.3940474118448947
  0
ARC
  5
EAB6
  8
0
 10
399.7771090806526217
 20
71.8374351623735947
 30
0.0
 40
1.98695680359837
 50
270.3448714820685836
 51
273.9670301658666745
  0
LINE
  5
EAB7
  8
0
 10
399.7890687852897145
 20
69.8505143524692755
 30
0.0
 11
399.7677559691362035
 21
69.85053049347502
 31
0.0
  0
ARC
  5
EAB8
  8
0
 10
399.767869555850325
 20
69.8366228215906801
 30
0.0
 40
0.0139081357192102
 50
90.4679355887055721
 51
180.0938517445019897
  0
LINE
  5
EAB9
  8
0
 10
398.6283708876895844
 20
71.3346517156692812
 30
0.0
 11
397.7228590765897138
 21
71.3346517156692812
 31
0.0
  0
LINE
  5
EABA
  8
0
 10
397.7228590765897138
 20
71.3346517156692812
 30
0.0
 11
397.7228590765897138
 21
80.5670745607841781
 31
0.0
  0
ARC
  5
EABB
  8
0
 10
398.1756149821396775
 20
80.5549621644840954
 30
0.0
 40
0.4529178954851741
 50
358.4675551616987832
 51
181.5324448383011884
  0
LINE
  5
EABC
  8
0
 10
398.6283708876895844
 20
80.5428497724692676
 30
0.0
 11
398.6283708876895844
 21
71.3346517156240338
 31
0.0
  0
LINE
  5
EABD
  8
0
 10
398.514240761789722
 20
71.3346517156692812
 30
0.0
 11
398.514240761789722
 21
71.3267776999692842
 31
0.0
  0
LINE
  5
EABE
  8
0
 10
397.7819141946897048
 20
71.32677769996927
 30
0.0
 11
397.7819141946897048
 21
71.3346517156692812
 31
0.0
  0
LINE
  5
EABF
  8
0
 10
397.7228590765897138
 20
76.1653871414692816
 30
0.0
 11
397.7869604063420184
 21
76.1653871414692816
 31
0.0
  0
ARC
  5
EAC1
  8
0
 10
398.1755757593103908
 20
77.664464824453546
 30
0.0
 40
1.5710415777125131
 50
268.2206940505085981
 51
270.0014305762583149
  0
ARC
  5
EAC2
  8
0
 10
398.1710194371243006
 20
77.5177929691572132
 30
0.0
 40
1.4242989690130159
 50
262.1225780139629933
 51
268.2206940505085981
  0
ARC
  5
EAC3
  8
0
 10
398.0858776095579969
 20
76.9024277936709666
 30
0.0
 40
0.8030716112746887
 50
254.6133740675049069
 51
262.1225780139629933
  0
ARC
  5
EAC4
  8
0
 10
397.9433123498553186
 20
76.4081774398902382
 30
0.0
 40
0.2887785643840961
 50
237.2193002549703067
 51
255.8664895747988055
  0
ARC
  5
EAC5
  8
0
 10
397.8200457583004095
 20
76.2193192296433892
 30
0.0
 40
0.0632717207686977
 50
201.8112921436986937
 51
238.4724157622663085
  0
ARC
  5
EAC6
  8
0
 10
397.787727444857012
 20
76.2063854374910079
 30
0.0
 40
0.0284614297146729
 50
149.683040021138595
 51
201.8112921436994895
  0
ARC
  5
EAC7
  8
0
 10
397.8640430080965871
 20
76.1433238587244716
 30
0.0
 40
0.1271727220274693
 50
107.5344020519872998
 51
142.4939906149793956
  0
ARC
  5
EAC8
  8
0
 10
398.0639931680275936
 20
75.6069304548904739
 30
0.0
 40
0.6994876633941296
 50
96.7201794220313786
 51
109.9150935184918012
  0
ARC
  5
EAC9
  8
0
 10
398.1630509846492032
 20
74.9455545439106459
 30
0.0
 40
1.3680723059576261
 50
92.4989430366543104
 51
97.5989827158537651
  0
ARC
  5
EACA
  8
0
 10
398.1753610729905972
 20
74.7286934211890355
 30
0.0
 40
1.585266480402286
 50
89.9908229215271405
 51
92.601697786671977
  0
ARC
  5
EACB
  8
0
 10
398.1754541105681255
 20
74.7771685307242251
 30
0.0
 40
1.524943316540865
 50
89.9939519808835655
 51
92.7081063085451689
  0
ARC
  5
EACC
  8
0
 10
398.1685399874276072
 20
74.9233426406571823
 30
0.0
 40
1.378605776881703
 50
92.7081063085451689
 51
96.7672649979101038
  0
ARC
  5
EACD
  8
0
 10
398.1163964779079265
 20
75.3627664718965207
 30
0.0
 40
0.9360989983504813
 50
96.7672649979101038
 51
103.7493408050271029
  0
ARC
  5
EACE
  8
0
 10
397.9831146581300914
 20
75.9074714571143829
 30
0.0
 40
0.3753249222694829
 50
103.7493408050271029
 51
117.2193383343570048
  0
ARC
  5
EACF
  8
0
 10
397.8511628332105943
 20
76.1640089261181856
 30
0.0
 40
0.0868413749007325
 50
117.2193383343570048
 51
142.8160131582990005
  0
ARC
  5
EAD0
  8
0
 10
397.8053630969911865
 20
76.1987526473320713
 30
0.0
 40
0.0293544894262484
 50
142.8160131582990005
 51
180.1297983650894992
  0
ARC
  5
EAD1
  8
0
 10
397.8050711191189066
 20
76.1987519858816995
 30
0.0
 40
0.029062510804696
 50
180.1297983650887886
 51
212.1184034267363074
  0
ARC
  5
EAD2
  8
0
 10
397.8438741633150926
 20
76.2254868623625583
 30
0.0
 40
0.0761675414249901
 50
213.6325970137077093
 51
239.7224710065158035
  0
ARC
  5
EAD3
  8
0
 10
397.9122193664877045
 20
76.3319042783534769
 30
0.0
 40
0.2025989385972063
 50
238.2042084353682014
 51
247.6707943986224052
  0
ARC
  5
EAD4
  8
0
 10
397.9965599666373919
 20
76.5392598379668101
 30
0.0
 40
0.4264502013720569
 50
247.7734022476076063
 51
255.799516412315711
  0
ARC
  5
EAD5
  8
0
 10
398.1010135651944211
 20
76.9529129179197611
 30
0.0
 40
0.8530875203878537
 50
255.8138691920875942
 51
262.7372059861887124
  0
ARC
  5
EAD6
  8
0
 10
398.1646272156821738
 20
77.421765851911303
 30
0.0
 40
1.3262263280682081
 50
262.5717135934194744
 51
267.6221768800414793
  0
ARC
  5
EAD7
  8
0
 10
398.1753823264568837
 20
77.6184532573246742
 30
0.0
 40
1.5231927908590741
 50
267.5249217476206809
 51
270.0087516045476832
  0
ARC
  5
EAD8
  8
0
 10
398.1741732277654933
 20
74.96450178672535
 30
0.0
 40
1.328440117514891
 50
89.937816806293597
 51
96.01149299742859
  0
ARC
  5
EAD9
  8
0
 10
398.1245652927785841
 20
75.4355807584211107
 30
0.0
 40
0.8547563149761266
 50
96.01149299742859
 51
105.1877165737299009
  0
ARC
  5
EADA
  8
0
 10
397.9676176687174802
 20
76.0137338335531325
 30
0.0
 40
0.2556790787343679
 50
105.1877165737299009
 51
119.864919920642393
  0
ARC
  5
EADB
  8
0
 10
397.8807734649959116
 20
76.1649747390821119
 30
0.0
 40
0.0812780259128567
 50
119.864919920642393
 51
139.3733926172293991
  0
ARC
  5
EADC
  8
0
 10
397.8441226289514816
 20
76.1964178402035088
 30
0.0
 40
0.0329877329867819
 50
139.3733926172293991
 51
166.1839180698852942
  0
ARC
  5
EADD
  8
0
 10
397.8338713487465839
 20
76.1989388472865699
 30
0.0
 40
0.0224310184148776
 50
166.1839180698860901
 51
180.6454873759861925
  0
ARC
  5
EADE
  8
0
 10
397.846076749078577
 20
76.1990763576796155
 30
0.0
 40
0.0346371933428439
 50
180.6454873759861925
 51
200.6207307417211041
  0
ARC
  5
EADF
  8
0
 10
397.8623220656226067
 20
76.2073635660509581
 30
0.0
 40
0.0527995298070903
 50
202.82955529650269
 51
230.5245050938459883
  0
ARC
  5
EAE0
  8
0
 10
397.893772044514094
 20
76.241489851405106
 30
0.0
 40
0.0991693348159864
 50
229.0334879743350882
 51
236.9821234527447018
  0
ARC
  5
EAE1
  8
0
 10
397.9658031563614031
 20
76.3651747714789195
 30
0.0
 40
0.2422301187647778
 50
238.6375906082174936
 51
253.6544248960373977
  0
ARC
  5
EAE2
  8
0
 10
398.1024481452701025
 20
76.8241147890663285
 30
0.0
 40
0.7210792588200605
 50
253.4984870035048914
 51
263.6662934281388857
  0
ARC
  5
EAE3
  8
0
 10
398.170528069148304
 20
77.3462554866560907
 30
0.0
 40
1.2475840189335059
 50
263.2041722777684072
 51
268.8490027852059825
  0
ARC
  5
EAE4
  8
0
 10
398.175560673692928
 20
77.4788936683993654
 30
0.0
 40
1.380298559715931
 50
268.750739278308572
 51
270.0022547386506062
  0
LINE
  5
EAE5
  8
0
 10
397.8114417537897225
 20
76.2412336646692808
 30
0.0
 11
397.8114421452294778
 21
76.1992241834366126
 31
0.0
  0
ARC
  5
EAE6
  8
0
 10
398.1753933249937063
 20
75.1504932494517845
 30
0.0
 40
1.1221048738108941
 50
89.9886817965534647
 51
91.4105996455249965
  0
ARC
  5
EAE7
  8
0
 10
398.1786613882474057
 20
75.0177777768952154
 30
0.0
 40
1.254860577618089
 50
91.4105996455249965
 51
94.4730771588941138
  0
ARC
  5
EAE8
  8
0
 10
398.1495560231977038
 20
75.3898315451094589
 30
0.0
 40
0.8816701051819705
 50
94.4730771588941138
 51
97.6290757059984315
  0
ARC
  5
EAE9
  8
0
 10
398.139797898180916
 20
75.4626832624956876
 30
0.0
 40
0.808167766920061
 50
97.6290757059984315
 51
102.2784898748838032
  0
ARC
  5
EAEA
  8
0
 10
398.0510642257470977
 20
75.8703879479919436
 30
0.0
 40
0.3909187103612955
 50
102.2784898748870006
 51
108.513657639446194
  0
ARC
  5
EAEB
  8
0
 10
398.0078913325987742
 20
75.9993159830984411
 30
0.0
 40
0.2549542409613065
 50
108.5136576394493062
 51
117.5976937612495021
  0
ARC
  5
EAEC
  8
0
 10
397.9270834452113945
 20
76.1539023701727587
 30
0.0
 40
0.0805212574613113
 50
117.5976937612495021
 51
136.9077577483369055
  0
ARC
  5
EAED
  8
0
 10
397.8898109253512985
 20
76.1887719126421104
 30
0.0
 40
0.0294808251674781
 50
136.9077577483334096
 51
165.7739437352265952
  0
ARC
  5
EAEE
  8
0
 10
397.8809646266323057
 20
76.1910146514386497
 30
0.0
 40
0.0203546606754389
 50
165.7739437352281868
 51
198.959272422740014
  0
ARC
  5
EAEF
  8
0
 10
397.8929121939685842
 20
76.1951190315075308
 30
0.0
 40
0.0329875661609156
 50
198.9592724227377118
 51
225.4119522044182133
  0
ARC
  5
EAF0
  8
0
 10
397.9307539089290913
 20
76.233508854751534
 30
0.0
 40
0.0868927970746196
 50
225.4119522044159112
 51
240.2526582686803067
  0
ARC
  5
EAF1
  8
0
 10
397.9920979911772179
 20
76.3408502977299861
 30
0.0
 40
0.2105264567614319
 50
240.2526582686803067
 51
256.4630911895403074
  0
ARC
  5
EAF2
  8
0
 10
398.2772365769420162
 20
77.5251765136096651
 30
0.0
 40
1.4286941786748839
 50
256.4630911895403074
 51
259.160823521069176
  0
ARC
  5
EAF3
  8
0
 10
398.0987999552859264
 20
76.5932414102398837
 30
0.0
 40
0.4798302975829442
 50
259.160823521069176
 51
266.5818269672133738
  0
ARC
  5
EAF4
  8
0
 10
398.1736063601308047
 20
77.2545233851054007
 30
0.0
 40
1.1449386409834279
 50
264.8177589466218933
 51
269.1336215023885075
  0
ARC
  5
EAF5
  8
0
 10
398.1755876655856241
 20
77.3272704019647392
 30
0.0
 40
1.217707618481499
 50
269.0921637527529242
 51
270.0012851539913186
  0
LINE
  5
EAF6
  8
0
 10
398.1642498193896813
 20
76.2620623237692712
 30
0.0
 11
398.1869801448896737
 21
76.2620623237692712
 31
0.0
  0
LINE
  5
EAF7
  8
0
 10
398.1869801448896737
 20
76.2620623237692712
 30
0.0
 11
398.1983453076896922
 21
76.2569674606692729
 31
0.0
  0
LINE
  5
EAF8
  8
0
 10
398.1983453076896922
 20
76.2569674606692729
 30
0.0
 11
398.1869801448896737
 21
76.2518725975692746
 31
0.0
  0
LINE
  5
EAF9
  8
0
 10
398.1869801448896737
 20
76.2518725975692746
 30
0.0
 11
398.1642498193896813
 21
76.2518725975692746
 31
0.0
  0
LINE
  5
EAFA
  8
0
 10
398.1642498193896813
 20
76.2518725975692746
 30
0.0
 11
398.1528846565897197
 21
76.2569674606692729
 31
0.0
  0
LINE
  5
EAFB
  8
0
 10
398.1528846565897197
 20
76.2569674606692729
 30
0.0
 11
398.1642498193896813
 21
76.2620623237692712
 31
0.0
  0
LINE
  5
EAFC
  8
0
 10
398.1642498193896813
 20
76.2620623237692712
 30
0.0
 11
398.1642498193896813
 21
76.2518725975692746
 31
0.0
  0
LINE
  5
EAFD
  8
0
 10
398.1869801448896737
 20
76.2518725975692746
 30
0.0
 11
398.1869801448896737
 21
76.2620623237692712
 31
0.0
  0
LINE
  5
EAFE
  8
0
 10
398.1642498193896813
 20
76.2503441386692771
 30
0.0
 11
398.1869801448896737
 21
76.2503441386692771
 31
0.0
  0
LINE
  5
EAFF
  8
0
 10
398.1869801448896737
 20
76.2503441386692771
 30
0.0
 11
398.1983453076896922
 21
76.2452492755692788
 31
0.0
  0
LINE
  5
EB00
  8
0
 10
398.1983453076896922
 20
76.2452492755692788
 30
0.0
 11
398.1869801448896737
 21
76.2401544124692805
 31
0.0
  0
LINE
  5
EB01
  8
0
 10
398.1869801448896737
 20
76.2401544124692805
 30
0.0
 11
398.1642498193896813
 21
76.2401544124692805
 31
0.0
  0
LINE
  5
EB02
  8
0
 10
398.1642498193896813
 20
76.2401544124692805
 30
0.0
 11
398.1528846565897197
 21
76.2452492755692788
 31
0.0
  0
LINE
  5
EB03
  8
0
 10
398.1528846565897197
 20
76.2452492755692788
 30
0.0
 11
398.1642498193896813
 21
76.2503441386692771
 31
0.0
  0
LINE
  5
EB04
  8
0
 10
398.1642498193896813
 20
76.2503441386692771
 30
0.0
 11
398.1642498193896813
 21
76.2401544124692805
 31
0.0
  0
LINE
  5
EB05
  8
0
 10
398.1869801448896737
 20
76.2401544124692805
 30
0.0
 11
398.1869801448896737
 21
76.2503441386692771
 31
0.0
  0
LINE
  5
EB06
  8
0
 10
398.1642498193896813
 20
76.2386259534692812
 30
0.0
 11
398.1869801448896737
 21
76.2386259534692812
 31
0.0
  0
LINE
  5
EB07
  8
0
 10
398.1869801448896737
 20
76.2386259534692812
 30
0.0
 11
398.1983453076896922
 21
76.2335310903692829
 31
0.0
  0
LINE
  5
EB08
  8
0
 10
398.1983453076896922
 20
76.2335310903692829
 30
0.0
 11
398.1869801448896737
 21
76.2284362272692704
 31
0.0
  0
LINE
  5
EB09
  8
0
 10
398.1869801448896737
 20
76.2284362272692704
 30
0.0
 11
398.1642498193896813
 21
76.2284362272692704
 31
0.0
  0
LINE
  5
EB0A
  8
0
 10
398.1642498193896813
 20
76.2284362272692704
 30
0.0
 11
398.1528846565897197
 21
76.2335310903692829
 31
0.0
  0
LINE
  5
EB0B
  8
0
 10
398.1528846565897197
 20
76.2335310903692829
 30
0.0
 11
398.1642498193896813
 21
76.2386259534692812
 31
0.0
  0
LINE
  5
EB0C
  8
0
 10
398.1642498193896813
 20
76.2386259534692812
 30
0.0
 11
398.1642498193896813
 21
76.2284362272692704
 31
0.0
  0
LINE
  5
EB0D
  8
0
 10
398.1869801448896737
 20
76.2284362272692704
 30
0.0
 11
398.1869801448896737
 21
76.2386259534692812
 31
0.0
  0
LINE
  5
EB0E
  8
0
 10
398.1642498193896813
 20
76.2269077683692728
 30
0.0
 11
398.1869801448896737
 21
76.2269077683692728
 31
0.0
  0
LINE
  5
EB0F
  8
0
 10
398.1869801448896737
 20
76.2269077683692728
 30
0.0
 11
398.1983453076896922
 21
76.2218129052692746
 31
0.0
  0
LINE
  5
EB10
  8
0
 10
398.1983453076896922
 20
76.2218129052692746
 30
0.0
 11
398.1869801448896737
 21
76.2167180421692763
 31
0.0
  0
LINE
  5
EB11
  8
0
 10
398.1869801448896737
 20
76.2167180421692763
 30
0.0
 11
398.1642498193896813
 21
76.2167180421692763
 31
0.0
  0
LINE
  5
EB12
  8
0
 10
398.1642498193896813
 20
76.2167180421692763
 30
0.0
 11
398.1528846565897197
 21
76.2218129052692746
 31
0.0
  0
LINE
  5
EB13
  8
0
 10
398.1528846565897197
 20
76.2218129052692746
 30
0.0
 11
398.1642498193896813
 21
76.2269077683692728
 31
0.0
  0
LINE
  5
EB14
  8
0
 10
398.1642498193896813
 20
76.2269077683692728
 30
0.0
 11
398.1642498193896813
 21
76.2167180421692763
 31
0.0
  0
LINE
  5
EB15
  8
0
 10
398.1869801448896737
 20
76.2167180421692763
 30
0.0
 11
398.1869801448896737
 21
76.2269077683692728
 31
0.0
  0
LINE
  5
EB16
  8
0
 10
398.1642498193896813
 20
76.2034713981692846
 30
0.0
 11
398.1869801448896737
 21
76.2034713981692846
 31
0.0
  0
LINE
  5
EB17
  8
0
 10
398.1869801448896737
 20
76.2034713981692846
 30
0.0
 11
398.1983453076896922
 21
76.1983765350692863
 31
0.0
  0
LINE
  5
EB18
  8
0
 10
398.1983453076896922
 20
76.1983765350692863
 30
0.0
 11
398.1869801448896737
 21
76.1932816719692738
 31
0.0
  0
LINE
  5
EB19
  8
0
 10
398.1869801448896737
 20
76.1932816719692738
 30
0.0
 11
398.1642498193896813
 21
76.1932816719692738
 31
0.0
  0
LINE
  5
EB1A
  8
0
 10
398.1642498193896813
 20
76.1932816719692738
 30
0.0
 11
398.1528846565897197
 21
76.1983765350692863
 31
0.0
  0
LINE
  5
EB1B
  8
0
 10
398.1528846565897197
 20
76.1983765350692863
 30
0.0
 11
398.1642498193896813
 21
76.2034713981692846
 31
0.0
  0
LINE
  5
EB1C
  8
0
 10
398.1642498193896813
 20
76.2034713981692846
 30
0.0
 11
398.1642498193896813
 21
76.1932816719692738
 31
0.0
  0
LINE
  5
EB1D
  8
0
 10
398.1869801448896737
 20
76.1932816719692738
 30
0.0
 11
398.1869801448896737
 21
76.2034713981692846
 31
0.0
  0
LINE
  5
EB1E
  8
0
 10
398.1642498193896813
 20
76.1917532130692763
 30
0.0
 11
398.1869801448896737
 21
76.1917532130692763
 31
0.0
  0
LINE
  5
EB1F
  8
0
 10
398.1869801448896737
 20
76.1917532130692763
 30
0.0
 11
398.1983453076896922
 21
76.186658349969278
 31
0.0
  0
LINE
  5
EB20
  8
0
 10
398.1983453076896922
 20
76.186658349969278
 30
0.0
 11
398.1869801448896737
 21
76.1815634868692797
 31
0.0
  0
LINE
  5
EB21
  8
0
 10
398.1869801448896737
 20
76.1815634868692797
 30
0.0
 11
398.1642498193896813
 21
76.1815634868692797
 31
0.0
  0
LINE
  5
EB22
  8
0
 10
398.1642498193896813
 20
76.1815634868692797
 30
0.0
 11
398.1528846565897197
 21
76.186658349969278
 31
0.0
  0
LINE
  5
EB23
  8
0
 10
398.1528846565897197
 20
76.186658349969278
 30
0.0
 11
398.1642498193896813
 21
76.1917532130692763
 31
0.0
  0
LINE
  5
EB24
  8
0
 10
398.1642498193896813
 20
76.1917532130692763
 30
0.0
 11
398.1642498193896813
 21
76.1815634868692797
 31
0.0
  0
LINE
  5
EB25
  8
0
 10
398.1869801448896737
 20
76.1815634868692797
 30
0.0
 11
398.1869801448896737
 21
76.1917532130692763
 31
0.0
  0
LINE
  5
EB26
  8
0
 10
398.1642498193896813
 20
76.1800350279692822
 30
0.0
 11
398.1869801448896737
 21
76.1800350279692822
 31
0.0
  0
LINE
  5
EB27
  8
0
 10
398.1869801448896737
 20
76.1800350279692822
 30
0.0
 11
398.1983453076896922
 21
76.1749401648692839
 31
0.0
  0
LINE
  5
EB28
  8
0
 10
398.1983453076896922
 20
76.1749401648692839
 30
0.0
 11
398.1869801448896737
 21
76.1698453017692714
 31
0.0
  0
LINE
  5
EB29
  8
0
 10
398.1869801448896737
 20
76.1698453017692714
 30
0.0
 11
398.1642498193896813
 21
76.1698453017692714
 31
0.0
  0
LINE
  5
EB2A
  8
0
 10
398.1642498193896813
 20
76.1698453017692714
 30
0.0
 11
398.1528846565897197
 21
76.1749401648692839
 31
0.0
  0
LINE
  5
EB2B
  8
0
 10
398.1528846565897197
 20
76.1749401648692839
 30
0.0
 11
398.1642498193896813
 21
76.1800350279692822
 31
0.0
  0
LINE
  5
EB2C
  8
0
 10
398.1642498193896813
 20
76.1800350279692822
 30
0.0
 11
398.1642498193896813
 21
76.1698453017692714
 31
0.0
  0
LINE
  5
EB2D
  8
0
 10
398.1869801448896737
 20
76.1698453017692714
 30
0.0
 11
398.1869801448896737
 21
76.1800350279692822
 31
0.0
  0
LINE
  5
EB2E
  8
0
 10
398.1642498193896813
 20
76.1683168428692738
 30
0.0
 11
398.1869801448896737
 21
76.1683168428692738
 31
0.0
  0
LINE
  5
EB2F
  8
0
 10
398.1869801448896737
 20
76.1683168428692738
 30
0.0
 11
398.1983453076896922
 21
76.1632219797692755
 31
0.0
  0
LINE
  5
EB30
  8
0
 10
398.1983453076896922
 20
76.1632219797692755
 30
0.0
 11
398.1869801448896737
 21
76.1581271166692773
 31
0.0
  0
LINE
  5
EB31
  8
0
 10
398.1869801448896737
 20
76.1581271166692773
 30
0.0
 11
398.1642498193896813
 21
76.1581271166692773
 31
0.0
  0
LINE
  5
EB32
  8
0
 10
398.1642498193896813
 20
76.1581271166692773
 30
0.0
 11
398.1528846565897197
 21
76.1632219797692755
 31
0.0
  0
LINE
  5
EB33
  8
0
 10
398.1528846565897197
 20
76.1632219797692755
 30
0.0
 11
398.1642498193896813
 21
76.1683168428692738
 31
0.0
  0
LINE
  5
EB34
  8
0
 10
398.1642498193896813
 20
76.1683168428692738
 30
0.0
 11
398.1642498193896813
 21
76.1581271166692773
 31
0.0
  0
LINE
  5
EB35
  8
0
 10
398.1869801448896737
 20
76.1581271166692773
 30
0.0
 11
398.1869801448896737
 21
76.1683168428692738
 31
0.0
  0
LINE
  5
EB36
  8
0
 10
398.1642498193896813
 20
76.1565986577692797
 30
0.0
 11
398.1869801448896737
 21
76.1565986577692797
 31
0.0
  0
LINE
  5
EB37
  8
0
 10
398.1869801448896737
 20
76.1565986577692797
 30
0.0
 11
398.1983453076896922
 21
76.1515037946692814
 31
0.0
  0
LINE
  5
EB38
  8
0
 10
398.1983453076896922
 20
76.1515037946692814
 30
0.0
 11
398.1869801448896737
 21
76.1464089315692831
 31
0.0
  0
LINE
  5
EB39
  8
0
 10
398.1869801448896737
 20
76.1464089315692831
 30
0.0
 11
398.1642498193896813
 21
76.1464089315692831
 31
0.0
  0
LINE
  5
EB3A
  8
0
 10
398.1642498193896813
 20
76.1464089315692831
 30
0.0
 11
398.1528846565897197
 21
76.1515037946692814
 31
0.0
  0
LINE
  5
EB3B
  8
0
 10
398.1528846565897197
 20
76.1515037946692814
 30
0.0
 11
398.1642498193896813
 21
76.1565986577692797
 31
0.0
  0
LINE
  5
EB3C
  8
0
 10
398.1642498193896813
 20
76.1565986577692797
 30
0.0
 11
398.1642498193896813
 21
76.1464089315692831
 31
0.0
  0
LINE
  5
EB3D
  8
0
 10
398.1869801448896737
 20
76.1464089315692831
 30
0.0
 11
398.1869801448896737
 21
76.1565986577692797
 31
0.0
  0
LINE
  5
EB3E
  8
0
 10
398.1642498193896813
 20
76.1448804725692838
 30
0.0
 11
398.1869801448896737
 21
76.1448804725692838
 31
0.0
  0
LINE
  5
EB3F
  8
0
 10
398.1869801448896737
 20
76.1448804725692838
 30
0.0
 11
398.1983453076896922
 21
76.1397856094692713
 31
0.0
  0
LINE
  5
EB40
  8
0
 10
398.1983453076896922
 20
76.1397856094692713
 30
0.0
 11
398.1869801448896737
 21
76.134690746369273
 31
0.0
  0
LINE
  5
EB41
  8
0
 10
398.1869801448896737
 20
76.134690746369273
 30
0.0
 11
398.1642498193896813
 21
76.134690746369273
 31
0.0
  0
LINE
  5
EB42
  8
0
 10
398.1642498193896813
 20
76.134690746369273
 30
0.0
 11
398.1528846565897197
 21
76.1397856094692713
 31
0.0
  0
LINE
  5
EB43
  8
0
 10
398.1528846565897197
 20
76.1397856094692713
 30
0.0
 11
398.1642498193896813
 21
76.1448804725692838
 31
0.0
  0
LINE
  5
EB44
  8
0
 10
398.1642498193896813
 20
76.1448804725692838
 30
0.0
 11
398.1642498193896813
 21
76.134690746369273
 31
0.0
  0
LINE
  5
EB45
  8
0
 10
398.1869801448896737
 20
76.134690746369273
 30
0.0
 11
398.1869801448896737
 21
76.1448804725692838
 31
0.0
  0
LINE
  5
EB46
  8
0
 10
398.1250400077897211
 20
76.1507395651692747
 30
0.0
 11
398.1477703332897136
 21
76.1507395651692747
 31
0.0
  0
LINE
  5
EB47
  8
0
 10
398.1477703332897136
 20
76.1507395651692747
 30
0.0
 11
398.1591354960896751
 21
76.1456447020692764
 31
0.0
  0
LINE
  5
EB48
  8
0
 10
398.1591354960896751
 20
76.1456447020692764
 30
0.0
 11
398.1477703332897136
 21
76.1405498389692639
 31
0.0
  0
LINE
  5
EB49
  8
0
 10
398.1477703332897136
 20
76.1405498389692639
 30
0.0
 11
398.1250400077897211
 21
76.1405498389692639
 31
0.0
  0
LINE
  5
EB4A
  8
0
 10
398.1250400077897211
 20
76.1405498389692639
 30
0.0
 11
398.113674844989589
 21
76.1456447020692764
 31
0.0
  0
LINE
  5
EB4B
  8
0
 10
398.113674844989589
 20
76.1456447020692764
 30
0.0
 11
398.1250400077897211
 21
76.1507395651692747
 31
0.0
  0
LINE
  5
EB4C
  8
0
 10
398.1250400077897211
 20
76.1507395651692747
 30
0.0
 11
398.1250400077897211
 21
76.1405498389692639
 31
0.0
  0
LINE
  5
EB4D
  8
0
 10
398.1477703332897136
 20
76.1405498389692639
 30
0.0
 11
398.1477703332897136
 21
76.1507395651692747
 31
0.0
  0
LINE
  5
EB4E
  8
0
 10
398.1250400077897211
 20
76.162457750269283
 30
0.0
 11
398.1477703332897136
 21
76.162457750269283
 31
0.0
  0
LINE
  5
EB4F
  8
0
 10
398.1477703332897136
 20
76.162457750269283
 30
0.0
 11
398.1591354960896751
 21
76.1573628871692847
 31
0.0
  0
LINE
  5
EB50
  8
0
 10
398.1591354960896751
 20
76.1573628871692847
 30
0.0
 11
398.1477703332897136
 21
76.1522680240692864
 31
0.0
  0
LINE
  5
EB51
  8
0
 10
398.1477703332897136
 20
76.1522680240692864
 30
0.0
 11
398.1250400077897211
 21
76.1522680240692722
 31
0.0
  0
LINE
  5
EB52
  8
0
 10
398.1250400077897211
 20
76.1522680240692722
 30
0.0
 11
398.113674844989589
 21
76.1573628871692847
 31
0.0
  0
LINE
  5
EB53
  8
0
 10
398.113674844989589
 20
76.1573628871692847
 30
0.0
 11
398.1250400077897211
 21
76.162457750269283
 31
0.0
  0
LINE
  5
EB54
  8
0
 10
398.1250400077897211
 20
76.162457750269283
 30
0.0
 11
398.1250400077897211
 21
76.1522680240692722
 31
0.0
  0
LINE
  5
EB55
  8
0
 10
398.1477703332897136
 20
76.1522680240692864
 30
0.0
 11
398.1477703332897136
 21
76.162457750269283
 31
0.0
  0
LINE
  5
EB56
  8
0
 10
398.1250400077897211
 20
76.1741759353692629
 30
0.0
 11
398.1477703332897136
 21
76.1741759353692629
 31
0.0
  0
LINE
  5
EB57
  8
0
 10
398.1477703332897136
 20
76.1741759353692629
 30
0.0
 11
398.1591354960896751
 21
76.1690810722692788
 31
0.0
  0
LINE
  5
EB58
  8
0
 10
398.1591354960896751
 20
76.1690810722692788
 30
0.0
 11
398.1477703332897136
 21
76.1639862091692805
 31
0.0
  0
LINE
  5
EB59
  8
0
 10
398.1477703332897136
 20
76.1639862091692805
 30
0.0
 11
398.1250400077897211
 21
76.1639862091692805
 31
0.0
  0
LINE
  5
EB5A
  8
0
 10
398.1250400077897211
 20
76.1639862091692805
 30
0.0
 11
398.113674844989589
 21
76.1690810722692788
 31
0.0
  0
LINE
  5
EB5B
  8
0
 10
398.113674844989589
 20
76.1690810722692788
 30
0.0
 11
398.1250400077897211
 21
76.1741759353692629
 31
0.0
  0
LINE
  5
EB5C
  8
0
 10
398.1250400077897211
 20
76.1741759353692629
 30
0.0
 11
398.1250400077897211
 21
76.1639862091692805
 31
0.0
  0
LINE
  5
EB5D
  8
0
 10
398.1477703332897136
 20
76.1639862091692805
 30
0.0
 11
398.1477703332897136
 21
76.1741759353692629
 31
0.0
  0
LINE
  5
EB5E
  8
0
 10
398.1250400077897211
 20
76.1976123056692813
 30
0.0
 11
398.1477703332897136
 21
76.1976123056692813
 31
0.0
  0
LINE
  5
EB5F
  8
0
 10
398.1477703332897136
 20
76.1976123056692813
 30
0.0
 11
398.1591354960896751
 21
76.192517442569283
 31
0.0
  0
LINE
  5
EB60
  8
0
 10
398.1591354960896751
 20
76.192517442569283
 30
0.0
 11
398.1477703332897136
 21
76.1874225794692848
 31
0.0
  0
LINE
  5
EB61
  8
0
 10
398.1477703332897136
 20
76.1874225794692848
 30
0.0
 11
398.1250400077897211
 21
76.1874225794692848
 31
0.0
  0
LINE
  5
EB62
  8
0
 10
398.1250400077897211
 20
76.1874225794692848
 30
0.0
 11
398.113674844989589
 21
76.192517442569283
 31
0.0
  0
LINE
  5
EB63
  8
0
 10
398.113674844989589
 20
76.192517442569283
 30
0.0
 11
398.1250400077897211
 21
76.1976123056692813
 31
0.0
  0
LINE
  5
EB64
  8
0
 10
398.1250400077897211
 20
76.1976123056692813
 30
0.0
 11
398.1250400077897211
 21
76.1874225794692848
 31
0.0
  0
LINE
  5
EB65
  8
0
 10
398.1477703332897136
 20
76.1874225794692848
 30
0.0
 11
398.1477703332897136
 21
76.1976123056692813
 31
0.0
  0
LINE
  5
EB66
  8
0
 10
398.1250400077897211
 20
76.2093304907692755
 30
0.0
 11
398.1477703332897136
 21
76.2093304907692755
 31
0.0
  0
LINE
  5
EB67
  8
0
 10
398.1477703332897136
 20
76.2093304907692755
 30
0.0
 11
398.1591354960896751
 21
76.204235627669263
 31
0.0
  0
LINE
  5
EB68
  8
0
 10
398.1591354960896751
 20
76.204235627669263
 30
0.0
 11
398.1477703332897136
 21
76.1991407645692789
 31
0.0
  0
LINE
  5
EB69
  8
0
 10
398.1477703332897136
 20
76.1991407645692789
 30
0.0
 11
398.1250400077897211
 21
76.1991407645692789
 31
0.0
  0
LINE
  5
EB6A
  8
0
 10
398.1250400077897211
 20
76.1991407645692789
 30
0.0
 11
398.113674844989589
 21
76.204235627669263
 31
0.0
  0
LINE
  5
EB6B
  8
0
 10
398.113674844989589
 20
76.204235627669263
 30
0.0
 11
398.1250400077897211
 21
76.2093304907692755
 31
0.0
  0
LINE
  5
EB6C
  8
0
 10
398.1250400077897211
 20
76.2093304907692755
 30
0.0
 11
398.1250400077897211
 21
76.1991407645692789
 31
0.0
  0
LINE
  5
EB6D
  8
0
 10
398.1477703332897136
 20
76.1991407645692789
 30
0.0
 11
398.1477703332897136
 21
76.2093304907692755
 31
0.0
  0
LINE
  5
EB6E
  8
0
 10
398.1250400077897211
 20
76.2210486758692554
 30
0.0
 11
398.1477703332897136
 21
76.2210486758692554
 31
0.0
  0
LINE
  5
EB6F
  8
0
 10
398.1477703332897136
 20
76.2210486758692554
 30
0.0
 11
398.1591354960896751
 21
76.2159538127692713
 31
0.0
  0
LINE
  5
EB70
  8
0
 10
398.1591354960896751
 20
76.2159538127692713
 30
0.0
 11
398.1477703332897136
 21
76.210858949669273
 31
0.0
  0
LINE
  5
EB71
  8
0
 10
398.1477703332897136
 20
76.210858949669273
 30
0.0
 11
398.1250400077897211
 21
76.210858949669273
 31
0.0
  0
LINE
  5
EB72
  8
0
 10
398.1250400077897211
 20
76.210858949669273
 30
0.0
 11
398.113674844989589
 21
76.2159538127692713
 31
0.0
  0
LINE
  5
EB73
  8
0
 10
398.113674844989589
 20
76.2159538127692713
 30
0.0
 11
398.1250400077897211
 21
76.2210486758692554
 31
0.0
  0
LINE
  5
EB74
  8
0
 10
398.1250400077897211
 20
76.2210486758692554
 30
0.0
 11
398.1250400077897211
 21
76.210858949669273
 31
0.0
  0
LINE
  5
EB75
  8
0
 10
398.1477703332897136
 20
76.210858949669273
 30
0.0
 11
398.1477703332897136
 21
76.2210486758692554
 31
0.0
  0
LINE
  5
EB76
  8
0
 10
398.1250400077897211
 20
76.2327668609692779
 30
0.0
 11
398.1477703332897136
 21
76.2327668609692779
 31
0.0
  0
LINE
  5
EB77
  8
0
 10
398.1477703332897136
 20
76.2327668609692779
 30
0.0
 11
398.1591354960896751
 21
76.2276719978692654
 31
0.0
  0
LINE
  5
EB78
  8
0
 10
398.1591354960896751
 20
76.2276719978692654
 30
0.0
 11
398.1477703332897136
 21
76.2225771347692813
 31
0.0
  0
LINE
  5
EB79
  8
0
 10
398.1477703332897136
 20
76.2225771347692813
 30
0.0
 11
398.1250400077897211
 21
76.2225771347692813
 31
0.0
  0
LINE
  5
EB7A
  8
0
 10
398.1250400077897211
 20
76.2225771347692813
 30
0.0
 11
398.113674844989589
 21
76.2276719978692654
 31
0.0
  0
LINE
  5
EB7B
  8
0
 10
398.113674844989589
 20
76.2276719978692654
 30
0.0
 11
398.1250400077897211
 21
76.2327668609692779
 31
0.0
  0
LINE
  5
EB7C
  8
0
 10
398.1250400077897211
 20
76.2327668609692779
 30
0.0
 11
398.1250400077897211
 21
76.2225771347692813
 31
0.0
  0
LINE
  5
EB7D
  8
0
 10
398.1477703332897136
 20
76.2225771347692813
 30
0.0
 11
398.1477703332897136
 21
76.2327668609692779
 31
0.0
  0
LINE
  5
EB7E
  8
0
 10
398.1250400077897211
 20
76.2444850460692862
 30
0.0
 11
398.1477703332897136
 21
76.2444850460692862
 31
0.0
  0
LINE
  5
EB7F
  8
0
 10
398.1477703332897136
 20
76.2444850460692862
 30
0.0
 11
398.1591354960896751
 21
76.2393901829692737
 31
0.0
  0
LINE
  5
EB80
  8
0
 10
398.1591354960896751
 20
76.2393901829692737
 30
0.0
 11
398.1477703332897136
 21
76.2342953198692754
 31
0.0
  0
LINE
  5
EB81
  8
0
 10
398.1477703332897136
 20
76.2342953198692754
 30
0.0
 11
398.1250400077897211
 21
76.2342953198692754
 31
0.0
  0
LINE
  5
EB82
  8
0
 10
398.1250400077897211
 20
76.2342953198692754
 30
0.0
 11
398.113674844989589
 21
76.2393901829692737
 31
0.0
  0
LINE
  5
EB83
  8
0
 10
398.113674844989589
 20
76.2393901829692737
 30
0.0
 11
398.1250400077897211
 21
76.2444850460692862
 31
0.0
  0
LINE
  5
EB84
  8
0
 10
398.1250400077897211
 20
76.2444850460692862
 30
0.0
 11
398.1250400077897211
 21
76.2342953198692754
 31
0.0
  0
LINE
  5
EB85
  8
0
 10
398.1477703332897136
 20
76.2342953198692754
 30
0.0
 11
398.1477703332897136
 21
76.2444850460692862
 31
0.0
  0
LINE
  5
EB86
  8
0
 10
398.1250400077897211
 20
76.2562032311692803
 30
0.0
 11
398.1477703332897136
 21
76.2562032311692803
 31
0.0
  0
LINE
  5
EB87
  8
0
 10
398.1477703332897136
 20
76.2562032311692803
 30
0.0
 11
398.1591354960896751
 21
76.2511083680692821
 31
0.0
  0
LINE
  5
EB88
  8
0
 10
398.1591354960896751
 20
76.2511083680692821
 30
0.0
 11
398.1477703332897136
 21
76.2460135049692838
 31
0.0
  0
LINE
  5
EB89
  8
0
 10
398.1477703332897136
 20
76.2460135049692838
 30
0.0
 11
398.1250400077897211
 21
76.2460135049692838
 31
0.0
  0
LINE
  5
EB8A
  8
0
 10
398.1250400077897211
 20
76.2460135049692838
 30
0.0
 11
398.113674844989589
 21
76.2511083680692821
 31
0.0
  0
LINE
  5
EB8B
  8
0
 10
398.113674844989589
 20
76.2511083680692821
 30
0.0
 11
398.1250400077897211
 21
76.2562032311692803
 31
0.0
  0
LINE
  5
EB8C
  8
0
 10
398.1250400077897211
 20
76.2562032311692803
 30
0.0
 11
398.1250400077897211
 21
76.2460135049692838
 31
0.0
  0
LINE
  5
EB8D
  8
0
 10
398.1477703332897136
 20
76.2460135049692838
 30
0.0
 11
398.1477703332897136
 21
76.2562032311692803
 31
0.0
  0
LINE
  5
EB8E
  8
0
 10
398.1250400077897211
 20
76.2679214162692745
 30
0.0
 11
398.1477703332897136
 21
76.2679214162692745
 31
0.0
  0
LINE
  5
EB8F
  8
0
 10
398.1477703332897136
 20
76.2679214162692745
 30
0.0
 11
398.1591354960896751
 21
76.2628265531692762
 31
0.0
  0
LINE
  5
EB90
  8
0
 10
398.1591354960896751
 20
76.2628265531692762
 30
0.0
 11
398.1477703332897136
 21
76.2577316900692779
 31
0.0
  0
LINE
  5
EB91
  8
0
 10
398.1477703332897136
 20
76.2577316900692779
 30
0.0
 11
398.1250400077897211
 21
76.2577316900692779
 31
0.0
  0
LINE
  5
EB92
  8
0
 10
398.1250400077897211
 20
76.2577316900692779
 30
0.0
 11
398.113674844989589
 21
76.2628265531692762
 31
0.0
  0
LINE
  5
EB93
  8
0
 10
398.113674844989589
 20
76.2628265531692762
 30
0.0
 11
398.1250400077897211
 21
76.2679214162692745
 31
0.0
  0
LINE
  5
EB94
  8
0
 10
398.1250400077897211
 20
76.2679214162692745
 30
0.0
 11
398.1250400077897211
 21
76.2577316900692779
 31
0.0
  0
LINE
  5
EB95
  8
0
 10
398.1477703332897136
 20
76.2577316900692779
 30
0.0
 11
398.1477703332897136
 21
76.2679214162692745
 31
0.0
  0
LINE
  5
EB96
  8
0
 10
398.0858301961895904
 20
76.2620623237692712
 30
0.0
 11
398.1085605216896965
 21
76.2620623237692712
 31
0.0
  0
LINE
  5
EB97
  8
0
 10
398.1085605216896965
 20
76.2620623237692712
 30
0.0
 11
398.119925684489715
 21
76.2569674606692729
 31
0.0
  0
LINE
  5
EB98
  8
0
 10
398.119925684489715
 20
76.2569674606692729
 30
0.0
 11
398.1085605216896965
 21
76.2518725975692746
 31
0.0
  0
LINE
  5
EB99
  8
0
 10
398.1085605216896965
 20
76.2518725975692746
 30
0.0
 11
398.0858301961895904
 21
76.2518725975692746
 31
0.0
  0
LINE
  5
EB9A
  8
0
 10
398.0858301961895904
 20
76.2518725975692746
 30
0.0
 11
398.0744650333896857
 21
76.2569674606692729
 31
0.0
  0
LINE
  5
EB9B
  8
0
 10
398.0744650333896857
 20
76.2569674606692729
 30
0.0
 11
398.0858301961895904
 21
76.2620623237692712
 31
0.0
  0
LINE
  5
EB9C
  8
0
 10
398.0858301961895904
 20
76.2620623237692712
 30
0.0
 11
398.0858301961895904
 21
76.2518725975692746
 31
0.0
  0
LINE
  5
EB9D
  8
0
 10
398.1085605216896965
 20
76.2518725975692746
 30
0.0
 11
398.1085605216896965
 21
76.2620623237692712
 31
0.0
  0
LINE
  5
EB9E
  8
0
 10
398.0858301961895904
 20
76.2503441386692771
 30
0.0
 11
398.1085605216896965
 21
76.2503441386692771
 31
0.0
  0
LINE
  5
EB9F
  8
0
 10
398.1085605216896965
 20
76.2503441386692771
 30
0.0
 11
398.119925684489715
 21
76.2452492755692788
 31
0.0
  0
LINE
  5
EBA0
  8
0
 10
398.119925684489715
 20
76.2452492755692788
 30
0.0
 11
398.1085605216896965
 21
76.2401544124692805
 31
0.0
  0
LINE
  5
EBA1
  8
0
 10
398.1085605216896965
 20
76.2401544124692805
 30
0.0
 11
398.0858301961895904
 21
76.2401544124692805
 31
0.0
  0
LINE
  5
EBA2
  8
0
 10
398.0858301961895904
 20
76.2401544124692805
 30
0.0
 11
398.0744650333896857
 21
76.2452492755692788
 31
0.0
  0
LINE
  5
EBA3
  8
0
 10
398.0744650333896857
 20
76.2452492755692788
 30
0.0
 11
398.0858301961895904
 21
76.2503441386692771
 31
0.0
  0
LINE
  5
EBA4
  8
0
 10
398.0858301961895904
 20
76.2503441386692771
 30
0.0
 11
398.0858301961895904
 21
76.2401544124692805
 31
0.0
  0
LINE
  5
EBA5
  8
0
 10
398.1085605216896965
 20
76.2401544124692805
 30
0.0
 11
398.1085605216896965
 21
76.2503441386692771
 31
0.0
  0
LINE
  5
EBA6
  8
0
 10
398.0858301961895904
 20
76.2269077683692728
 30
0.0
 11
398.1085605216896965
 21
76.2269077683692728
 31
0.0
  0
LINE
  5
EBA7
  8
0
 10
398.1085605216896965
 20
76.2269077683692728
 30
0.0
 11
398.119925684489715
 21
76.2218129052692746
 31
0.0
  0
LINE
  5
EBA8
  8
0
 10
398.119925684489715
 20
76.2218129052692746
 30
0.0
 11
398.1085605216896965
 21
76.2167180421692763
 31
0.0
  0
LINE
  5
EBA9
  8
0
 10
398.1085605216896965
 20
76.2167180421692763
 30
0.0
 11
398.0858301961895904
 21
76.2167180421692763
 31
0.0
  0
LINE
  5
EBAA
  8
0
 10
398.0858301961895904
 20
76.2167180421692763
 30
0.0
 11
398.0744650333896857
 21
76.2218129052692746
 31
0.0
  0
LINE
  5
EBAB
  8
0
 10
398.0744650333896857
 20
76.2218129052692746
 30
0.0
 11
398.0858301961895904
 21
76.2269077683692728
 31
0.0
  0
LINE
  5
EBAC
  8
0
 10
398.0858301961895904
 20
76.2269077683692728
 30
0.0
 11
398.0858301961895904
 21
76.2167180421692763
 31
0.0
  0
LINE
  5
EBAD
  8
0
 10
398.1085605216896965
 20
76.2167180421692763
 30
0.0
 11
398.1085605216896965
 21
76.2269077683692728
 31
0.0
  0
LINE
  5
EBAE
  8
0
 10
398.0858301961895904
 20
76.2151895832692787
 30
0.0
 11
398.1085605216896965
 21
76.2151895832692787
 31
0.0
  0
LINE
  5
EBAF
  8
0
 10
398.1085605216896965
 20
76.2151895832692787
 30
0.0
 11
398.119925684489715
 21
76.2100947201692804
 31
0.0
  0
LINE
  5
EBB0
  8
0
 10
398.119925684489715
 20
76.2100947201692804
 30
0.0
 11
398.1085605216896965
 21
76.2049998570692821
 31
0.0
  0
LINE
  5
EBB1
  8
0
 10
398.1085605216896965
 20
76.2049998570692821
 30
0.0
 11
398.0858301961895904
 21
76.2049998570692821
 31
0.0
  0
LINE
  5
EBB2
  8
0
 10
398.0858301961895904
 20
76.2049998570692821
 30
0.0
 11
398.0744650333896857
 21
76.2100947201692804
 31
0.0
  0
LINE
  5
EBB3
  8
0
 10
398.0744650333896857
 20
76.2100947201692804
 30
0.0
 11
398.0858301961895904
 21
76.2151895832692787
 31
0.0
  0
LINE
  5
EBB4
  8
0
 10
398.0858301961895904
 20
76.2151895832692787
 30
0.0
 11
398.0858301961895904
 21
76.2049998570692821
 31
0.0
  0
LINE
  5
EBB5
  8
0
 10
398.1085605216896965
 20
76.2049998570692821
 30
0.0
 11
398.1085605216896965
 21
76.2151895832692787
 31
0.0
  0
LINE
  5
EBB6
  8
0
 10
398.0858301961895904
 20
76.2034713981692846
 30
0.0
 11
398.1085605216896965
 21
76.2034713981692846
 31
0.0
  0
LINE
  5
EBB7
  8
0
 10
398.1085605216896965
 20
76.2034713981692846
 30
0.0
 11
398.119925684489715
 21
76.1983765350692863
 31
0.0
  0
LINE
  5
EBB8
  8
0
 10
398.119925684489715
 20
76.1983765350692863
 30
0.0
 11
398.1085605216896965
 21
76.1932816719692738
 31
0.0
  0
LINE
  5
EBB9
  8
0
 10
398.1085605216896965
 20
76.1932816719692738
 30
0.0
 11
398.0858301961895904
 21
76.1932816719692738
 31
0.0
  0
LINE
  5
EBBA
  8
0
 10
398.0858301961895904
 20
76.1932816719692738
 30
0.0
 11
398.0744650333896857
 21
76.1983765350692863
 31
0.0
  0
LINE
  5
EBBB
  8
0
 10
398.0744650333896857
 20
76.1983765350692863
 30
0.0
 11
398.0858301961895904
 21
76.2034713981692846
 31
0.0
  0
LINE
  5
EBBC
  8
0
 10
398.0858301961895904
 20
76.2034713981692846
 30
0.0
 11
398.0858301961895904
 21
76.1932816719692738
 31
0.0
  0
LINE
  5
EBBD
  8
0
 10
398.1085605216896965
 20
76.1932816719692738
 30
0.0
 11
398.1085605216896965
 21
76.2034713981692846
 31
0.0
  0
LINE
  5
EBBE
  8
0
 10
398.0858301961895904
 20
76.1917532130692763
 30
0.0
 11
398.1085605216896965
 21
76.1917532130692763
 31
0.0
  0
LINE
  5
EBBF
  8
0
 10
398.1085605216896965
 20
76.1917532130692763
 30
0.0
 11
398.119925684489715
 21
76.186658349969278
 31
0.0
  0
LINE
  5
EBC0
  8
0
 10
398.119925684489715
 20
76.186658349969278
 30
0.0
 11
398.1085605216896965
 21
76.1815634868692797
 31
0.0
  0
LINE
  5
EBC1
  8
0
 10
398.1085605216896965
 20
76.1815634868692797
 30
0.0
 11
398.0858301961895904
 21
76.1815634868692797
 31
0.0
  0
LINE
  5
EBC2
  8
0
 10
398.0858301961895904
 20
76.1815634868692797
 30
0.0
 11
398.0744650333896857
 21
76.186658349969278
 31
0.0
  0
LINE
  5
EBC3
  8
0
 10
398.0744650333896857
 20
76.186658349969278
 30
0.0
 11
398.0858301961895904
 21
76.1917532130692763
 31
0.0
  0
LINE
  5
EBC4
  8
0
 10
398.0858301961895904
 20
76.1917532130692763
 30
0.0
 11
398.0858301961895904
 21
76.1815634868692797
 31
0.0
  0
LINE
  5
EBC5
  8
0
 10
398.1085605216896965
 20
76.1815634868692797
 30
0.0
 11
398.1085605216896965
 21
76.1917532130692763
 31
0.0
  0
LINE
  5
EBC6
  8
0
 10
398.0858301961895904
 20
76.1800350279692822
 30
0.0
 11
398.1085605216896965
 21
76.1800350279692822
 31
0.0
  0
LINE
  5
EBC7
  8
0
 10
398.1085605216896965
 20
76.1800350279692822
 30
0.0
 11
398.119925684489715
 21
76.1749401648692839
 31
0.0
  0
LINE
  5
EBC8
  8
0
 10
398.119925684489715
 20
76.1749401648692839
 30
0.0
 11
398.1085605216896965
 21
76.1698453017692714
 31
0.0
  0
LINE
  5
EBC9
  8
0
 10
398.1085605216896965
 20
76.1698453017692714
 30
0.0
 11
398.0858301961895904
 21
76.1698453017692714
 31
0.0
  0
LINE
  5
EBCA
  8
0
 10
398.0858301961895904
 20
76.1698453017692714
 30
0.0
 11
398.0744650333896857
 21
76.1749401648692839
 31
0.0
  0
LINE
  5
EBCB
  8
0
 10
398.0744650333896857
 20
76.1749401648692839
 30
0.0
 11
398.0858301961895904
 21
76.1800350279692822
 31
0.0
  0
LINE
  5
EBCC
  8
0
 10
398.0858301961895904
 20
76.1800350279692822
 30
0.0
 11
398.0858301961895904
 21
76.1698453017692714
 31
0.0
  0
LINE
  5
EBCD
  8
0
 10
398.1085605216896965
 20
76.1698453017692714
 30
0.0
 11
398.1085605216896965
 21
76.1800350279692822
 31
0.0
  0
LINE
  5
EBCE
  8
0
 10
398.0858301961895904
 20
76.1683168428692738
 30
0.0
 11
398.1085605216896965
 21
76.1683168428692738
 31
0.0
  0
LINE
  5
EBCF
  8
0
 10
398.1085605216896965
 20
76.1683168428692738
 30
0.0
 11
398.119925684489715
 21
76.1632219797692755
 31
0.0
  0
LINE
  5
EBD0
  8
0
 10
398.119925684489715
 20
76.1632219797692755
 30
0.0
 11
398.1085605216896965
 21
76.1581271166692773
 31
0.0
  0
LINE
  5
EBD1
  8
0
 10
398.1085605216896965
 20
76.1581271166692773
 30
0.0
 11
398.0858301961895904
 21
76.1581271166692773
 31
0.0
  0
LINE
  5
EBD2
  8
0
 10
398.0858301961895904
 20
76.1581271166692773
 30
0.0
 11
398.0744650333896857
 21
76.1632219797692755
 31
0.0
  0
LINE
  5
EBD3
  8
0
 10
398.0744650333896857
 20
76.1632219797692755
 30
0.0
 11
398.0858301961895904
 21
76.1683168428692738
 31
0.0
  0
LINE
  5
EBD4
  8
0
 10
398.0858301961895904
 20
76.1683168428692738
 30
0.0
 11
398.0858301961895904
 21
76.1581271166692773
 31
0.0
  0
LINE
  5
EBD5
  8
0
 10
398.1085605216896965
 20
76.1581271166692773
 30
0.0
 11
398.1085605216896965
 21
76.1683168428692738
 31
0.0
  0
LINE
  5
EBD6
  8
0
 10
398.0858301961895904
 20
76.1565986577692797
 30
0.0
 11
398.1085605216896965
 21
76.1565986577692797
 31
0.0
  0
LINE
  5
EBD7
  8
0
 10
398.1085605216896965
 20
76.1565986577692797
 30
0.0
 11
398.119925684489715
 21
76.1515037946692814
 31
0.0
  0
LINE
  5
EBD8
  8
0
 10
398.119925684489715
 20
76.1515037946692814
 30
0.0
 11
398.1085605216896965
 21
76.1464089315692831
 31
0.0
  0
LINE
  5
EBD9
  8
0
 10
398.1085605216896965
 20
76.1464089315692831
 30
0.0
 11
398.0858301961895904
 21
76.1464089315692831
 31
0.0
  0
LINE
  5
EBDA
  8
0
 10
398.0858301961895904
 20
76.1464089315692831
 30
0.0
 11
398.0744650333896857
 21
76.1515037946692814
 31
0.0
  0
LINE
  5
EBDB
  8
0
 10
398.0744650333896857
 20
76.1515037946692814
 30
0.0
 11
398.0858301961895904
 21
76.1565986577692797
 31
0.0
  0
LINE
  5
EBDC
  8
0
 10
398.0858301961895904
 20
76.1565986577692797
 30
0.0
 11
398.0858301961895904
 21
76.1464089315692831
 31
0.0
  0
LINE
  5
EBDD
  8
0
 10
398.1085605216896965
 20
76.1464089315692831
 30
0.0
 11
398.1085605216896965
 21
76.1565986577692797
 31
0.0
  0
LINE
  5
EBDE
  8
0
 10
398.0858301961895904
 20
76.1448804725692838
 30
0.0
 11
398.1085605216896965
 21
76.1448804725692838
 31
0.0
  0
LINE
  5
EBDF
  8
0
 10
398.1085605216896965
 20
76.1448804725692838
 30
0.0
 11
398.119925684489715
 21
76.1397856094692713
 31
0.0
  0
LINE
  5
EBE0
  8
0
 10
398.119925684489715
 20
76.1397856094692713
 30
0.0
 11
398.1085605216896965
 21
76.134690746369273
 31
0.0
  0
LINE
  5
EBE1
  8
0
 10
398.1085605216896965
 20
76.134690746369273
 30
0.0
 11
398.0858301961895904
 21
76.134690746369273
 31
0.0
  0
LINE
  5
EBE2
  8
0
 10
398.0858301961895904
 20
76.134690746369273
 30
0.0
 11
398.0744650333896857
 21
76.1397856094692713
 31
0.0
  0
LINE
  5
EBE3
  8
0
 10
398.0744650333896857
 20
76.1397856094692713
 30
0.0
 11
398.0858301961895904
 21
76.1448804725692838
 31
0.0
  0
LINE
  5
EBE4
  8
0
 10
398.0858301961895904
 20
76.1448804725692838
 30
0.0
 11
398.0858301961895904
 21
76.134690746369273
 31
0.0
  0
LINE
  5
EBE5
  8
0
 10
398.1085605216896965
 20
76.134690746369273
 30
0.0
 11
398.1085605216896965
 21
76.1448804725692838
 31
0.0
  0
LINE
  5
EBE6
  8
0
 10
398.1250400077897211
 20
76.1390213800692806
 30
0.0
 11
398.1477703332897136
 21
76.1390213800692806
 31
0.0
  0
LINE
  5
EBE7
  8
0
 10
398.1477703332897136
 20
76.1390213800692806
 30
0.0
 11
398.1591354960896751
 21
76.1339265169692823
 31
0.0
  0
LINE
  5
EBE8
  8
0
 10
398.1591354960896751
 20
76.1339265169692823
 30
0.0
 11
398.1477703332897136
 21
76.128831653869284
 31
0.0
  0
LINE
  5
EBE9
  8
0
 10
398.1477703332897136
 20
76.128831653869284
 30
0.0
 11
398.1250400077897211
 21
76.1288316538692698
 31
0.0
  0
LINE
  5
EBEA
  8
0
 10
398.1250400077897211
 20
76.1288316538692698
 30
0.0
 11
398.113674844989589
 21
76.1339265169692823
 31
0.0
  0
LINE
  5
EBEB
  8
0
 10
398.113674844989589
 20
76.1339265169692823
 30
0.0
 11
398.1250400077897211
 21
76.1390213800692806
 31
0.0
  0
LINE
  5
EBEC
  8
0
 10
398.1250400077897211
 20
76.1390213800692806
 30
0.0
 11
398.1250400077897211
 21
76.1288316538692698
 31
0.0
  0
LINE
  5
EBED
  8
0
 10
398.1477703332897136
 20
76.128831653869284
 30
0.0
 11
398.1477703332897136
 21
76.1390213800692806
 31
0.0
  0
LINE
  5
EBEE
  8
0
 10
398.0466203845896871
 20
76.1507395651692747
 30
0.0
 11
398.0693507100896795
 21
76.1507395651692747
 31
0.0
  0
LINE
  5
EBEF
  8
0
 10
398.0693507100896795
 20
76.1507395651692747
 30
0.0
 11
398.0807158728896979
 21
76.1456447020692764
 31
0.0
  0
LINE
  5
EBF0
  8
0
 10
398.0807158728896979
 20
76.1456447020692764
 30
0.0
 11
398.0693507100896795
 21
76.1405498389692639
 31
0.0
  0
LINE
  5
EBF1
  8
0
 10
398.0693507100896795
 20
76.1405498389692639
 30
0.0
 11
398.0466203845896871
 21
76.1405498389692639
 31
0.0
  0
LINE
  5
EBF2
  8
0
 10
398.0466203845896871
 20
76.1405498389692639
 30
0.0
 11
398.0352552217897255
 21
76.1456447020692764
 31
0.0
  0
LINE
  5
EBF3
  8
0
 10
398.0352552217897255
 20
76.1456447020692764
 30
0.0
 11
398.0466203845896871
 21
76.1507395651692747
 31
0.0
  0
LINE
  5
EBF4
  8
0
 10
398.0466203845896871
 20
76.1507395651692747
 30
0.0
 11
398.0466203845896871
 21
76.1405498389692639
 31
0.0
  0
LINE
  5
EBF5
  8
0
 10
398.0693507100896795
 20
76.1405498389692639
 30
0.0
 11
398.0693507100896795
 21
76.1507395651692747
 31
0.0
  0
LINE
  5
EBF6
  8
0
 10
398.0466203845896871
 20
76.162457750269283
 30
0.0
 11
398.0693507100896795
 21
76.162457750269283
 31
0.0
  0
LINE
  5
EBF7
  8
0
 10
398.0693507100896795
 20
76.162457750269283
 30
0.0
 11
398.0807158728896979
 21
76.1573628871692847
 31
0.0
  0
LINE
  5
EBF8
  8
0
 10
398.0807158728896979
 20
76.1573628871692847
 30
0.0
 11
398.0693507100896795
 21
76.1522680240692864
 31
0.0
  0
LINE
  5
EBF9
  8
0
 10
398.0693507100896795
 20
76.1522680240692864
 30
0.0
 11
398.0466203845896871
 21
76.1522680240692722
 31
0.0
  0
LINE
  5
EBFA
  8
0
 10
398.0466203845896871
 20
76.1522680240692722
 30
0.0
 11
398.0352552217897255
 21
76.1573628871692847
 31
0.0
  0
LINE
  5
EBFB
  8
0
 10
398.0352552217897255
 20
76.1573628871692847
 30
0.0
 11
398.0466203845896871
 21
76.162457750269283
 31
0.0
  0
LINE
  5
EBFC
  8
0
 10
398.0466203845896871
 20
76.162457750269283
 30
0.0
 11
398.0466203845896871
 21
76.1522680240692722
 31
0.0
  0
LINE
  5
EBFD
  8
0
 10
398.0693507100896795
 20
76.1522680240692864
 30
0.0
 11
398.0693507100896795
 21
76.162457750269283
 31
0.0
  0
LINE
  5
EBFE
  8
0
 10
398.0466203845896871
 20
76.1741759353692629
 30
0.0
 11
398.0693507100896795
 21
76.1741759353692629
 31
0.0
  0
LINE
  5
EBFF
  8
0
 10
398.0693507100896795
 20
76.1741759353692629
 30
0.0
 11
398.0807158728896979
 21
76.1690810722692788
 31
0.0
  0
LINE
  5
EC00
  8
0
 10
398.0807158728896979
 20
76.1690810722692788
 30
0.0
 11
398.0693507100896795
 21
76.1639862091692805
 31
0.0
  0
LINE
  5
EC01
  8
0
 10
398.0693507100896795
 20
76.1639862091692805
 30
0.0
 11
398.0466203845896871
 21
76.1639862091692805
 31
0.0
  0
LINE
  5
EC02
  8
0
 10
398.0466203845896871
 20
76.1639862091692805
 30
0.0
 11
398.0352552217897255
 21
76.1690810722692788
 31
0.0
  0
LINE
  5
EC03
  8
0
 10
398.0352552217897255
 20
76.1690810722692788
 30
0.0
 11
398.0466203845896871
 21
76.1741759353692629
 31
0.0
  0
LINE
  5
EC04
  8
0
 10
398.0466203845896871
 20
76.1741759353692629
 30
0.0
 11
398.0466203845896871
 21
76.1639862091692805
 31
0.0
  0
LINE
  5
EC05
  8
0
 10
398.0693507100896795
 20
76.1639862091692805
 30
0.0
 11
398.0693507100896795
 21
76.1741759353692629
 31
0.0
  0
LINE
  5
EC06
  8
0
 10
398.0466203845896871
 20
76.1858941204692712
 30
0.0
 11
398.0693507100896795
 21
76.1858941204692712
 31
0.0
  0
LINE
  5
EC07
  8
0
 10
398.0693507100896795
 20
76.1858941204692712
 30
0.0
 11
398.0807158728896979
 21
76.1807992573692729
 31
0.0
  0
LINE
  5
EC08
  8
0
 10
398.0807158728896979
 20
76.1807992573692729
 30
0.0
 11
398.0693507100896795
 21
76.1757043942692746
 31
0.0
  0
LINE
  5
EC09
  8
0
 10
398.0693507100896795
 20
76.1757043942692746
 30
0.0
 11
398.0466203845896871
 21
76.1757043942692746
 31
0.0
  0
LINE
  5
EC0A
  8
0
 10
398.0466203845896871
 20
76.1757043942692746
 30
0.0
 11
398.0352552217897255
 21
76.1807992573692729
 31
0.0
  0
LINE
  5
EC0B
  8
0
 10
398.0352552217897255
 20
76.1807992573692729
 30
0.0
 11
398.0466203845896871
 21
76.1858941204692712
 31
0.0
  0
LINE
  5
EC0C
  8
0
 10
398.0466203845896871
 20
76.1858941204692712
 30
0.0
 11
398.0466203845896871
 21
76.1757043942692746
 31
0.0
  0
LINE
  5
EC0D
  8
0
 10
398.0693507100896795
 20
76.1757043942692746
 30
0.0
 11
398.0693507100896795
 21
76.1858941204692712
 31
0.0
  0
LINE
  5
EC0E
  8
0
 10
398.0466203845896871
 20
76.1976123056692813
 30
0.0
 11
398.0693507100896795
 21
76.1976123056692813
 31
0.0
  0
LINE
  5
EC0F
  8
0
 10
398.0693507100896795
 20
76.1976123056692813
 30
0.0
 11
398.0807158728896979
 21
76.192517442569283
 31
0.0
  0
LINE
  5
EC10
  8
0
 10
398.0807158728896979
 20
76.192517442569283
 30
0.0
 11
398.0693507100896795
 21
76.1874225794692848
 31
0.0
  0
LINE
  5
EC11
  8
0
 10
398.0693507100896795
 20
76.1874225794692848
 30
0.0
 11
398.0466203845896871
 21
76.1874225794692848
 31
0.0
  0
LINE
  5
EC12
  8
0
 10
398.0466203845896871
 20
76.1874225794692848
 30
0.0
 11
398.0352552217897255
 21
76.192517442569283
 31
0.0
  0
LINE
  5
EC13
  8
0
 10
398.0352552217897255
 20
76.192517442569283
 30
0.0
 11
398.0466203845896871
 21
76.1976123056692813
 31
0.0
  0
LINE
  5
EC14
  8
0
 10
398.0466203845896871
 20
76.1976123056692813
 30
0.0
 11
398.0466203845896871
 21
76.1874225794692848
 31
0.0
  0
LINE
  5
EC15
  8
0
 10
398.0693507100896795
 20
76.1874225794692848
 30
0.0
 11
398.0693507100896795
 21
76.1976123056692813
 31
0.0
  0
LINE
  5
EC16
  8
0
 10
398.0460521264895988
 20
76.2090757476299672
 30
0.0
 11
398.0687824519895912
 21
76.2090757476299672
 31
0.0
  0
LINE
  5
EC17
  8
0
 10
398.0687824519895912
 20
76.2090757476299672
 30
0.0
 11
398.0801476147897233
 21
76.2039808845299689
 31
0.0
  0
LINE
  5
EC18
  8
0
 10
398.0801476147897233
 20
76.2039808845299689
 30
0.0
 11
398.0687824519895912
 21
76.1988860214299706
 31
0.0
  0
LINE
  5
EC19
  8
0
 10
398.0687824519895912
 20
76.1988860214299706
 30
0.0
 11
398.0460521264895988
 21
76.1988860214299706
 31
0.0
  0
LINE
  5
EC1A
  8
0
 10
398.0460521264895988
 20
76.1988860214299706
 30
0.0
 11
398.034686963689694
 21
76.2039808845299689
 31
0.0
  0
LINE
  5
EC1B
  8
0
 10
398.034686963689694
 20
76.2039808845299689
 30
0.0
 11
398.0460521264895988
 21
76.2090757476299672
 31
0.0
  0
LINE
  5
EC1C
  8
0
 10
398.0460521264895988
 20
76.2090757476299672
 30
0.0
 11
398.0460521264895988
 21
76.1988860214299706
 31
0.0
  0
LINE
  5
EC1D
  8
0
 10
398.0687824519895912
 20
76.1988860214299706
 30
0.0
 11
398.0687824519895912
 21
76.2090757476299672
 31
0.0
  0
LINE
  5
EC1E
  8
0
 10
398.0466203845896871
 20
76.2210486758692554
 30
0.0
 11
398.0693507100896795
 21
76.2210486758692554
 31
0.0
  0
LINE
  5
EC1F
  8
0
 10
398.0693507100896795
 20
76.2210486758692554
 30
0.0
 11
398.0807158728896979
 21
76.2159538127692713
 31
0.0
  0
LINE
  5
EC20
  8
0
 10
398.0807158728896979
 20
76.2159538127692713
 30
0.0
 11
398.0693507100896795
 21
76.210858949669273
 31
0.0
  0
LINE
  5
EC21
  8
0
 10
398.0693507100896795
 20
76.210858949669273
 30
0.0
 11
398.0466203845896871
 21
76.210858949669273
 31
0.0
  0
LINE
  5
EC22
  8
0
 10
398.0466203845896871
 20
76.210858949669273
 30
0.0
 11
398.0352552217897255
 21
76.2159538127692713
 31
0.0
  0
LINE
  5
EC23
  8
0
 10
398.0352552217897255
 20
76.2159538127692713
 30
0.0
 11
398.0466203845896871
 21
76.2210486758692554
 31
0.0
  0
LINE
  5
EC24
  8
0
 10
398.0466203845896871
 20
76.2210486758692554
 30
0.0
 11
398.0466203845896871
 21
76.210858949669273
 31
0.0
  0
LINE
  5
EC25
  8
0
 10
398.0693507100896795
 20
76.210858949669273
 30
0.0
 11
398.0693507100896795
 21
76.2210486758692554
 31
0.0
  0
LINE
  5
EC26
  8
0
 10
398.0466203845896871
 20
76.2327668609692779
 30
0.0
 11
398.0693507100896795
 21
76.2327668609692779
 31
0.0
  0
LINE
  5
EC27
  8
0
 10
398.0693507100896795
 20
76.2327668609692779
 30
0.0
 11
398.0807158728896979
 21
76.2276719978692654
 31
0.0
  0
LINE
  5
EC28
  8
0
 10
398.0807158728896979
 20
76.2276719978692654
 30
0.0
 11
398.0693507100896795
 21
76.2225771347692813
 31
0.0
  0
LINE
  5
EC29
  8
0
 10
398.0693507100896795
 20
76.2225771347692813
 30
0.0
 11
398.0466203845896871
 21
76.2225771347692813
 31
0.0
  0
LINE
  5
EC2A
  8
0
 10
398.0466203845896871
 20
76.2225771347692813
 30
0.0
 11
398.0352552217897255
 21
76.2276719978692654
 31
0.0
  0
LINE
  5
EC2B
  8
0
 10
398.0352552217897255
 20
76.2276719978692654
 30
0.0
 11
398.0466203845896871
 21
76.2327668609692779
 31
0.0
  0
LINE
  5
EC2C
  8
0
 10
398.0466203845896871
 20
76.2327668609692779
 30
0.0
 11
398.0466203845896871
 21
76.2225771347692813
 31
0.0
  0
LINE
  5
EC2D
  8
0
 10
398.0693507100896795
 20
76.2225771347692813
 30
0.0
 11
398.0693507100896795
 21
76.2327668609692779
 31
0.0
  0
LINE
  5
EC2E
  8
0
 10
398.0466203845896871
 20
76.2444850460692862
 30
0.0
 11
398.0693507100896795
 21
76.2444850460692862
 31
0.0
  0
LINE
  5
EC2F
  8
0
 10
398.0693507100896795
 20
76.2444850460692862
 30
0.0
 11
398.0807158728896979
 21
76.2393901829692737
 31
0.0
  0
LINE
  5
EC30
  8
0
 10
398.0807158728896979
 20
76.2393901829692737
 30
0.0
 11
398.0693507100896795
 21
76.2342953198692754
 31
0.0
  0
LINE
  5
EC31
  8
0
 10
398.0693507100896795
 20
76.2342953198692754
 30
0.0
 11
398.0466203845896871
 21
76.2342953198692754
 31
0.0
  0
LINE
  5
EC32
  8
0
 10
398.0466203845896871
 20
76.2342953198692754
 30
0.0
 11
398.0352552217897255
 21
76.2393901829692737
 31
0.0
  0
LINE
  5
EC33
  8
0
 10
398.0352552217897255
 20
76.2393901829692737
 30
0.0
 11
398.0466203845896871
 21
76.2444850460692862
 31
0.0
  0
LINE
  5
EC34
  8
0
 10
398.0466203845896871
 20
76.2444850460692862
 30
0.0
 11
398.0466203845896871
 21
76.2342953198692754
 31
0.0
  0
LINE
  5
EC35
  8
0
 10
398.0693507100896795
 20
76.2342953198692754
 30
0.0
 11
398.0693507100896795
 21
76.2444850460692862
 31
0.0
  0
LINE
  5
EC36
  8
0
 10
398.0466203845896871
 20
76.2562032311692803
 30
0.0
 11
398.0693507100896795
 21
76.2562032311692803
 31
0.0
  0
LINE
  5
EC37
  8
0
 10
398.0693507100896795
 20
76.2562032311692803
 30
0.0
 11
398.0807158728896979
 21
76.2511083680692821
 31
0.0
  0
LINE
  5
EC38
  8
0
 10
398.0807158728896979
 20
76.2511083680692821
 30
0.0
 11
398.0693507100896795
 21
76.2460135049692838
 31
0.0
  0
LINE
  5
EC39
  8
0
 10
398.0693507100896795
 20
76.2460135049692838
 30
0.0
 11
398.0466203845896871
 21
76.2460135049692838
 31
0.0
  0
LINE
  5
EC3A
  8
0
 10
398.0466203845896871
 20
76.2460135049692838
 30
0.0
 11
398.0352552217897255
 21
76.2511083680692821
 31
0.0
  0
LINE
  5
EC3B
  8
0
 10
398.0352552217897255
 20
76.2511083680692821
 30
0.0
 11
398.0466203845896871
 21
76.2562032311692803
 31
0.0
  0
LINE
  5
EC3C
  8
0
 10
398.0466203845896871
 20
76.2562032311692803
 30
0.0
 11
398.0466203845896871
 21
76.2460135049692838
 31
0.0
  0
LINE
  5
EC3D
  8
0
 10
398.0693507100896795
 20
76.2460135049692838
 30
0.0
 11
398.0693507100896795
 21
76.2562032311692803
 31
0.0
  0
LINE
  5
EC3E
  8
0
 10
398.0694905912591821
 20
76.2678587092564868
 30
0.0
 11
398.0807158728896979
 21
76.2628265531692762
 31
0.0
  0
LINE
  5
EC3F
  8
0
 10
398.0807158728896979
 20
76.2628265531692762
 30
0.0
 11
398.0693507100896795
 21
76.2577316900692779
 31
0.0
  0
LINE
  5
EC40
  8
0
 10
398.0693507100896795
 20
76.2577316900692779
 30
0.0
 11
398.0466203845896871
 21
76.2577316900692779
 31
0.0
  0
LINE
  5
EC41
  8
0
 10
398.0466203845896871
 20
76.2577316900692779
 30
0.0
 11
398.0352552217897255
 21
76.2628265531692762
 31
0.0
  0
LINE
  5
EC42
  8
0
 10
398.0352552217897255
 20
76.2628265531692762
 30
0.0
 11
398.0391160748408765
 21
76.2645573262423255
 31
0.0
  0
LINE
  5
EC43
  8
0
 10
398.0466203845896871
 20
76.2654721270127425
 30
0.0
 11
398.0466203845896871
 21
76.2577316900692779
 31
0.0
  0
LINE
  5
EC44
  8
0
 10
398.0693507100896795
 20
76.2577316900692779
 30
0.0
 11
398.0693507100896795
 21
76.2678459425545157
 31
0.0
  0
LINE
  5
EC45
  8
0
 10
398.020935558115184
 20
76.2620623237692712
 30
0.0
 11
398.0301408985895932
 21
76.2620623237692712
 31
0.0
  0
LINE
  5
EC46
  8
0
 10
398.0301408985895932
 20
76.2620623237692712
 30
0.0
 11
398.0415060613897253
 21
76.2569674606692729
 31
0.0
  0
LINE
  5
EC47
  8
0
 10
398.0415060613897253
 20
76.2569674606692729
 30
0.0
 11
398.0301408985895932
 21
76.2518725975692746
 31
0.0
  0
LINE
  5
EC48
  8
0
 10
398.0301408985895932
 20
76.2518725975692746
 30
0.0
 11
398.0074105730897145
 21
76.2518725975692746
 31
0.0
  0
LINE
  5
EC49
  8
0
 10
398.0074105730897145
 20
76.2518725975692746
 30
0.0
 11
397.9960454102896961
 21
76.2569674606692729
 31
0.0
  0
LINE
  5
EC4A
  8
0
 10
397.9960454102896961
 20
76.2569674606692729
 30
0.0
 11
397.9997347974679087
 21
76.2586213676943316
 31
0.0
  0
LINE
  5
EC4B
  8
0
 10
398.0074105730897145
 20
76.259933998239319
 30
0.0
 11
398.0074105730897145
 21
76.2518725975692746
 31
0.0
  0
LINE
  5
EC4C
  8
0
 10
398.0301408985895932
 20
76.2518725975692746
 30
0.0
 11
398.0301408985895932
 21
76.2620623237692712
 31
0.0
  0
LINE
  5
EC4D
  8
0
 10
398.0074105730897145
 20
76.2503441386692771
 30
0.0
 11
398.0301408985895932
 21
76.2503441386692771
 31
0.0
  0
LINE
  5
EC4E
  8
0
 10
398.0301408985895932
 20
76.2503441386692771
 30
0.0
 11
398.0415060613897253
 21
76.2452492755692788
 31
0.0
  0
LINE
  5
EC4F
  8
0
 10
398.0415060613897253
 20
76.2452492755692788
 30
0.0
 11
398.0301408985895932
 21
76.2401544124692805
 31
0.0
  0
LINE
  5
EC50
  8
0
 10
398.0301408985895932
 20
76.2401544124692805
 30
0.0
 11
398.0074105730897145
 21
76.2401544124692805
 31
0.0
  0
LINE
  5
EC51
  8
0
 10
398.0074105730897145
 20
76.2401544124692805
 30
0.0
 11
397.9960454102896961
 21
76.2452492755692788
 31
0.0
  0
LINE
  5
EC52
  8
0
 10
397.9960454102896961
 20
76.2452492755692788
 30
0.0
 11
398.0074105730897145
 21
76.2503441386692771
 31
0.0
  0
LINE
  5
EC53
  8
0
 10
398.0074105730897145
 20
76.2503441386692771
 30
0.0
 11
398.0074105730897145
 21
76.2401544124692805
 31
0.0
  0
LINE
  5
EC54
  8
0
 10
398.0301408985895932
 20
76.2401544124692805
 30
0.0
 11
398.0301408985895932
 21
76.2503441386692771
 31
0.0
  0
LINE
  5
EC55
  8
0
 10
398.0074105730897145
 20
76.2386259534692812
 30
0.0
 11
398.0301408985895932
 21
76.2386259534692812
 31
0.0
  0
LINE
  5
EC56
  8
0
 10
398.0301408985895932
 20
76.2386259534692812
 30
0.0
 11
398.0415060613897253
 21
76.2335310903692829
 31
0.0
  0
LINE
  5
EC57
  8
0
 10
398.0415060613897253
 20
76.2335310903692829
 30
0.0
 11
398.0301408985895932
 21
76.2284362272692704
 31
0.0
  0
LINE
  5
EC58
  8
0
 10
398.0301408985895932
 20
76.2284362272692704
 30
0.0
 11
398.0074105730897145
 21
76.2284362272692704
 31
0.0
  0
LINE
  5
EC59
  8
0
 10
398.0074105730897145
 20
76.2284362272692704
 30
0.0
 11
397.9960454102896961
 21
76.2335310903692829
 31
0.0
  0
LINE
  5
EC5A
  8
0
 10
397.9960454102896961
 20
76.2335310903692829
 30
0.0
 11
398.0074105730897145
 21
76.2386259534692812
 31
0.0
  0
LINE
  5
EC5B
  8
0
 10
398.0074105730897145
 20
76.2386259534692812
 30
0.0
 11
398.0074105730897145
 21
76.2284362272692704
 31
0.0
  0
LINE
  5
EC5C
  8
0
 10
398.0301408985895932
 20
76.2284362272692704
 30
0.0
 11
398.0301408985895932
 21
76.2386259534692812
 31
0.0
  0
LINE
  5
EC5D
  8
0
 10
398.0074105730897145
 20
76.2269077683692728
 30
0.0
 11
398.0301408985895932
 21
76.2269077683692728
 31
0.0
  0
LINE
  5
EC5E
  8
0
 10
398.0301408985895932
 20
76.2269077683692728
 30
0.0
 11
398.0415060613897253
 21
76.2218129052692746
 31
0.0
  0
LINE
  5
EC5F
  8
0
 10
398.0415060613897253
 20
76.2218129052692746
 30
0.0
 11
398.0301408985895932
 21
76.2167180421692763
 31
0.0
  0
LINE
  5
EC60
  8
0
 10
398.0301408985895932
 20
76.2167180421692763
 30
0.0
 11
398.0074105730897145
 21
76.2167180421692763
 31
0.0
  0
LINE
  5
EC61
  8
0
 10
398.0074105730897145
 20
76.2167180421692763
 30
0.0
 11
397.9960454102896961
 21
76.2218129052692746
 31
0.0
  0
LINE
  5
EC62
  8
0
 10
397.9960454102896961
 20
76.2218129052692746
 30
0.0
 11
398.0074105730897145
 21
76.2269077683692728
 31
0.0
  0
LINE
  5
EC63
  8
0
 10
398.0074105730897145
 20
76.2269077683692728
 30
0.0
 11
398.0074105730897145
 21
76.2167180421692763
 31
0.0
  0
LINE
  5
EC64
  8
0
 10
398.0301408985895932
 20
76.2167180421692763
 30
0.0
 11
398.0301408985895932
 21
76.2269077683692728
 31
0.0
  0
LINE
  5
EC65
  8
0
 10
398.0074105730897145
 20
76.2151895832692787
 30
0.0
 11
398.0301408985895932
 21
76.2151895832692787
 31
0.0
  0
LINE
  5
EC66
  8
0
 10
398.0301408985895932
 20
76.2151895832692787
 30
0.0
 11
398.0415060613897253
 21
76.2100947201692804
 31
0.0
  0
LINE
  5
EC67
  8
0
 10
398.0415060613897253
 20
76.2100947201692804
 30
0.0
 11
398.0301408985895932
 21
76.2049998570692821
 31
0.0
  0
LINE
  5
EC68
  8
0
 10
398.0301408985895932
 20
76.2049998570692821
 30
0.0
 11
398.0074105730897145
 21
76.2049998570692821
 31
0.0
  0
LINE
  5
EC69
  8
0
 10
398.0074105730897145
 20
76.2049998570692821
 30
0.0
 11
397.9960454102896961
 21
76.2100947201692804
 31
0.0
  0
LINE
  5
EC6A
  8
0
 10
397.9960454102896961
 20
76.2100947201692804
 30
0.0
 11
398.0074105730897145
 21
76.2151895832692787
 31
0.0
  0
LINE
  5
EC6B
  8
0
 10
398.0074105730897145
 20
76.2151895832692787
 30
0.0
 11
398.0074105730897145
 21
76.2049998570692821
 31
0.0
  0
LINE
  5
EC6C
  8
0
 10
398.0301408985895932
 20
76.2049998570692821
 30
0.0
 11
398.0301408985895932
 21
76.2151895832692787
 31
0.0
  0
LINE
  5
EC6D
  8
0
 10
398.0074105730897145
 20
76.2034713981692846
 30
0.0
 11
398.0301408985895932
 21
76.2034713981692846
 31
0.0
  0
LINE
  5
EC6E
  8
0
 10
398.0301408985895932
 20
76.2034713981692846
 30
0.0
 11
398.0415060613897253
 21
76.1983765350692863
 31
0.0
  0
LINE
  5
EC6F
  8
0
 10
398.0415060613897253
 20
76.1983765350692863
 30
0.0
 11
398.0301408985895932
 21
76.1932816719692738
 31
0.0
  0
LINE
  5
EC70
  8
0
 10
398.0301408985895932
 20
76.1932816719692738
 30
0.0
 11
398.0074105730897145
 21
76.1932816719692738
 31
0.0
  0
LINE
  5
EC71
  8
0
 10
398.0074105730897145
 20
76.1932816719692738
 30
0.0
 11
397.9960454102896961
 21
76.1983765350692863
 31
0.0
  0
LINE
  5
EC72
  8
0
 10
397.9960454102896961
 20
76.1983765350692863
 30
0.0
 11
398.0074105730897145
 21
76.2034713981692846
 31
0.0
  0
LINE
  5
EC73
  8
0
 10
398.0074105730897145
 20
76.2034713981692846
 30
0.0
 11
398.0074105730897145
 21
76.1932816719692738
 31
0.0
  0
LINE
  5
EC74
  8
0
 10
398.0301408985895932
 20
76.1932816719692738
 30
0.0
 11
398.0301408985895932
 21
76.2034713981692846
 31
0.0
  0
LINE
  5
EC75
  8
0
 10
398.0074105730897145
 20
76.1917532130692763
 30
0.0
 11
398.0301408985895932
 21
76.1917532130692763
 31
0.0
  0
LINE
  5
EC76
  8
0
 10
398.0301408985895932
 20
76.1917532130692763
 30
0.0
 11
398.0415060613897253
 21
76.186658349969278
 31
0.0
  0
LINE
  5
EC77
  8
0
 10
398.0415060613897253
 20
76.186658349969278
 30
0.0
 11
398.0301408985895932
 21
76.1815634868692797
 31
0.0
  0
LINE
  5
EC78
  8
0
 10
398.0301408985895932
 20
76.1815634868692797
 30
0.0
 11
398.0074105730897145
 21
76.1815634868692797
 31
0.0
  0
LINE
  5
EC79
  8
0
 10
398.0074105730897145
 20
76.1815634868692797
 30
0.0
 11
397.9960454102896961
 21
76.186658349969278
 31
0.0
  0
LINE
  5
EC7A
  8
0
 10
397.9960454102896961
 20
76.186658349969278
 30
0.0
 11
398.0074105730897145
 21
76.1917532130692763
 31
0.0
  0
LINE
  5
EC7B
  8
0
 10
398.0074105730897145
 20
76.1917532130692763
 30
0.0
 11
398.0074105730897145
 21
76.1815634868692797
 31
0.0
  0
LINE
  5
EC7C
  8
0
 10
398.0301408985895932
 20
76.1815634868692797
 30
0.0
 11
398.0301408985895932
 21
76.1917532130692763
 31
0.0
  0
LINE
  5
EC7D
  8
0
 10
398.0074105730897145
 20
76.1800350279692822
 30
0.0
 11
398.0301408985895932
 21
76.1800350279692822
 31
0.0
  0
LINE
  5
EC7E
  8
0
 10
398.0301408985895932
 20
76.1800350279692822
 30
0.0
 11
398.0415060613897253
 21
76.1749401648692839
 31
0.0
  0
LINE
  5
EC7F
  8
0
 10
398.0415060613897253
 20
76.1749401648692839
 30
0.0
 11
398.0301408985895932
 21
76.1698453017692714
 31
0.0
  0
LINE
  5
EC80
  8
0
 10
398.0301408985895932
 20
76.1698453017692714
 30
0.0
 11
398.0074105730897145
 21
76.1698453017692714
 31
0.0
  0
LINE
  5
EC81
  8
0
 10
398.0074105730897145
 20
76.1698453017692714
 30
0.0
 11
397.9960454102896961
 21
76.1749401648692839
 31
0.0
  0
LINE
  5
EC82
  8
0
 10
397.9960454102896961
 20
76.1749401648692839
 30
0.0
 11
398.0074105730897145
 21
76.1800350279692822
 31
0.0
  0
LINE
  5
EC83
  8
0
 10
398.0074105730897145
 20
76.1800350279692822
 30
0.0
 11
398.0074105730897145
 21
76.1698453017692714
 31
0.0
  0
LINE
  5
EC84
  8
0
 10
398.0301408985895932
 20
76.1698453017692714
 30
0.0
 11
398.0301408985895932
 21
76.1800350279692822
 31
0.0
  0
LINE
  5
EC85
  8
0
 10
398.0068423148896954
 20
76.1685715860511721
 30
0.0
 11
398.0295726403896879
 21
76.1685715860511721
 31
0.0
  0
LINE
  5
EC86
  8
0
 10
398.0295726403896879
 20
76.1685715860511721
 30
0.0
 11
398.0409378031897063
 21
76.1634767229511738
 31
0.0
  0
LINE
  5
EC87
  8
0
 10
398.0409378031897063
 20
76.1634767229511738
 30
0.0
 11
398.0295726403896879
 21
76.1583818598511755
 31
0.0
  0
LINE
  5
EC88
  8
0
 10
398.0295726403896879
 20
76.1583818598511755
 30
0.0
 11
398.0068423148896954
 21
76.1583818598511755
 31
0.0
  0
LINE
  5
EC89
  8
0
 10
398.0068423148896954
 20
76.1583818598511755
 30
0.0
 11
397.995477152089677
 21
76.1634767229511738
 31
0.0
  0
LINE
  5
EC8A
  8
0
 10
397.995477152089677
 20
76.1634767229511738
 30
0.0
 11
398.0068423148896954
 21
76.1685715860511721
 31
0.0
  0
LINE
  5
EC8B
  8
0
 10
398.0068423148896954
 20
76.1685715860511721
 30
0.0
 11
398.0068423148896954
 21
76.1583818598511755
 31
0.0
  0
LINE
  5
EC8C
  8
0
 10
398.0295726403896879
 20
76.1583818598511755
 30
0.0
 11
398.0295726403896879
 21
76.1685715860511721
 31
0.0
  0
LINE
  5
EC8D
  8
0
 10
398.0074105730897145
 20
76.1565986577692797
 30
0.0
 11
398.0301408985895932
 21
76.1565986577692797
 31
0.0
  0
LINE
  5
EC8E
  8
0
 10
398.0301408985895932
 20
76.1565986577692797
 30
0.0
 11
398.0415060613897253
 21
76.1515037946692814
 31
0.0
  0
LINE
  5
EC8F
  8
0
 10
398.0415060613897253
 20
76.1515037946692814
 30
0.0
 11
398.0301408985895932
 21
76.1464089315692831
 31
0.0
  0
LINE
  5
EC90
  8
0
 10
398.0301408985895932
 20
76.1464089315692831
 30
0.0
 11
398.0074105730897145
 21
76.1464089315692831
 31
0.0
  0
LINE
  5
EC91
  8
0
 10
398.0074105730897145
 20
76.1464089315692831
 30
0.0
 11
397.9960454102896961
 21
76.1515037946692814
 31
0.0
  0
LINE
  5
EC92
  8
0
 10
397.9960454102896961
 20
76.1515037946692814
 30
0.0
 11
398.0074105730897145
 21
76.1565986577692797
 31
0.0
  0
LINE
  5
EC93
  8
0
 10
398.0074105730897145
 20
76.1565986577692797
 30
0.0
 11
398.0074105730897145
 21
76.1464089315692831
 31
0.0
  0
LINE
  5
EC94
  8
0
 10
398.0301408985895932
 20
76.1464089315692831
 30
0.0
 11
398.0301408985895932
 21
76.1565986577692797
 31
0.0
  0
LINE
  5
EC95
  8
0
 10
397.9682007614896975
 20
76.162457750269283
 30
0.0
 11
397.9909310869896899
 21
76.162457750269283
 31
0.0
  0
LINE
  5
EC96
  8
0
 10
397.9909310869896899
 20
76.162457750269283
 30
0.0
 11
398.0022962497895946
 21
76.1573628871692847
 31
0.0
  0
LINE
  5
EC97
  8
0
 10
398.0022962497895946
 20
76.1573628871692847
 30
0.0
 11
397.9909310869896899
 21
76.1522680240692864
 31
0.0
  0
LINE
  5
EC98
  8
0
 10
397.9909310869896899
 20
76.1522680240692864
 30
0.0
 11
397.9682007614896975
 21
76.1522680240692722
 31
0.0
  0
LINE
  5
EC99
  8
0
 10
397.9682007614896975
 20
76.1522680240692722
 30
0.0
 11
397.956835598689679
 21
76.1573628871692847
 31
0.0
  0
LINE
  5
EC9A
  8
0
 10
397.956835598689679
 20
76.1573628871692847
 30
0.0
 11
397.9682007614896975
 21
76.162457750269283
 31
0.0
  0
LINE
  5
EC9B
  8
0
 10
397.9682007614896975
 20
76.162457750269283
 30
0.0
 11
397.9682007614896975
 21
76.1522680240692722
 31
0.0
  0
LINE
  5
EC9C
  8
0
 10
397.9909310869896899
 20
76.1522680240692864
 30
0.0
 11
397.9909310869896899
 21
76.162457750269283
 31
0.0
  0
LINE
  5
EC9D
  8
0
 10
397.9682007614896975
 20
76.1741759353692629
 30
0.0
 11
397.9909310869896899
 21
76.1741759353692629
 31
0.0
  0
LINE
  5
EC9E
  8
0
 10
397.9909310869896899
 20
76.1741759353692629
 30
0.0
 11
398.0022962497895946
 21
76.1690810722692788
 31
0.0
  0
LINE
  5
EC9F
  8
0
 10
398.0022962497895946
 20
76.1690810722692788
 30
0.0
 11
397.9909310869896899
 21
76.1639862091692805
 31
0.0
  0
LINE
  5
ECA0
  8
0
 10
397.9909310869896899
 20
76.1639862091692805
 30
0.0
 11
397.9682007614896975
 21
76.1639862091692805
 31
0.0
  0
LINE
  5
ECA1
  8
0
 10
397.9682007614896975
 20
76.1639862091692805
 30
0.0
 11
397.956835598689679
 21
76.1690810722692788
 31
0.0
  0
LINE
  5
ECA2
  8
0
 10
397.956835598689679
 20
76.1690810722692788
 30
0.0
 11
397.9682007614896975
 21
76.1741759353692629
 31
0.0
  0
LINE
  5
ECA3
  8
0
 10
397.9682007614896975
 20
76.1741759353692629
 30
0.0
 11
397.9682007614896975
 21
76.1639862091692805
 31
0.0
  0
LINE
  5
ECA4
  8
0
 10
397.9909310869896899
 20
76.1639862091692805
 30
0.0
 11
397.9909310869896899
 21
76.1741759353692629
 31
0.0
  0
LINE
  5
ECA5
  8
0
 10
397.9682007614896975
 20
76.1858941204692712
 30
0.0
 11
397.9909310869896899
 21
76.1858941204692712
 31
0.0
  0
LINE
  5
ECA6
  8
0
 10
397.9909310869896899
 20
76.1858941204692712
 30
0.0
 11
398.0022962497895946
 21
76.1807992573692729
 31
0.0
  0
LINE
  5
ECA7
  8
0
 10
398.0022962497895946
 20
76.1807992573692729
 30
0.0
 11
397.9909310869896899
 21
76.1757043942692746
 31
0.0
  0
LINE
  5
ECA8
  8
0
 10
397.9909310869896899
 20
76.1757043942692746
 30
0.0
 11
397.9682007614896975
 21
76.1757043942692746
 31
0.0
  0
LINE
  5
ECA9
  8
0
 10
397.9682007614896975
 20
76.1757043942692746
 30
0.0
 11
397.956835598689679
 21
76.1807992573692729
 31
0.0
  0
LINE
  5
ECAA
  8
0
 10
397.956835598689679
 20
76.1807992573692729
 30
0.0
 11
397.9682007614896975
 21
76.1858941204692712
 31
0.0
  0
LINE
  5
ECAB
  8
0
 10
397.9682007614896975
 20
76.1858941204692712
 30
0.0
 11
397.9682007614896975
 21
76.1757043942692746
 31
0.0
  0
LINE
  5
ECAC
  8
0
 10
397.9909310869896899
 20
76.1757043942692746
 30
0.0
 11
397.9909310869896899
 21
76.1858941204692712
 31
0.0
  0
LINE
  5
ECAD
  8
0
 10
397.9682007614896975
 20
76.1976123056692813
 30
0.0
 11
397.9909310869896899
 21
76.1976123056692813
 31
0.0
  0
LINE
  5
ECAE
  8
0
 10
397.9909310869896899
 20
76.1976123056692813
 30
0.0
 11
398.0022962497895946
 21
76.192517442569283
 31
0.0
  0
LINE
  5
ECAF
  8
0
 10
398.0022962497895946
 20
76.192517442569283
 30
0.0
 11
397.9909310869896899
 21
76.1874225794692848
 31
0.0
  0
LINE
  5
ECB0
  8
0
 10
397.9909310869896899
 20
76.1874225794692848
 30
0.0
 11
397.9682007614896975
 21
76.1874225794692848
 31
0.0
  0
LINE
  5
ECB1
  8
0
 10
397.9682007614896975
 20
76.1874225794692848
 30
0.0
 11
397.956835598689679
 21
76.192517442569283
 31
0.0
  0
LINE
  5
ECB2
  8
0
 10
397.956835598689679
 20
76.192517442569283
 30
0.0
 11
397.9682007614896975
 21
76.1976123056692813
 31
0.0
  0
LINE
  5
ECB3
  8
0
 10
397.9682007614896975
 20
76.1976123056692813
 30
0.0
 11
397.9682007614896975
 21
76.1874225794692848
 31
0.0
  0
LINE
  5
ECB4
  8
0
 10
397.9909310869896899
 20
76.1874225794692848
 30
0.0
 11
397.9909310869896899
 21
76.1976123056692813
 31
0.0
  0
LINE
  5
ECB5
  8
0
 10
397.9682007614896975
 20
76.2093304907692755
 30
0.0
 11
397.9909310869896899
 21
76.2093304907692755
 31
0.0
  0
LINE
  5
ECB6
  8
0
 10
397.9909310869896899
 20
76.2093304907692755
 30
0.0
 11
398.0022962497895946
 21
76.204235627669263
 31
0.0
  0
LINE
  5
ECB7
  8
0
 10
398.0022962497895946
 20
76.204235627669263
 30
0.0
 11
397.9909310869896899
 21
76.1991407645692789
 31
0.0
  0
LINE
  5
ECB8
  8
0
 10
397.9909310869896899
 20
76.1991407645692789
 30
0.0
 11
397.9682007614896975
 21
76.1991407645692789
 31
0.0
  0
LINE
  5
ECB9
  8
0
 10
397.9682007614896975
 20
76.1991407645692789
 30
0.0
 11
397.956835598689679
 21
76.204235627669263
 31
0.0
  0
LINE
  5
ECBA
  8
0
 10
397.956835598689679
 20
76.204235627669263
 30
0.0
 11
397.9682007614896975
 21
76.2093304907692755
 31
0.0
  0
LINE
  5
ECBB
  8
0
 10
397.9682007614896975
 20
76.2093304907692755
 30
0.0
 11
397.9682007614896975
 21
76.1991407645692789
 31
0.0
  0
LINE
  5
ECBC
  8
0
 10
397.9909310869896899
 20
76.1991407645692789
 30
0.0
 11
397.9909310869896899
 21
76.2093304907692755
 31
0.0
  0
LINE
  5
ECBD
  8
0
 10
397.9682007614896975
 20
76.2210486758692554
 30
0.0
 11
397.9909310869896899
 21
76.2210486758692554
 31
0.0
  0
LINE
  5
ECBE
  8
0
 10
397.9909310869896899
 20
76.2210486758692554
 30
0.0
 11
398.0022962497895946
 21
76.2159538127692713
 31
0.0
  0
LINE
  5
ECBF
  8
0
 10
398.0022962497895946
 20
76.2159538127692713
 30
0.0
 11
397.9909310869896899
 21
76.210858949669273
 31
0.0
  0
LINE
  5
ECC0
  8
0
 10
397.9909310869896899
 20
76.210858949669273
 30
0.0
 11
397.9682007614896975
 21
76.210858949669273
 31
0.0
  0
LINE
  5
ECC1
  8
0
 10
397.9682007614896975
 20
76.210858949669273
 30
0.0
 11
397.956835598689679
 21
76.2159538127692713
 31
0.0
  0
LINE
  5
ECC2
  8
0
 10
397.956835598689679
 20
76.2159538127692713
 30
0.0
 11
397.9682007614896975
 21
76.2210486758692554
 31
0.0
  0
LINE
  5
ECC3
  8
0
 10
397.9682007614896975
 20
76.2210486758692554
 30
0.0
 11
397.9682007614896975
 21
76.210858949669273
 31
0.0
  0
LINE
  5
ECC4
  8
0
 10
397.9909310869896899
 20
76.210858949669273
 30
0.0
 11
397.9909310869896899
 21
76.2210486758692554
 31
0.0
  0
LINE
  5
ECC5
  8
0
 10
397.9682007613897099
 20
76.2327668609692779
 30
0.0
 11
397.9909310868895886
 21
76.2327668609692779
 31
0.0
  0
LINE
  5
ECC6
  8
0
 10
397.9909310868895886
 20
76.2327668609692779
 30
0.0
 11
398.0022962496897208
 21
76.2276719978692654
 31
0.0
  0
LINE
  5
ECC7
  8
0
 10
398.0022962496897208
 20
76.2276719978692654
 30
0.0
 11
397.9909310868895886
 21
76.2225771347692813
 31
0.0
  0
LINE
  5
ECC8
  8
0
 10
397.9909310868895886
 20
76.2225771347692813
 30
0.0
 11
397.9682007613897099
 21
76.2225771347692813
 31
0.0
  0
LINE
  5
ECC9
  8
0
 10
397.9682007613897099
 20
76.2225771347692813
 30
0.0
 11
397.9568355985896915
 21
76.2276719978692654
 31
0.0
  0
LINE
  5
ECCA
  8
0
 10
397.9568355985896915
 20
76.2276719978692654
 30
0.0
 11
397.9682007613897099
 21
76.2327668609692779
 31
0.0
  0
LINE
  5
ECCB
  8
0
 10
397.9682007613897099
 20
76.2327668609692779
 30
0.0
 11
397.9682007613897099
 21
76.2225771347692813
 31
0.0
  0
LINE
  5
ECCC
  8
0
 10
397.9909310868895886
 20
76.2225771347692813
 30
0.0
 11
397.9909310868895886
 21
76.2327668609692779
 31
0.0
  0
LINE
  5
ECCD
  8
0
 10
397.9682007614896975
 20
76.2444850460692862
 30
0.0
 11
397.9909310869896899
 21
76.2444850460692862
 31
0.0
  0
LINE
  5
ECCE
  8
0
 10
397.9909310869896899
 20
76.2444850460692862
 30
0.0
 11
398.0022962497895946
 21
76.2393901829692737
 31
0.0
  0
LINE
  5
ECCF
  8
0
 10
398.0022962497895946
 20
76.2393901829692737
 30
0.0
 11
397.9909310869896899
 21
76.2342953198692754
 31
0.0
  0
LINE
  5
ECD0
  8
0
 10
397.9909310869896899
 20
76.2342953198692754
 30
0.0
 11
397.9682007614896975
 21
76.2342953198692754
 31
0.0
  0
LINE
  5
ECD1
  8
0
 10
397.9682007614896975
 20
76.2342953198692754
 30
0.0
 11
397.956835598689679
 21
76.2393901829692737
 31
0.0
  0
LINE
  5
ECD2
  8
0
 10
397.956835598689679
 20
76.2393901829692737
 30
0.0
 11
397.9682007614896975
 21
76.2444850460692862
 31
0.0
  0
LINE
  5
ECD3
  8
0
 10
397.9682007614896975
 20
76.2444850460692862
 30
0.0
 11
397.9682007614896975
 21
76.2342953198692754
 31
0.0
  0
LINE
  5
ECD4
  8
0
 10
397.9909310869896899
 20
76.2342953198692754
 30
0.0
 11
397.9909310869896899
 21
76.2444850460692862
 31
0.0
  0
LINE
  5
ECD5
  8
0
 10
397.9866274088403202
 20
76.2562032311692803
 30
0.0
 11
397.9909310869896899
 21
76.2562032311692803
 31
0.0
  0
LINE
  5
ECD6
  8
0
 10
397.9909310869896899
 20
76.2562032311692803
 30
0.0
 11
398.0022962497895946
 21
76.2511083680692821
 31
0.0
  0
LINE
  5
ECD7
  8
0
 10
398.0022962497895946
 20
76.2511083680692821
 30
0.0
 11
397.9909310869896899
 21
76.2460135049692838
 31
0.0
  0
LINE
  5
ECD8
  8
0
 10
397.9909310869896899
 20
76.2460135049692838
 30
0.0
 11
397.9682007614896975
 21
76.2460135049692838
 31
0.0
  0
LINE
  5
ECD9
  8
0
 10
397.9682007614896975
 20
76.2460135049692838
 30
0.0
 11
397.9599343381078143
 21
76.2497192411913431
 31
0.0
  0
LINE
  5
ECDA
  8
0
 10
397.9682007614896975
 20
76.2511618159986284
 30
0.0
 11
397.9682007614896975
 21
76.2460135049692838
 31
0.0
  0
LINE
  5
ECDB
  8
0
 10
397.9909310869896899
 20
76.2460135049692838
 30
0.0
 11
397.9909310869896899
 21
76.2562032311692803
 31
0.0
  0
LINE
  5
ECDC
  8
0
 10
397.9552283780565176
 20
76.2487719475551557
 30
0.0
 11
397.9630864381896913
 21
76.2452492755692788
 31
0.0
  0
LINE
  5
ECDD
  8
0
 10
397.9630864381896913
 20
76.2452492755692788
 30
0.0
 11
397.9517212753896729
 21
76.2401544124692805
 31
0.0
  0
LINE
  5
ECDE
  8
0
 10
397.9517212753896729
 20
76.2401544124692805
 30
0.0
 11
397.9289909498896805
 21
76.2401544124692805
 31
0.0
  0
LINE
  5
ECDF
  8
0
 10
397.9289909498896805
 20
76.2401544124692805
 30
0.0
 11
397.9269355340409788
 21
76.2410758301864604
 31
0.0
  0
LINE
  5
ECE0
  8
0
 10
397.9289909498896805
 20
76.241754417742186
 30
0.0
 11
397.9289909498896805
 21
76.2401544124692805
 31
0.0
  0
LINE
  5
ECE1
  8
0
 10
397.9517212753896729
 20
76.2401544124692805
 30
0.0
 11
397.9517212753896729
 21
76.2480057288807558
 31
0.0
  0
LINE
  5
ECE2
  8
0
 10
397.9289909498896805
 20
76.2386259534692812
 30
0.0
 11
397.9517212753896729
 21
76.2386259534692812
 31
0.0
  0
LINE
  5
ECE3
  8
0
 10
397.9517212753896729
 20
76.2386259534692812
 30
0.0
 11
397.9630864381896913
 21
76.2335310903692829
 31
0.0
  0
LINE
  5
ECE4
  8
0
 10
397.9630864381896913
 20
76.2335310903692829
 30
0.0
 11
397.9517212753896729
 21
76.2284362272692704
 31
0.0
  0
LINE
  5
ECE5
  8
0
 10
397.9517212753896729
 20
76.2284362272692704
 30
0.0
 11
397.9289909498896805
 21
76.2284362272692704
 31
0.0
  0
LINE
  5
ECE6
  8
0
 10
397.9289909498896805
 20
76.2284362272692704
 30
0.0
 11
397.9176257870897189
 21
76.2335310903692829
 31
0.0
  0
LINE
  5
ECE7
  8
0
 10
397.9176257870897189
 20
76.2335310903692829
 30
0.0
 11
397.9289909498896805
 21
76.2386259534692812
 31
0.0
  0
LINE
  5
ECE8
  8
0
 10
397.9289909498896805
 20
76.2386259534692812
 30
0.0
 11
397.9289909498896805
 21
76.2284362272692704
 31
0.0
  0
LINE
  5
ECE9
  8
0
 10
397.9517212753896729
 20
76.2284362272692704
 30
0.0
 11
397.9517212753896729
 21
76.2386259534692812
 31
0.0
  0
LINE
  5
ECEA
  8
0
 10
397.9289909498896805
 20
76.2269077683692728
 30
0.0
 11
397.9517212753896729
 21
76.2269077683692728
 31
0.0
  0
LINE
  5
ECEB
  8
0
 10
397.9517212753896729
 20
76.2269077683692728
 30
0.0
 11
397.9630864381896913
 21
76.2218129052692746
 31
0.0
  0
LINE
  5
ECEC
  8
0
 10
397.9630864381896913
 20
76.2218129052692746
 30
0.0
 11
397.9517212753896729
 21
76.2167180421692763
 31
0.0
  0
LINE
  5
ECED
  8
0
 10
397.9517212753896729
 20
76.2167180421692763
 30
0.0
 11
397.9289909498896805
 21
76.2167180421692763
 31
0.0
  0
LINE
  5
ECEE
  8
0
 10
397.9289909498896805
 20
76.2167180421692763
 30
0.0
 11
397.9176257870897189
 21
76.2218129052692746
 31
0.0
  0
LINE
  5
ECEF
  8
0
 10
397.9176257870897189
 20
76.2218129052692746
 30
0.0
 11
397.9289909498896805
 21
76.2269077683692728
 31
0.0
  0
LINE
  5
ECF0
  8
0
 10
397.9289909498896805
 20
76.2269077683692728
 30
0.0
 11
397.9289909498896805
 21
76.2167180421692763
 31
0.0
  0
LINE
  5
ECF1
  8
0
 10
397.9517212753896729
 20
76.2167180421692763
 30
0.0
 11
397.9517212753896729
 21
76.2269077683692728
 31
0.0
  0
LINE
  5
ECF2
  8
0
 10
397.9289909498896805
 20
76.2151895832692787
 30
0.0
 11
397.9517212753896729
 21
76.2151895832692787
 31
0.0
  0
LINE
  5
ECF3
  8
0
 10
397.9517212753896729
 20
76.2151895832692787
 30
0.0
 11
397.9630864381896913
 21
76.2100947201692804
 31
0.0
  0
LINE
  5
ECF4
  8
0
 10
397.9630864381896913
 20
76.2100947201692804
 30
0.0
 11
397.9517212753896729
 21
76.2049998570692821
 31
0.0
  0
LINE
  5
ECF5
  8
0
 10
397.9517212753896729
 20
76.2049998570692821
 30
0.0
 11
397.9289909498896805
 21
76.2049998570692821
 31
0.0
  0
LINE
  5
ECF6
  8
0
 10
397.9289909498896805
 20
76.2049998570692821
 30
0.0
 11
397.9176257870897189
 21
76.2100947201692804
 31
0.0
  0
LINE
  5
ECF7
  8
0
 10
397.9176257870897189
 20
76.2100947201692804
 30
0.0
 11
397.9289909498896805
 21
76.2151895832692787
 31
0.0
  0
LINE
  5
ECF8
  8
0
 10
397.9289909498896805
 20
76.2151895832692787
 30
0.0
 11
397.9289909498896805
 21
76.2049998570692821
 31
0.0
  0
LINE
  5
ECF9
  8
0
 10
397.9517212753896729
 20
76.2049998570692821
 30
0.0
 11
397.9517212753896729
 21
76.2151895832692787
 31
0.0
  0
LINE
  5
ECFA
  8
0
 10
397.9289909498896805
 20
76.2034713981692846
 30
0.0
 11
397.9517212753896729
 21
76.2034713981692846
 31
0.0
  0
LINE
  5
ECFB
  8
0
 10
397.9517212753896729
 20
76.2034713981692846
 30
0.0
 11
397.9630864381896913
 21
76.1983765350692863
 31
0.0
  0
LINE
  5
ECFC
  8
0
 10
397.9630864381896913
 20
76.1983765350692863
 30
0.0
 11
397.9517212753896729
 21
76.1932816719692738
 31
0.0
  0
LINE
  5
ECFD
  8
0
 10
397.9517212753896729
 20
76.1932816719692738
 30
0.0
 11
397.9289909498896805
 21
76.1932816719692738
 31
0.0
  0
LINE
  5
ECFE
  8
0
 10
397.9289909498896805
 20
76.1932816719692738
 30
0.0
 11
397.9176257870897189
 21
76.1983765350692863
 31
0.0
  0
LINE
  5
ECFF
  8
0
 10
397.9176257870897189
 20
76.1983765350692863
 30
0.0
 11
397.9289909498896805
 21
76.2034713981692846
 31
0.0
  0
LINE
  5
ED00
  8
0
 10
397.9289909498896805
 20
76.2034713981692846
 30
0.0
 11
397.9289909498896805
 21
76.1932816719692738
 31
0.0
  0
LINE
  5
ED01
  8
0
 10
397.9517212753896729
 20
76.1932816719692738
 30
0.0
 11
397.9517212753896729
 21
76.2034713981692846
 31
0.0
  0
LINE
  5
ED02
  8
0
 10
397.9289909498896805
 20
76.1917532130692763
 30
0.0
 11
397.9517212753896729
 21
76.1917532130692763
 31
0.0
  0
LINE
  5
ED03
  8
0
 10
397.9517212753896729
 20
76.1917532130692763
 30
0.0
 11
397.9630864381896913
 21
76.186658349969278
 31
0.0
  0
LINE
  5
ED04
  8
0
 10
397.9630864381896913
 20
76.186658349969278
 30
0.0
 11
397.9517212753896729
 21
76.1815634868692797
 31
0.0
  0
LINE
  5
ED05
  8
0
 10
397.9517212753896729
 20
76.1815634868692797
 30
0.0
 11
397.9289909498896805
 21
76.1815634868692797
 31
0.0
  0
LINE
  5
ED06
  8
0
 10
397.9289909498896805
 20
76.1815634868692797
 30
0.0
 11
397.9176257870897189
 21
76.186658349969278
 31
0.0
  0
LINE
  5
ED07
  8
0
 10
397.9176257870897189
 20
76.186658349969278
 30
0.0
 11
397.9289909498896805
 21
76.1917532130692763
 31
0.0
  0
LINE
  5
ED08
  8
0
 10
397.9289909498896805
 20
76.1917532130692763
 30
0.0
 11
397.9289909498896805
 21
76.1815634868692797
 31
0.0
  0
LINE
  5
ED09
  8
0
 10
397.9517212753896729
 20
76.1815634868692797
 30
0.0
 11
397.9517212753896729
 21
76.1917532130692763
 31
0.0
  0
LINE
  5
ED0A
  8
0
 10
397.9289909498896805
 20
76.1800350279692822
 30
0.0
 11
397.9517212753896729
 21
76.1800350279692822
 31
0.0
  0
LINE
  5
ED0B
  8
0
 10
397.9517212753896729
 20
76.1800350279692822
 30
0.0
 11
397.9630864381896913
 21
76.1749401648692839
 31
0.0
  0
LINE
  5
ED0C
  8
0
 10
397.9630864381896913
 20
76.1749401648692839
 30
0.0
 11
397.9517212753896729
 21
76.1698453017692714
 31
0.0
  0
LINE
  5
ED0D
  8
0
 10
397.9517212753896729
 20
76.1698453017692714
 30
0.0
 11
397.9289909498896805
 21
76.1698453017692714
 31
0.0
  0
LINE
  5
ED0E
  8
0
 10
397.9289909498896805
 20
76.1698453017692714
 30
0.0
 11
397.9176257870897189
 21
76.1749401648692839
 31
0.0
  0
LINE
  5
ED0F
  8
0
 10
397.9176257870897189
 20
76.1749401648692839
 30
0.0
 11
397.9289909498896805
 21
76.1800350279692822
 31
0.0
  0
LINE
  5
ED10
  8
0
 10
397.9289909498896805
 20
76.1800350279692822
 30
0.0
 11
397.9289909498896805
 21
76.1698453017692714
 31
0.0
  0
LINE
  5
ED11
  8
0
 10
397.9517212753896729
 20
76.1698453017692714
 30
0.0
 11
397.9517212753896729
 21
76.1800350279692822
 31
0.0
  0
LINE
  5
ED12
  8
0
 10
397.9289909498896805
 20
76.1683168428692738
 30
0.0
 11
397.9517212753896729
 21
76.1683168428692738
 31
0.0
  0
LINE
  5
ED13
  8
0
 10
397.9517212753896729
 20
76.1683168428692738
 30
0.0
 11
397.9630864381896913
 21
76.1632219797692755
 31
0.0
  0
LINE
  5
ED14
  8
0
 10
397.9630864381896913
 20
76.1632219797692755
 30
0.0
 11
397.9517212753896729
 21
76.1581271166692773
 31
0.0
  0
LINE
  5
ED15
  8
0
 10
397.9517212753896729
 20
76.1581271166692773
 30
0.0
 11
397.9289909498896805
 21
76.1581271166692773
 31
0.0
  0
LINE
  5
ED16
  8
0
 10
397.9289909498896805
 20
76.1581271166692773
 30
0.0
 11
397.9176257870897189
 21
76.1632219797692755
 31
0.0
  0
LINE
  5
ED17
  8
0
 10
397.9176257870897189
 20
76.1632219797692755
 30
0.0
 11
397.9289909498896805
 21
76.1683168428692738
 31
0.0
  0
LINE
  5
ED18
  8
0
 10
397.9289909498896805
 20
76.1683168428692738
 30
0.0
 11
397.9289909498896805
 21
76.1581271166692773
 31
0.0
  0
LINE
  5
ED19
  8
0
 10
397.9517212753896729
 20
76.1581271166692773
 30
0.0
 11
397.9517212753896729
 21
76.1683168428692738
 31
0.0
  0
LINE
  5
ED1A
  8
0
 10
397.8897811382897203
 20
76.1858941204692712
 30
0.0
 11
397.9125114637897127
 21
76.1858941204692712
 31
0.0
  0
LINE
  5
ED1B
  8
0
 10
397.9125114637897127
 20
76.1858941204692712
 30
0.0
 11
397.9238766265896743
 21
76.1807992573692729
 31
0.0
  0
LINE
  5
ED1C
  8
0
 10
397.9238766265896743
 20
76.1807992573692729
 30
0.0
 11
397.9125114637897127
 21
76.1757043942692746
 31
0.0
  0
LINE
  5
ED1D
  8
0
 10
397.9125114637897127
 20
76.1757043942692746
 30
0.0
 11
397.8897811382897203
 21
76.1757043942692746
 31
0.0
  0
LINE
  5
ED1E
  8
0
 10
397.8897811382897203
 20
76.1757043942692746
 30
0.0
 11
397.8784159754895882
 21
76.1807992573692729
 31
0.0
  0
LINE
  5
ED1F
  8
0
 10
397.8784159754895882
 20
76.1807992573692729
 30
0.0
 11
397.8897811382897203
 21
76.1858941204692712
 31
0.0
  0
LINE
  5
ED20
  8
0
 10
397.8897811382897203
 20
76.1858941204692712
 30
0.0
 11
397.8897811382897203
 21
76.1757043942692746
 31
0.0
  0
LINE
  5
ED21
  8
0
 10
397.9125114637897127
 20
76.1757043942692746
 30
0.0
 11
397.9125114637897127
 21
76.1858941204692712
 31
0.0
  0
LINE
  5
ED22
  8
0
 10
397.8897811382897203
 20
76.1976123056692813
 30
0.0
 11
397.9125114637897127
 21
76.1976123056692813
 31
0.0
  0
LINE
  5
ED23
  8
0
 10
397.9125114637897127
 20
76.1976123056692813
 30
0.0
 11
397.9238766265896743
 21
76.192517442569283
 31
0.0
  0
LINE
  5
ED24
  8
0
 10
397.9238766265896743
 20
76.192517442569283
 30
0.0
 11
397.9125114637897127
 21
76.1874225794692848
 31
0.0
  0
LINE
  5
ED25
  8
0
 10
397.9125114637897127
 20
76.1874225794692848
 30
0.0
 11
397.8897811382897203
 21
76.1874225794692848
 31
0.0
  0
LINE
  5
ED26
  8
0
 10
397.8897811382897203
 20
76.1874225794692848
 30
0.0
 11
397.8784159754895882
 21
76.192517442569283
 31
0.0
  0
LINE
  5
ED27
  8
0
 10
397.8784159754895882
 20
76.192517442569283
 30
0.0
 11
397.8897811382897203
 21
76.1976123056692813
 31
0.0
  0
LINE
  5
ED28
  8
0
 10
397.8897811382897203
 20
76.1976123056692813
 30
0.0
 11
397.8897811382897203
 21
76.1874225794692848
 31
0.0
  0
LINE
  5
ED29
  8
0
 10
397.9125114637897127
 20
76.1874225794692848
 30
0.0
 11
397.9125114637897127
 21
76.1976123056692813
 31
0.0
  0
LINE
  5
ED2A
  8
0
 10
397.8897811382897203
 20
76.2093304907692755
 30
0.0
 11
397.9125114637897127
 21
76.2093304907692755
 31
0.0
  0
LINE
  5
ED2B
  8
0
 10
397.9125114637897127
 20
76.2093304907692755
 30
0.0
 11
397.9238766265896743
 21
76.204235627669263
 31
0.0
  0
LINE
  5
ED2C
  8
0
 10
397.9238766265896743
 20
76.204235627669263
 30
0.0
 11
397.9125114637897127
 21
76.1991407645692789
 31
0.0
  0
LINE
  5
ED2D
  8
0
 10
397.9125114637897127
 20
76.1991407645692789
 30
0.0
 11
397.8897811382897203
 21
76.1991407645692789
 31
0.0
  0
LINE
  5
ED2E
  8
0
 10
397.8897811382897203
 20
76.1991407645692789
 30
0.0
 11
397.8784159754895882
 21
76.204235627669263
 31
0.0
  0
LINE
  5
ED2F
  8
0
 10
397.8784159754895882
 20
76.204235627669263
 30
0.0
 11
397.8897811382897203
 21
76.2093304907692755
 31
0.0
  0
LINE
  5
ED30
  8
0
 10
397.8897811382897203
 20
76.2093304907692755
 30
0.0
 11
397.8897811382897203
 21
76.1991407645692789
 31
0.0
  0
LINE
  5
ED31
  8
0
 10
397.9125114637897127
 20
76.1991407645692789
 30
0.0
 11
397.9125114637897127
 21
76.2093304907692755
 31
0.0
  0
LINE
  5
ED32
  8
0
 10
397.8897811382897203
 20
76.2210486758692554
 30
0.0
 11
397.9125114637897127
 21
76.2210486758692554
 31
0.0
  0
LINE
  5
ED33
  8
0
 10
397.9125114637897127
 20
76.2210486758692554
 30
0.0
 11
397.9238766265896743
 21
76.2159538127692713
 31
0.0
  0
LINE
  5
ED34
  8
0
 10
397.9238766265896743
 20
76.2159538127692713
 30
0.0
 11
397.9125114637897127
 21
76.210858949669273
 31
0.0
  0
LINE
  5
ED35
  8
0
 10
397.9125114637897127
 20
76.210858949669273
 30
0.0
 11
397.8897811382897203
 21
76.210858949669273
 31
0.0
  0
LINE
  5
ED36
  8
0
 10
397.8897811382897203
 20
76.210858949669273
 30
0.0
 11
397.8784159754895882
 21
76.2159538127692713
 31
0.0
  0
LINE
  5
ED37
  8
0
 10
397.8784159754895882
 20
76.2159538127692713
 30
0.0
 11
397.8897811382897203
 21
76.2210486758692554
 31
0.0
  0
LINE
  5
ED38
  8
0
 10
397.8897811382897203
 20
76.2210486758692554
 30
0.0
 11
397.8897811382897203
 21
76.210858949669273
 31
0.0
  0
LINE
  5
ED39
  8
0
 10
397.9125114637897127
 20
76.210858949669273
 30
0.0
 11
397.9125114637897127
 21
76.2210486758692554
 31
0.0
  0
LINE
  5
ED3A
  8
0
 10
397.9054103460427996
 20
76.2327668609692779
 30
0.0
 11
397.9125114637897127
 21
76.2327668609692779
 31
0.0
  0
LINE
  5
ED3B
  8
0
 10
397.9125114637897127
 20
76.2327668609692779
 30
0.0
 11
397.9238766265896743
 21
76.2276719978692654
 31
0.0
  0
LINE
  5
ED3C
  8
0
 10
397.9238766265896743
 20
76.2276719978692654
 30
0.0
 11
397.9125114637897127
 21
76.2225771347692813
 31
0.0
  0
LINE
  5
ED3D
  8
0
 10
397.9125114637897127
 20
76.2225771347692813
 30
0.0
 11
397.8897811382897203
 21
76.2225771347692813
 31
0.0
  0
LINE
  5
ED3E
  8
0
 10
397.8897811382897203
 20
76.2225771347692813
 30
0.0
 11
397.8870842552233853
 21
76.2237861143731124
 31
0.0
  0
LINE
  5
ED3F
  8
0
 10
397.8897811382897203
 20
76.2252620983215508
 30
0.0
 11
397.8897811382897203
 21
76.2225771347692813
 31
0.0
  0
LINE
  5
ED40
  8
0
 10
397.9125114637897127
 20
76.2225771347692813
 30
0.0
 11
397.9125114637897127
 21
76.2327668609692779
 31
0.0
  0
LINE
  5
ED41
  8
0
 10
398.1967970890897277
 20
76.1287614717692804
 30
0.0
 11
398.1869801448896737
 21
76.1331622874692755
 31
0.0
  0
LINE
  5
ED42
  8
0
 10
398.1869801448896737
 20
76.1331622874692755
 30
0.0
 11
398.1642498193896813
 21
76.1331622874692755
 31
0.0
  0
LINE
  5
ED43
  8
0
 10
398.1642498193896813
 20
76.1331622874692755
 30
0.0
 11
398.1544328751896842
 21
76.1287614717692804
 31
0.0
  0
LINE
  5
ED44
  8
0
 10
398.1544328751896842
 20
76.1287614717692804
 30
0.0
 11
398.1477703332897136
 21
76.128831653869284
 31
0.0
  0
LINE
  5
ED45
  8
0
 10
398.1230587561896073
 20
76.1297198246068092
 30
0.0
 11
398.1154394209896736
 21
76.1300785612692721
 31
0.0
  0
LINE
  5
ED46
  8
0
 10
398.1154394209896736
 20
76.1300785612692721
 30
0.0
 11
398.1085605216896965
 21
76.1331622874692755
 31
0.0
  0
LINE
  5
ED47
  8
0
 10
398.1085605216896965
 20
76.1331622874692755
 30
0.0
 11
398.0858301961895904
 21
76.1331622874692755
 31
0.0
  0
LINE
  5
ED48
  8
0
 10
398.0858301961895904
 20
76.1331622874692755
 30
0.0
 11
398.0835445361730081
 21
76.1321376541618093
 31
0.0
  0
LINE
  5
ED49
  8
0
 10
398.0835445361730081
 20
76.1321376541618093
 30
0.0
 11
398.0777781552895931
 21
76.1326095741970619
 31
0.0
  0
LINE
  5
ED4A
  8
0
 10
398.0777781552895931
 20
76.1326095741970619
 30
0.0
 11
398.0807158728896979
 21
76.1339265169692823
 31
0.0
  0
LINE
  5
ED4B
  8
0
 10
398.0807158728896979
 20
76.1339265169692823
 30
0.0
 11
398.0693507101897239
 21
76.1390213800692806
 31
0.0
  0
LINE
  5
ED4C
  8
0
 10
398.0693507101897239
 20
76.1390213800692806
 30
0.0
 11
398.0466203845896871
 21
76.1390213800692806
 31
0.0
  0
LINE
  5
ED4D
  8
0
 10
398.0466203845896871
 20
76.1390213800692806
 30
0.0
 11
398.0408174035212028
 21
76.1364199748282147
 31
0.0
  0
LINE
  5
ED4E
  8
0
 10
398.0408174035212028
 20
76.1364199748282147
 30
0.0
 11
398.0354902910896726
 21
76.1370888134692763
 31
0.0
  0
LINE
  5
ED4F
  8
0
 10
398.0354902910896726
 20
76.1370888134692763
 30
0.0
 11
398.0415060613897253
 21
76.1397856094692713
 31
0.0
  0
LINE
  5
ED50
  8
0
 10
398.0415060613897253
 20
76.1397856094692713
 30
0.0
 11
398.0301408985895932
 21
76.1448804725692554
 31
0.0
  0
LINE
  5
ED51
  8
0
 10
398.0301408985895932
 20
76.1448804725692554
 30
0.0
 11
398.0074105729897269
 21
76.1448804725692554
 31
0.0
  0
LINE
  5
ED52
  8
0
 10
398.0074105729897269
 20
76.1448804725692554
 30
0.0
 11
398.0013948026896742
 21
76.1421836765692746
 31
0.0
  0
LINE
  5
ED53
  8
0
 10
398.0013948026896742
 20
76.1421836765692746
 30
0.0
 11
397.9964932685895747
 21
76.143043296777833
 31
0.0
  0
LINE
  5
ED54
  8
0
 10
397.9964932685895747
 20
76.143043296777833
 30
0.0
 11
398.0022962497895946
 21
76.1456447020692764
 31
0.0
  0
LINE
  5
ED55
  8
0
 10
398.0022962497895946
 20
76.1456447020692764
 30
0.0
 11
397.9909310869896899
 21
76.1507395651692747
 31
0.0
  0
LINE
  5
ED56
  8
0
 10
397.9909310869896899
 20
76.1507395651692747
 30
0.0
 11
397.9682007613897099
 21
76.1507395651692747
 31
0.0
  0
LINE
  5
ED57
  8
0
 10
397.9682007613897099
 20
76.1507395651692747
 30
0.0
 11
397.9652630437458924
 21
76.1494226223496469
 31
0.0
  0
LINE
  5
ED58
  8
0
 10
397.9652630437458924
 20
76.1494226223496469
 30
0.0
 11
397.9608007781897072
 21
76.1504791612247374
 31
0.0
  0
LINE
  5
ED59
  8
0
 10
397.9608007781897072
 20
76.1504791612247374
 30
0.0
 11
397.9630864381896913
 21
76.1515037946692814
 31
0.0
  0
LINE
  5
ED5A
  8
0
 10
397.9630864381896913
 20
76.1515037946692814
 30
0.0
 11
397.9517212753896729
 21
76.1565986576692779
 31
0.0
  0
LINE
  5
ED5B
  8
0
 10
397.9517212753896729
 20
76.1565986576692779
 30
0.0
 11
397.9379634768897063
 21
76.1565986576692779
 31
0.0
  0
LINE
  5
ED5C
  8
0
 10
397.9379634768897063
 20
76.1565986576692779
 30
0.0
 11
397.9289909498896805
 21
76.1581271166692773
 31
0.0
  0
LINE
  5
ED5D
  8
0
 10
397.9176257870897189
 20
76.1632219797692755
 30
0.0
 11
397.9140596823896772
 21
76.1646802565692838
 31
0.0
  0
LINE
  5
ED5E
  8
0
 10
397.9140596823896772
 20
76.1646802565692838
 30
0.0
 11
397.9238766265896743
 21
76.1690810722692788
 31
0.0
  0
LINE
  5
ED5F
  8
0
 10
397.9238766265896743
 20
76.1690810722692788
 30
0.0
 11
397.9125114637897127
 21
76.1741759353692629
 31
0.0
  0
LINE
  5
ED60
  8
0
 10
397.9125114637897127
 20
76.1741759353692629
 30
0.0
 11
397.8928775754895923
 21
76.1741759353692629
 31
0.0
  0
LINE
  5
ED61
  8
0
 10
397.8928775754895923
 20
76.1741759353692629
 30
0.0
 11
397.8897811382897203
 21
76.1757043942692746
 31
0.0
  0
LINE
  5
ED62
  8
0
 10
397.880397227019273
 20
76.1816874281214638
 30
0.0
 11
397.8777879156896802
 21
76.1835746237809843
 31
0.0
  0
LINE
  5
ED63
  8
0
 10
397.8777879156896802
 20
76.1835746237809843
 30
0.0
 11
397.8846668149897141
 21
76.186658349969278
 31
0.0
  0
LINE
  5
ED64
  8
0
 10
397.8846668149897141
 20
76.186658349969278
 30
0.0
 11
397.8733016521896957
 21
76.1917532130692763
 31
0.0
  0
LINE
  5
ED65
  8
0
 10
397.8733016521896957
 20
76.1917532130692763
 30
0.0
 11
397.8687303322025173
 21
76.1917532130332944
 31
0.0
  0
LINE
  5
ED66
  8
0
 10
397.8687303322025173
 20
76.1917532130332944
 30
0.0
 11
397.8674262169722056
 21
76.1932816719692738
 31
0.0
  0
LINE
  5
ED67
  8
0
 10
397.8674262169722056
 20
76.1932816719692738
 30
0.0
 11
397.8733016521896957
 21
76.1932816719692738
 31
0.0
  0
LINE
  5
ED68
  8
0
 10
397.8733016521896957
 20
76.1932816719692738
 30
0.0
 11
397.8846668149897141
 21
76.1983765350692863
 31
0.0
  0
LINE
  5
ED69
  8
0
 10
397.8846668149897141
 20
76.1983765350692863
 30
0.0
 11
397.8733016521896957
 21
76.2034713981692846
 31
0.0
  0
LINE
  5
ED6A
  8
0
 10
397.8733016521896957
 20
76.2034713981692846
 30
0.0
 11
397.8642606480332802
 21
76.2034791347295339
 31
0.0
  0
LINE
  5
ED6B
  8
0
 10
397.8743242630620784
 20
76.2147311594266483
 30
0.0
 11
397.8846668149897141
 21
76.2100947201692804
 31
0.0
  0
LINE
  5
ED6C
  8
0
 10
397.8846668149897141
 20
76.2100947201692804
 30
0.0
 11
397.8733016521896957
 21
76.2049998570692821
 31
0.0
  0
LINE
  5
ED6D
  8
0
 10
397.8733016521896957
 20
76.2049998570692821
 30
0.0
 11
397.8652072843394194
 21
76.2050132149763044
 31
0.0
  0
LINE
  5
ED6E
  8
0
 10
397.8733016521896957
 20
76.2138289222387755
 30
0.0
 11
397.8733016521896957
 21
76.2049998570692821
 31
0.0
  0
LINE
  5
ED6F
  8
0
 10
397.8733016521896957
 20
76.2034713981692846
 30
0.0
 11
397.8733016521896957
 21
76.1932816719692738
 31
0.0
  0
LINE
  5
ED70
  8
0
 10
397.8674262169897133
 20
76.1932816719487107
 30
0.0
 11
397.8674507747447819
 21
76.2034764048770654
 31
0.0
  0
LINE
  5
ED71
  8
0
 10
397.8777879156896802
 20
76.1897420761692814
 30
0.0
 11
397.8777879156896802
 21
76.1835746237809843
 31
0.0
  0
LINE
  5
ED72
  8
0
 10
397.9140596823896772
 20
76.1734818879583742
 30
0.0
 11
397.9140596824325939
 21
76.1646802565885253
 31
0.0
  0
LINE
  5
ED73
  8
0
 10
397.9608007781897072
 20
76.1525284279956622
 30
0.0
 11
397.9608007781897072
 21
76.1504791612692742
 31
0.0
  0
LINE
  5
ED74
  8
0
 10
397.9964932685896883
 20
76.1482461073692747
 30
0.0
 11
397.9964932686033876
 21
76.143043296775403
 31
0.0
  0
LINE
  5
ED75
  8
0
 10
398.0354902910896726
 20
76.1424824055692824
 30
0.0
 11
398.0354902910896726
 21
76.1370888134692763
 31
0.0
  0
LINE
  5
ED76
  8
0
 10
398.0777781552895931
 20
76.1352434597692707
 30
0.0
 11
398.0777781552895931
 21
76.1326095741692797
 31
0.0
  0
LINE
  5
ED77
  8
0
 10
398.0752041649527087
 20
76.268360984312892
 30
0.0
 11
398.0858301961895904
 21
76.2635907826692829
 31
0.0
  0
LINE
  5
ED78
  8
0
 10
398.0858301961895904
 20
76.2635907826692829
 30
0.0
 11
398.1085605216896965
 21
76.2635907826692829
 31
0.0
  0
LINE
  5
ED79
  8
0
 10
398.1085605216896965
 20
76.2635907826692829
 30
0.0
 11
398.119925684489715
 21
76.2686856457692812
 31
0.0
  0
LINE
  5
ED7A
  8
0
 10
398.119925684489715
 20
76.2686856457692812
 30
0.0
 11
398.1147421518592182
 21
76.2710093598357162
 31
0.0
  0
LINE
  5
ED7B
  8
0
 10
398.1085605216896965
 20
76.2635907826692829
 30
0.0
 11
398.1085605216896965
 21
76.2706787856616018
 31
0.0
  0
LINE
  5
ED7C
  8
0
 10
398.0858301961895904
 20
76.2635907826692829
 30
0.0
 11
398.0858301961895904
 21
76.2691999434885446
 31
0.0
  0
LINE
  5
ED7D
  8
0
 10
398.1208949880331147
 20
76.2713080367079783
 30
0.0
 11
398.1250400077897211
 21
76.269449875169272
 31
0.0
  0
LINE
  5
ED7E
  8
0
 10
398.1250400077897211
 20
76.269449875169272
 30
0.0
 11
398.1477703332897136
 21
76.269449875169272
 31
0.0
  0
LINE
  5
ED7F
  8
0
 10
398.1477703332897136
 20
76.269449875169272
 30
0.0
 11
398.1543517856895846
 21
76.2724002595692809
 31
0.0
  0
LINE
  5
ED80
  8
0
 10
398.1477703332897136
 20
76.269449875169272
 30
0.0
 11
398.1477703332897136
 21
76.2722580724692705
 31
0.0
  0
LINE
  5
ED81
  8
0
 10
398.1250400077897211
 20
76.269449875169272
 30
0.0
 11
398.1250400077897211
 21
76.2714921848916134
 31
0.0
  0
LINE
  5
ED82
  8
0
 10
398.161398670703818
 20
76.2725108506869134
 30
0.0
 11
398.1528846565897197
 21
76.2686856457692812
 31
0.0
  0
LINE
  5
ED83
  8
0
 10
398.1528846565897197
 20
76.2686856457692812
 30
0.0
 11
398.1642498193896813
 21
76.2635907826692829
 31
0.0
  0
LINE
  5
ED84
  8
0
 10
398.1642498193896813
 20
76.2635907826692829
 30
0.0
 11
398.1869801448896737
 21
76.2635907826692829
 31
0.0
  0
LINE
  5
ED85
  8
0
 10
398.1869801448896737
 20
76.2635907826692829
 30
0.0
 11
398.1983453076896922
 21
76.2686856457692812
 31
0.0
  0
LINE
  5
ED86
  8
0
 10
398.1983453076896922
 20
76.2686856457692812
 30
0.0
 11
398.1898160828001778
 21
76.2725156367970669
 31
0.0
  0
LINE
  5
ED87
  8
0
 10
398.1642498193896813
 20
76.2635907826692829
 30
0.0
 11
398.1642498193896813
 21
76.2725555962493189
 31
0.0
  0
LINE
  5
ED88
  8
0
 10
398.1869801448896737
 20
76.2635907826692829
 30
0.0
 11
398.1869801448896737
 21
76.2725427894733201
 31
0.0
  0
ARC
  5
ED89
  8
0
 10
398.1736232962043118
 20
75.0360867007390056
 30
0.0
 40
1.2441553969176899
 50
89.9082816079072558
 51
96.083254331191668
  0
ARC
  5
ED8A
  8
0
 10
398.1232989998740095
 20
75.5082890872823072
 30
0.0
 40
0.7692789617702858
 50
96.083254331191668
 51
107.0872351657391022
  0
ARC
  5
ED8B
  8
0
 10
397.9440534546795902
 20
76.091398050422498
 30
0.0
 40
0.1592420543896968
 50
107.0872351657389032
 51
128.683874122336789
  0
ARC
  5
ED8C
  8
0
 10
397.8696458336848991
 20
76.1851366606838667
 30
0.0
 40
0.0395658590923792
 50
129.4162388634574938
 51
162.880596180796914
  0
ARC
  5
ED8D
  8
0
 10
397.8545351512985917
 20
76.1910854951523362
 30
0.0
 40
0.0234062767471278
 50
165.9104748763882924
 51
191.0004735449149109
  0
ARC
  5
ED8E
  8
0
 10
397.8604165773622867
 20
76.1922287790149966
 30
0.0
 40
0.0293977932941541
 50
191.0004735449149109
 51
224.023379022823292
  0
ARC
  5
ED8F
  8
0
 10
397.9132854637570063
 20
76.2433253759451617
 30
0.0
 40
0.102923172357868
 50
224.023379022823292
 51
244.9222985356942104
  0
ARC
  5
ED90
  8
0
 10
398.0125808329258916
 20
76.4555132242272606
 30
0.0
 40
0.3371949233159566
 50
244.9222985356942104
 51
255.3728261988894985
  0
ARC
  5
ED91
  8
0
 10
398.1054712782189995
 20
76.8114330363099356
 30
0.0
 40
0.7050366657266128
 50
255.3728261988894985
 51
262.3097852105526044
  0
ARC
  5
ED92
  8
0
 10
398.1709745839796142
 20
77.2965298696821748
 30
0.0
 40
1.194536023043214
 50
262.3097852105526044
 51
266.9888439773590108
  0
ARC
  5
ED93
  8
0
 10
398.1738189880833261
 20
77.3506028832160411
 30
0.0
 40
1.24868379702643
 50
266.9888439773590108
 51
270.0824092595623256
  0
ARC
  5
ED94
  8
0
 10
397.8850615346569839
 20
76.2055753753981975
 30
0.0
 40
0.0315187298851662
 50
131.6882920872569116
 51
222.2051320735193087
  0
LINE
  5
ED95
  8
0
 10
398.6283708943988131
 20
76.1653871414692816
 30
0.0
 11
398.5642695646465086
 21
76.1653871414692816
 31
0.0
  0
ARC
  5
ED96
  8
0
 10
398.1756542116780793
 20
77.664464824453546
 30
0.0
 40
1.5710415777125131
 50
269.9985694237417988
 51
271.7793059494914019
  0
ARC
  5
ED97
  8
0
 10
398.1802105338642264
 20
77.5177929691572132
 30
0.0
 40
1.4242989690130159
 50
271.7793059494914019
 51
277.8774219860370067
  0
ARC
  5
ED98
  8
0
 10
398.2653523614304731
 20
76.9024277936709666
 30
0.0
 40
0.8030716112746887
 50
277.8774219860370067
 51
285.3866259324951216
  0
ARC
  5
ED99
  8
0
 10
398.4079176211332083
 20
76.4081774398902382
 30
0.0
 40
0.2887785643840961
 50
284.1335104252012798
 51
302.7806997450268796
  0
ARC
  5
ED9A
  8
0
 10
398.5311842126881174
 20
76.2193192296433892
 30
0.0
 40
0.0632717207686977
 50
301.5275842377337199
 51
338.1887078563012778
  0
ARC
  5
ED9B
  8
0
 10
398.563502526131515
 20
76.2063854374910079
 30
0.0
 40
0.0284614297146729
 50
338.188707856300482
 51
30.3169599788614015
  0
ARC
  5
ED9C
  8
0
 10
398.4871869628918262
 20
76.1433238587244716
 30
0.0
 40
0.1271727220274693
 50
37.5060093850205689
 51
72.4655979480127144
  0
ARC
  5
ED9D
  8
0
 10
398.2872368029608197
 20
75.6069304548904739
 30
0.0
 40
0.6994876633941296
 50
70.0849064815082556
 51
83.2798205779686356
  0
ARC
  5
ED9E
  8
0
 10
398.1881789863393237
 20
74.9455545439106459
 30
0.0
 40
1.3680723059576261
 50
82.4010172841462349
 51
87.5010569633457038
  0
ARC
  5
ED9F
  8
0
 10
398.1758688979978729
 20
74.7286934211890355
 30
0.0
 40
1.585266480402286
 50
87.398302213328023
 51
90.0091770784728453
  0
ARC
  5
EDA0
  8
0
 10
398.1757758604202877
 20
74.7771685307242251
 30
0.0
 40
1.524943316540865
 50
87.2918936914548169
 51
90.0060480191164345
  0
ARC
  5
EDA1
  8
0
 10
398.182689983560806
 20
74.9233426406571823
 30
0.0
 40
1.378605776881703
 50
83.2327350020899104
 51
87.2918936914548169
  0
ARC
  5
EDA2
  8
0
 10
398.2348334930804867
 20
75.3627664718965207
 30
0.0
 40
0.9360989983504813
 50
76.2506591949729398
 51
83.2327350020899104
  0
ARC
  5
EDA3
  8
0
 10
398.3681153128583787
 20
75.9074714571143829
 30
0.0
 40
0.3753249222694829
 50
62.780661665642981
 51
76.2506591949729398
  0
ARC
  5
EDA4
  8
0
 10
398.5000671377778758
 20
76.1640089261181856
 30
0.0
 40
0.0868413749007325
 50
37.1839868417010067
 51
62.780661665642981
  0
ARC
  5
EDA5
  8
0
 10
398.5458668739972836
 20
76.1987526473320713
 30
0.0
 40
0.0293544894262484
 50
359.8702016349104156
 51
37.1839868417010067
  0
ARC
  5
EDA6
  8
0
 10
398.5461588518696203
 20
76.1987519858816995
 30
0.0
 40
0.029062510804696
 50
327.881596573263721
 51
359.8702016349112114
  0
ARC
  5
EDA7
  8
0
 10
398.5073558076733207
 20
76.2254868623625583
 30
0.0
 40
0.0761675414249901
 50
300.2775289934842249
 51
326.3674029862916086
  0
ARC
  5
EDA8
  8
0
 10
398.4390106045008224
 20
76.3319042783534769
 30
0.0
 40
0.2025989385972063
 50
292.3292056013776232
 51
301.7957915646317133
  0
ARC
  5
EDA9
  8
0
 10
398.3546700043510782
 20
76.5392598379668101
 30
0.0
 40
0.4264502013720569
 50
284.200483587684289
 51
292.2265977523924221
  0
ARC
  5
EDAA
  8
0
 10
398.2502164057941059
 20
76.9529129179197611
 30
0.0
 40
0.8530875203878537
 50
277.2627940138112876
 51
284.1861308079123773
  0
ARC
  5
EDAB
  8
0
 10
398.1866027553062963
 20
77.421765851911303
 30
0.0
 40
1.3262263280682081
 50
272.3778231199585207
 51
277.4282864065805256
  0
ARC
  5
EDAC
  8
0
 10
398.1758476445315864
 20
77.6184532573246742
 30
0.0
 40
1.5231927908590741
 50
269.9912483954523736
 51
272.4750782523793191
  0
ARC
  5
EDAD
  8
0
 10
398.1770567432229768
 20
74.96450178672535
 30
0.0
 40
1.328440117514891
 50
83.9885070025713958
 51
90.0621831937064456
  0
ARC
  5
EDAE
  8
0
 10
398.2266646782097723
 20
75.4355807584211107
 30
0.0
 40
0.8547563149761266
 50
74.8122834262700138
 51
83.9885070025713958
  0
ARC
  5
EDAF
  8
0
 10
398.3836123022709899
 20
76.0137338335531325
 30
0.0
 40
0.2556790787343679
 50
60.1350800793576283
 51
74.8122834262700138
  0
ARC
  5
EDB0
  8
0
 10
398.4704565059926153
 20
76.1649747390821119
 30
0.0
 40
0.0812780259128567
 50
40.626607382770537
 51
60.1350800793576283
  0
ARC
  5
EDB1
  8
0
 10
398.5071073420369885
 20
76.1964178402035088
 30
0.0
 40
0.0329877329867819
 50
13.8160819301146809
 51
40.626607382770537
  0
ARC
  5
EDB2
  8
0
 10
398.5173586222418862
 20
76.1989388472865699
 30
0.0
 40
0.0224310184148776
 50
359.3545126240138075
 51
13.8160819301138904
  0
ARC
  5
EDB3
  8
0
 10
398.5051532219098931
 20
76.1990763576796155
 30
0.0
 40
0.0346371933428439
 50
339.3792692582787822
 51
359.3545126240138075
  0
ARC
  5
EDB4
  8
0
 10
398.4889079053659202
 20
76.2073635660509581
 30
0.0
 40
0.0527995298070903
 50
309.4754949061539264
 51
337.17044470349731
  0
ARC
  5
EDB5
  8
0
 10
398.4574579264743761
 20
76.241489851405106
 30
0.0
 40
0.0991693348159864
 50
303.0178765472552982
 51
310.9665120256649971
  0
ARC
  5
EDB6
  8
0
 10
398.3854268146271238
 20
76.3651747714789195
 30
0.0
 40
0.2422301187647778
 50
286.3455751039625738
 51
301.3624093917824212
  0
ARC
  5
EDB7
  8
0
 10
398.2487818257184244
 20
76.8241147890663285
 30
0.0
 40
0.7210792588200605
 50
276.3337065718611143
 51
286.5015129964951939
  0
ARC
  5
EDB8
  8
0
 10
398.1807019018402229
 20
77.3462554866560907
 30
0.0
 40
1.2475840189335059
 50
271.1509972147940175
 51
276.7958277222315928
  0
ARC
  5
EDB9
  8
0
 10
398.1756692972955989
 20
77.4788936683993654
 30
0.0
 40
1.380298559715931
 50
269.9977452613495075
 51
271.249260721691428
  0
LINE
  5
EDBA
  8
0
 10
398.5397882171988044
 20
76.2412336646692808
 30
0.0
 11
398.5397878257589923
 21
76.1992241834366126
 31
0.0
  0
ARC
  5
EDBB
  8
0
 10
398.1758366459948206
 20
75.1504932494517845
 30
0.0
 40
1.1221048738108941
 50
88.5894003544750035
 51
90.0113182034465353
  0
ARC
  5
EDBC
  8
0
 10
398.1725685827411212
 20
75.0177777768952154
 30
0.0
 40
1.254860577618089
 50
85.5269228411058862
 51
88.5894003544750035
  0
ARC
  5
EDBD
  8
0
 10
398.2016739477907095
 20
75.3898315451094589
 30
0.0
 40
0.8816701051819705
 50
82.3709242940015827
 51
85.5269228411058862
  0
ARC
  5
EDBE
  8
0
 10
398.2114320728076109
 20
75.4626832624956876
 30
0.0
 40
0.808167766920061
 50
77.721510125112971
 51
82.3709242940015827
  0
ARC
  5
EDBF
  8
0
 10
398.3001657452413156
 20
75.8703879479919436
 30
0.0
 40
0.3909187103612955
 50
71.4863423605537349
 51
77.721510125112971
  0
ARC
  5
EDC0
  8
0
 10
398.3433386383896959
 20
75.9993159830984411
 30
0.0
 40
0.2549542409613065
 50
62.4023062387501284
 51
71.4863423605506654
  0
ARC
  5
EDC1
  8
0
 10
398.4241465257770756
 20
76.1539023701727587
 30
0.0
 40
0.0805212574613113
 50
43.0922422516653398
 51
62.4023062387504908
  0
ARC
  5
EDC2
  8
0
 10
398.4614190456371716
 20
76.1887719126421104
 30
0.0
 40
0.0294808251674781
 50
14.2260562647733604
 51
43.0922422516665335
  0
ARC
  5
EDC3
  8
0
 10
398.4702653443562212
 20
76.1910146514386497
 30
0.0
 40
0.0203546606754389
 50
341.0407275772598723
 51
14.2260562647717794
  0
ARC
  5
EDC4
  8
0
 10
398.4583177770198859
 20
76.1951190315075308
 30
0.0
 40
0.0329875661609156
 50
314.5880477955818151
 51
341.0407275772623166
  0
ARC
  5
EDC5
  8
0
 10
398.4204760620593788
 20
76.233508854751534
 30
0.0
 40
0.0868927970746196
 50
299.7473417313196933
 51
314.5880477955840888
  0
ARC
  5
EDC6
  8
0
 10
398.3591319798113091
 20
76.3408502977299861
 30
0.0
 40
0.2105264567614319
 50
283.5369088104596926
 51
299.7473417313196933
  0
ARC
  5
EDC7
  8
0
 10
398.0739933940465107
 20
77.5251765136096651
 30
0.0
 40
1.4286941786748839
 50
280.839176478930824
 51
283.5369088104596926
  0
ARC
  5
EDC8
  8
0
 10
398.2524300157026005
 20
76.5932414102398837
 30
0.0
 40
0.4798302975829442
 50
273.4181730327899231
 51
280.839176478930824
  0
ARC
  5
EDC9
  8
0
 10
398.1776236108577223
 20
77.2545233851054007
 30
0.0
 40
1.1449386409834279
 50
270.8663784976114925
 51
275.182241053377993
  0
ARC
  5
EDCA
  8
0
 10
398.1756423054029028
 20
77.3272704019647392
 30
0.0
 40
1.217707618481499
 50
269.9987148460086814
 51
270.9078362472470189
  0
LINE
  5
EDCB
  8
0
 10
398.2261899631988058
 20
76.1507395651692747
 30
0.0
 11
398.2034596376988134
 21
76.1507395651692747
 31
0.0
  0
LINE
  5
EDCC
  8
0
 10
398.2034596376988134
 20
76.1507395651692747
 30
0.0
 11
398.1920944748987949
 21
76.1456447020692764
 31
0.0
  0
LINE
  5
EDCD
  8
0
 10
398.1920944748987949
 20
76.1456447020692764
 30
0.0
 11
398.2034596376988134
 21
76.1405498389692639
 31
0.0
  0
LINE
  5
EDCE
  8
0
 10
398.2034596376988134
 20
76.1405498389692639
 30
0.0
 11
398.2261899631988058
 21
76.1405498389692639
 31
0.0
  0
LINE
  5
EDCF
  8
0
 10
398.2261899631988058
 20
76.1405498389692639
 30
0.0
 11
398.2375551259988242
 21
76.1456447020692764
 31
0.0
  0
LINE
  5
EDD0
  8
0
 10
398.2375551259988242
 20
76.1456447020692764
 30
0.0
 11
398.2261899631988058
 21
76.1507395651692747
 31
0.0
  0
LINE
  5
EDD1
  8
0
 10
398.2261899631988058
 20
76.1507395651692747
 30
0.0
 11
398.2261899631988058
 21
76.1405498389692639
 31
0.0
  0
LINE
  5
EDD2
  8
0
 10
398.2034596376988134
 20
76.1405498389692639
 30
0.0
 11
398.2034596376988134
 21
76.1507395651692747
 31
0.0
  0
LINE
  5
EDD3
  8
0
 10
398.2261899631988058
 20
76.162457750269283
 30
0.0
 11
398.2034596376988134
 21
76.162457750269283
 31
0.0
  0
LINE
  5
EDD4
  8
0
 10
398.2034596376988134
 20
76.162457750269283
 30
0.0
 11
398.1920944748987949
 21
76.1573628871692847
 31
0.0
  0
LINE
  5
EDD5
  8
0
 10
398.1920944748987949
 20
76.1573628871692847
 30
0.0
 11
398.2034596376988134
 21
76.1522680240692864
 31
0.0
  0
LINE
  5
EDD6
  8
0
 10
398.2034596376988134
 20
76.1522680240692864
 30
0.0
 11
398.2261899631988058
 21
76.1522680240692722
 31
0.0
  0
LINE
  5
EDD7
  8
0
 10
398.2261899631988058
 20
76.1522680240692722
 30
0.0
 11
398.2375551259988242
 21
76.1573628871692847
 31
0.0
  0
LINE
  5
EDD8
  8
0
 10
398.2375551259988242
 20
76.1573628871692847
 30
0.0
 11
398.2261899631988058
 21
76.162457750269283
 31
0.0
  0
LINE
  5
EDD9
  8
0
 10
398.2261899631988058
 20
76.162457750269283
 30
0.0
 11
398.2261899631988058
 21
76.1522680240692722
 31
0.0
  0
LINE
  5
EDDA
  8
0
 10
398.2034596376988134
 20
76.1522680240692864
 30
0.0
 11
398.2034596376988134
 21
76.162457750269283
 31
0.0
  0
LINE
  5
EDDB
  8
0
 10
398.2261899631988058
 20
76.1741759353692629
 30
0.0
 11
398.2034596376988134
 21
76.1741759353692629
 31
0.0
  0
LINE
  5
EDDC
  8
0
 10
398.2034596376988134
 20
76.1741759353692629
 30
0.0
 11
398.1920944748987949
 21
76.1690810722692788
 31
0.0
  0
LINE
  5
EDDD
  8
0
 10
398.1920944748987949
 20
76.1690810722692788
 30
0.0
 11
398.2034596376988134
 21
76.1639862091692805
 31
0.0
  0
LINE
  5
EDDE
  8
0
 10
398.2034596376988134
 20
76.1639862091692805
 30
0.0
 11
398.2261899631988058
 21
76.1639862091692805
 31
0.0
  0
LINE
  5
EDDF
  8
0
 10
398.2261899631988058
 20
76.1639862091692805
 30
0.0
 11
398.2375551259988242
 21
76.1690810722692788
 31
0.0
  0
LINE
  5
EDE0
  8
0
 10
398.2375551259988242
 20
76.1690810722692788
 30
0.0
 11
398.2261899631988058
 21
76.1741759353692629
 31
0.0
  0
LINE
  5
EDE1
  8
0
 10
398.2261899631988058
 20
76.1741759353692629
 30
0.0
 11
398.2261899631988058
 21
76.1639862091692805
 31
0.0
  0
LINE
  5
EDE2
  8
0
 10
398.2034596376988134
 20
76.1639862091692805
 30
0.0
 11
398.2034596376988134
 21
76.1741759353692629
 31
0.0
  0
LINE
  5
EDE3
  8
0
 10
398.2261899631988058
 20
76.1976123056692813
 30
0.0
 11
398.2034596376988134
 21
76.1976123056692813
 31
0.0
  0
LINE
  5
EDE4
  8
0
 10
398.2034596376988134
 20
76.1976123056692813
 30
0.0
 11
398.1920944748987949
 21
76.192517442569283
 31
0.0
  0
LINE
  5
EDE5
  8
0
 10
398.1920944748987949
 20
76.192517442569283
 30
0.0
 11
398.2034596376988134
 21
76.1874225794692848
 31
0.0
  0
LINE
  5
EDE6
  8
0
 10
398.2034596376988134
 20
76.1874225794692848
 30
0.0
 11
398.2261899631988058
 21
76.1874225794692848
 31
0.0
  0
LINE
  5
EDE7
  8
0
 10
398.2261899631988058
 20
76.1874225794692848
 30
0.0
 11
398.2375551259988242
 21
76.192517442569283
 31
0.0
  0
LINE
  5
EDE8
  8
0
 10
398.2375551259988242
 20
76.192517442569283
 30
0.0
 11
398.2261899631988058
 21
76.1976123056692813
 31
0.0
  0
LINE
  5
EDE9
  8
0
 10
398.2261899631988058
 20
76.1976123056692813
 30
0.0
 11
398.2261899631988058
 21
76.1874225794692848
 31
0.0
  0
LINE
  5
EDEA
  8
0
 10
398.2034596376988134
 20
76.1874225794692848
 30
0.0
 11
398.2034596376988134
 21
76.1976123056692813
 31
0.0
  0
LINE
  5
EDEB
  8
0
 10
398.2261899631988058
 20
76.2093304907692755
 30
0.0
 11
398.2034596376988134
 21
76.2093304907692755
 31
0.0
  0
LINE
  5
EDEC
  8
0
 10
398.2034596376988134
 20
76.2093304907692755
 30
0.0
 11
398.1920944748987949
 21
76.204235627669263
 31
0.0
  0
LINE
  5
EDED
  8
0
 10
398.1920944748987949
 20
76.204235627669263
 30
0.0
 11
398.2034596376988134
 21
76.1991407645692789
 31
0.0
  0
LINE
  5
EDEE
  8
0
 10
398.2034596376988134
 20
76.1991407645692789
 30
0.0
 11
398.2261899631988058
 21
76.1991407645692789
 31
0.0
  0
LINE
  5
EDEF
  8
0
 10
398.2261899631988058
 20
76.1991407645692789
 30
0.0
 11
398.2375551259988242
 21
76.204235627669263
 31
0.0
  0
LINE
  5
EDF0
  8
0
 10
398.2375551259988242
 20
76.204235627669263
 30
0.0
 11
398.2261899631988058
 21
76.2093304907692755
 31
0.0
  0
LINE
  5
EDF1
  8
0
 10
398.2261899631988058
 20
76.2093304907692755
 30
0.0
 11
398.2261899631988058
 21
76.1991407645692789
 31
0.0
  0
LINE
  5
EDF2
  8
0
 10
398.2034596376988134
 20
76.1991407645692789
 30
0.0
 11
398.2034596376988134
 21
76.2093304907692755
 31
0.0
  0
LINE
  5
EDF3
  8
0
 10
398.2261899631988058
 20
76.2210486758692554
 30
0.0
 11
398.2034596376988134
 21
76.2210486758692554
 31
0.0
  0
LINE
  5
EDF4
  8
0
 10
398.2034596376988134
 20
76.2210486758692554
 30
0.0
 11
398.1920944748987949
 21
76.2159538127692713
 31
0.0
  0
LINE
  5
EDF5
  8
0
 10
398.1920944748987949
 20
76.2159538127692713
 30
0.0
 11
398.2034596376988134
 21
76.210858949669273
 31
0.0
  0
LINE
  5
EDF6
  8
0
 10
398.2034596376988134
 20
76.210858949669273
 30
0.0
 11
398.2261899631988058
 21
76.210858949669273
 31
0.0
  0
LINE
  5
EDF7
  8
0
 10
398.2261899631988058
 20
76.210858949669273
 30
0.0
 11
398.2375551259988242
 21
76.2159538127692713
 31
0.0
  0
LINE
  5
EDF8
  8
0
 10
398.2375551259988242
 20
76.2159538127692713
 30
0.0
 11
398.2261899631988058
 21
76.2210486758692554
 31
0.0
  0
LINE
  5
EDF9
  8
0
 10
398.2261899631988058
 20
76.2210486758692554
 30
0.0
 11
398.2261899631988058
 21
76.210858949669273
 31
0.0
  0
LINE
  5
EDFA
  8
0
 10
398.2034596376988134
 20
76.210858949669273
 30
0.0
 11
398.2034596376988134
 21
76.2210486758692554
 31
0.0
  0
LINE
  5
EDFB
  8
0
 10
398.2261899631988058
 20
76.2327668609692779
 30
0.0
 11
398.2034596376988134
 21
76.2327668609692779
 31
0.0
  0
LINE
  5
EDFC
  8
0
 10
398.2034596376988134
 20
76.2327668609692779
 30
0.0
 11
398.1920944748987949
 21
76.2276719978692654
 31
0.0
  0
LINE
  5
EDFD
  8
0
 10
398.1920944748987949
 20
76.2276719978692654
 30
0.0
 11
398.2034596376988134
 21
76.2225771347692813
 31
0.0
  0
LINE
  5
EDFE
  8
0
 10
398.2034596376988134
 20
76.2225771347692813
 30
0.0
 11
398.2261899631988058
 21
76.2225771347692813
 31
0.0
  0
LINE
  5
EDFF
  8
0
 10
398.2261899631988058
 20
76.2225771347692813
 30
0.0
 11
398.2375551259988242
 21
76.2276719978692654
 31
0.0
  0
LINE
  5
EE00
  8
0
 10
398.2375551259988242
 20
76.2276719978692654
 30
0.0
 11
398.2261899631988058
 21
76.2327668609692779
 31
0.0
  0
LINE
  5
EE01
  8
0
 10
398.2261899631988058
 20
76.2327668609692779
 30
0.0
 11
398.2261899631988058
 21
76.2225771347692813
 31
0.0
  0
LINE
  5
EE02
  8
0
 10
398.2034596376988134
 20
76.2225771347692813
 30
0.0
 11
398.2034596376988134
 21
76.2327668609692779
 31
0.0
  0
LINE
  5
EE03
  8
0
 10
398.2261899631988058
 20
76.2444850460692862
 30
0.0
 11
398.2034596376988134
 21
76.2444850460692862
 31
0.0
  0
LINE
  5
EE04
  8
0
 10
398.2034596376988134
 20
76.2444850460692862
 30
0.0
 11
398.1920944748987949
 21
76.2393901829692737
 31
0.0
  0
LINE
  5
EE05
  8
0
 10
398.1920944748987949
 20
76.2393901829692737
 30
0.0
 11
398.2034596376988134
 21
76.2342953198692754
 31
0.0
  0
LINE
  5
EE06
  8
0
 10
398.2034596376988134
 20
76.2342953198692754
 30
0.0
 11
398.2261899631988058
 21
76.2342953198692754
 31
0.0
  0
LINE
  5
EE07
  8
0
 10
398.2261899631988058
 20
76.2342953198692754
 30
0.0
 11
398.2375551259988242
 21
76.2393901829692737
 31
0.0
  0
LINE
  5
EE08
  8
0
 10
398.2375551259988242
 20
76.2393901829692737
 30
0.0
 11
398.2261899631988058
 21
76.2444850460692862
 31
0.0
  0
LINE
  5
EE09
  8
0
 10
398.2261899631988058
 20
76.2444850460692862
 30
0.0
 11
398.2261899631988058
 21
76.2342953198692754
 31
0.0
  0
LINE
  5
EE0A
  8
0
 10
398.2034596376988134
 20
76.2342953198692754
 30
0.0
 11
398.2034596376988134
 21
76.2444850460692862
 31
0.0
  0
LINE
  5
EE0B
  8
0
 10
398.2261899631988058
 20
76.2562032311692803
 30
0.0
 11
398.2034596376988134
 21
76.2562032311692803
 31
0.0
  0
LINE
  5
EE0C
  8
0
 10
398.2034596376988134
 20
76.2562032311692803
 30
0.0
 11
398.1920944748987949
 21
76.2511083680692821
 31
0.0
  0
LINE
  5
EE0D
  8
0
 10
398.1920944748987949
 20
76.2511083680692821
 30
0.0
 11
398.2034596376988134
 21
76.2460135049692838
 31
0.0
  0
LINE
  5
EE0E
  8
0
 10
398.2034596376988134
 20
76.2460135049692838
 30
0.0
 11
398.2261899631988058
 21
76.2460135049692838
 31
0.0
  0
LINE
  5
EE0F
  8
0
 10
398.2261899631988058
 20
76.2460135049692838
 30
0.0
 11
398.2375551259988242
 21
76.2511083680692821
 31
0.0
  0
LINE
  5
EE10
  8
0
 10
398.2375551259988242
 20
76.2511083680692821
 30
0.0
 11
398.2261899631988058
 21
76.2562032311692803
 31
0.0
  0
LINE
  5
EE11
  8
0
 10
398.2261899631988058
 20
76.2562032311692803
 30
0.0
 11
398.2261899631988058
 21
76.2460135049692838
 31
0.0
  0
LINE
  5
EE12
  8
0
 10
398.2034596376988134
 20
76.2460135049692838
 30
0.0
 11
398.2034596376988134
 21
76.2562032311692803
 31
0.0
  0
LINE
  5
EE13
  8
0
 10
398.2261899631988058
 20
76.2679214162692745
 30
0.0
 11
398.2034596376988134
 21
76.2679214162692745
 31
0.0
  0
LINE
  5
EE14
  8
0
 10
398.2034596376988134
 20
76.2679214162692745
 30
0.0
 11
398.1920944748987949
 21
76.2628265531692762
 31
0.0
  0
LINE
  5
EE15
  8
0
 10
398.1920944748987949
 20
76.2628265531692762
 30
0.0
 11
398.2034596376988134
 21
76.2577316900692779
 31
0.0
  0
LINE
  5
EE16
  8
0
 10
398.2034596376988134
 20
76.2577316900692779
 30
0.0
 11
398.2261899631988058
 21
76.2577316900692779
 31
0.0
  0
LINE
  5
EE17
  8
0
 10
398.2261899631988058
 20
76.2577316900692779
 30
0.0
 11
398.2375551259988242
 21
76.2628265531692762
 31
0.0
  0
LINE
  5
EE18
  8
0
 10
398.2375551259988242
 20
76.2628265531692762
 30
0.0
 11
398.2261899631988058
 21
76.2679214162692745
 31
0.0
  0
LINE
  5
EE19
  8
0
 10
398.2261899631988058
 20
76.2679214162692745
 30
0.0
 11
398.2261899631988058
 21
76.2577316900692779
 31
0.0
  0
LINE
  5
EE1A
  8
0
 10
398.2034596376988134
 20
76.2577316900692779
 30
0.0
 11
398.2034596376988134
 21
76.2679214162692745
 31
0.0
  0
LINE
  5
EE1B
  8
0
 10
398.2653997747988228
 20
76.2620623237692712
 30
0.0
 11
398.2426694492987735
 21
76.2620623237692712
 31
0.0
  0
LINE
  5
EE1C
  8
0
 10
398.2426694492987735
 20
76.2620623237692712
 30
0.0
 11
398.231304286498812
 21
76.2569674606692729
 31
0.0
  0
LINE
  5
EE1D
  8
0
 10
398.231304286498812
 20
76.2569674606692729
 30
0.0
 11
398.2426694492987735
 21
76.2518725975692746
 31
0.0
  0
LINE
  5
EE1E
  8
0
 10
398.2426694492987735
 20
76.2518725975692746
 30
0.0
 11
398.2653997747988228
 21
76.2518725975692746
 31
0.0
  0
LINE
  5
EE1F
  8
0
 10
398.2653997747988228
 20
76.2518725975692746
 30
0.0
 11
398.2767649375987844
 21
76.2569674606692729
 31
0.0
  0
LINE
  5
EE20
  8
0
 10
398.2767649375987844
 20
76.2569674606692729
 30
0.0
 11
398.2653997747988228
 21
76.2620623237692712
 31
0.0
  0
LINE
  5
EE21
  8
0
 10
398.2653997747988228
 20
76.2620623237692712
 30
0.0
 11
398.2653997747988228
 21
76.2518725975692746
 31
0.0
  0
LINE
  5
EE22
  8
0
 10
398.2426694492987735
 20
76.2518725975692746
 30
0.0
 11
398.2426694492987735
 21
76.2620623237692712
 31
0.0
  0
LINE
  5
EE23
  8
0
 10
398.2653997747988228
 20
76.2503441386692771
 30
0.0
 11
398.2426694492987735
 21
76.2503441386692771
 31
0.0
  0
LINE
  5
EE24
  8
0
 10
398.2426694492987735
 20
76.2503441386692771
 30
0.0
 11
398.231304286498812
 21
76.2452492755692788
 31
0.0
  0
LINE
  5
EE25
  8
0
 10
398.231304286498812
 20
76.2452492755692788
 30
0.0
 11
398.2426694492987735
 21
76.2401544124692805
 31
0.0
  0
LINE
  5
EE26
  8
0
 10
398.2426694492987735
 20
76.2401544124692805
 30
0.0
 11
398.2653997747988228
 21
76.2401544124692805
 31
0.0
  0
LINE
  5
EE27
  8
0
 10
398.2653997747988228
 20
76.2401544124692805
 30
0.0
 11
398.2767649375987844
 21
76.2452492755692788
 31
0.0
  0
LINE
  5
EE28
  8
0
 10
398.2767649375987844
 20
76.2452492755692788
 30
0.0
 11
398.2653997747988228
 21
76.2503441386692771
 31
0.0
  0
LINE
  5
EE29
  8
0
 10
398.2653997747988228
 20
76.2503441386692771
 30
0.0
 11
398.2653997747988228
 21
76.2401544124692805
 31
0.0
  0
LINE
  5
EE2A
  8
0
 10
398.2426694492987735
 20
76.2401544124692805
 30
0.0
 11
398.2426694492987735
 21
76.2503441386692771
 31
0.0
  0
LINE
  5
EE2B
  8
0
 10
398.2653997747988228
 20
76.2269077683692728
 30
0.0
 11
398.2426694492987735
 21
76.2269077683692728
 31
0.0
  0
LINE
  5
EE2C
  8
0
 10
398.2426694492987735
 20
76.2269077683692728
 30
0.0
 11
398.231304286498812
 21
76.2218129052692746
 31
0.0
  0
LINE
  5
EE2D
  8
0
 10
398.231304286498812
 20
76.2218129052692746
 30
0.0
 11
398.2426694492987735
 21
76.2167180421692763
 31
0.0
  0
LINE
  5
EE2E
  8
0
 10
398.2426694492987735
 20
76.2167180421692763
 30
0.0
 11
398.2653997747988228
 21
76.2167180421692763
 31
0.0
  0
LINE
  5
EE2F
  8
0
 10
398.2653997747988228
 20
76.2167180421692763
 30
0.0
 11
398.2767649375987844
 21
76.2218129052692746
 31
0.0
  0
LINE
  5
EE30
  8
0
 10
398.2767649375987844
 20
76.2218129052692746
 30
0.0
 11
398.2653997747988228
 21
76.2269077683692728
 31
0.0
  0
LINE
  5
EE31
  8
0
 10
398.2653997747988228
 20
76.2269077683692728
 30
0.0
 11
398.2653997747988228
 21
76.2167180421692763
 31
0.0
  0
LINE
  5
EE32
  8
0
 10
398.2426694492987735
 20
76.2167180421692763
 30
0.0
 11
398.2426694492987735
 21
76.2269077683692728
 31
0.0
  0
LINE
  5
EE33
  8
0
 10
398.2653997747988228
 20
76.2151895832692787
 30
0.0
 11
398.2426694492987735
 21
76.2151895832692787
 31
0.0
  0
LINE
  5
EE34
  8
0
 10
398.2426694492987735
 20
76.2151895832692787
 30
0.0
 11
398.231304286498812
 21
76.2100947201692804
 31
0.0
  0
LINE
  5
EE35
  8
0
 10
398.231304286498812
 20
76.2100947201692804
 30
0.0
 11
398.2426694492987735
 21
76.2049998570692821
 31
0.0
  0
LINE
  5
EE36
  8
0
 10
398.2426694492987735
 20
76.2049998570692821
 30
0.0
 11
398.2653997747988228
 21
76.2049998570692821
 31
0.0
  0
LINE
  5
EE37
  8
0
 10
398.2653997747988228
 20
76.2049998570692821
 30
0.0
 11
398.2767649375987844
 21
76.2100947201692804
 31
0.0
  0
LINE
  5
EE38
  8
0
 10
398.2767649375987844
 20
76.2100947201692804
 30
0.0
 11
398.2653997747988228
 21
76.2151895832692787
 31
0.0
  0
LINE
  5
EE39
  8
0
 10
398.2653997747988228
 20
76.2151895832692787
 30
0.0
 11
398.2653997747988228
 21
76.2049998570692821
 31
0.0
  0
LINE
  5
EE3A
  8
0
 10
398.2426694492987735
 20
76.2049998570692821
 30
0.0
 11
398.2426694492987735
 21
76.2151895832692787
 31
0.0
  0
LINE
  5
EE3B
  8
0
 10
398.2653997747988228
 20
76.2034713981692846
 30
0.0
 11
398.2426694492987735
 21
76.2034713981692846
 31
0.0
  0
LINE
  5
EE3C
  8
0
 10
398.2426694492987735
 20
76.2034713981692846
 30
0.0
 11
398.231304286498812
 21
76.1983765350692863
 31
0.0
  0
LINE
  5
EE3D
  8
0
 10
398.231304286498812
 20
76.1983765350692863
 30
0.0
 11
398.2426694492987735
 21
76.1932816719692738
 31
0.0
  0
LINE
  5
EE3E
  8
0
 10
398.2426694492987735
 20
76.1932816719692738
 30
0.0
 11
398.2653997747988228
 21
76.1932816719692738
 31
0.0
  0
LINE
  5
EE3F
  8
0
 10
398.2653997747988228
 20
76.1932816719692738
 30
0.0
 11
398.2767649375987844
 21
76.1983765350692863
 31
0.0
  0
LINE
  5
EE40
  8
0
 10
398.2767649375987844
 20
76.1983765350692863
 30
0.0
 11
398.2653997747988228
 21
76.2034713981692846
 31
0.0
  0
LINE
  5
EE41
  8
0
 10
398.2653997747988228
 20
76.2034713981692846
 30
0.0
 11
398.2653997747988228
 21
76.1932816719692738
 31
0.0
  0
LINE
  5
EE42
  8
0
 10
398.2426694492987735
 20
76.1932816719692738
 30
0.0
 11
398.2426694492987735
 21
76.2034713981692846
 31
0.0
  0
LINE
  5
EE43
  8
0
 10
398.2653997747988228
 20
76.1917532130692763
 30
0.0
 11
398.2426694492987735
 21
76.1917532130692763
 31
0.0
  0
LINE
  5
EE44
  8
0
 10
398.2426694492987735
 20
76.1917532130692763
 30
0.0
 11
398.231304286498812
 21
76.186658349969278
 31
0.0
  0
LINE
  5
EE45
  8
0
 10
398.231304286498812
 20
76.186658349969278
 30
0.0
 11
398.2426694492987735
 21
76.1815634868692797
 31
0.0
  0
LINE
  5
EE46
  8
0
 10
398.2426694492987735
 20
76.1815634868692797
 30
0.0
 11
398.2653997747988228
 21
76.1815634868692797
 31
0.0
  0
LINE
  5
EE47
  8
0
 10
398.2653997747988228
 20
76.1815634868692797
 30
0.0
 11
398.2767649375987844
 21
76.186658349969278
 31
0.0
  0
LINE
  5
EE48
  8
0
 10
398.2767649375987844
 20
76.186658349969278
 30
0.0
 11
398.2653997747988228
 21
76.1917532130692763
 31
0.0
  0
LINE
  5
EE49
  8
0
 10
398.2653997747988228
 20
76.1917532130692763
 30
0.0
 11
398.2653997747988228
 21
76.1815634868692797
 31
0.0
  0
LINE
  5
EE4A
  8
0
 10
398.2426694492987735
 20
76.1815634868692797
 30
0.0
 11
398.2426694492987735
 21
76.1917532130692763
 31
0.0
  0
LINE
  5
EE4B
  8
0
 10
398.2653997747988228
 20
76.1800350279692822
 30
0.0
 11
398.2426694492987735
 21
76.1800350279692822
 31
0.0
  0
LINE
  5
EE4C
  8
0
 10
398.2426694492987735
 20
76.1800350279692822
 30
0.0
 11
398.231304286498812
 21
76.1749401648692839
 31
0.0
  0
LINE
  5
EE4D
  8
0
 10
398.231304286498812
 20
76.1749401648692839
 30
0.0
 11
398.2426694492987735
 21
76.1698453017692714
 31
0.0
  0
LINE
  5
EE4E
  8
0
 10
398.2426694492987735
 20
76.1698453017692714
 30
0.0
 11
398.2653997747988228
 21
76.1698453017692714
 31
0.0
  0
LINE
  5
EE4F
  8
0
 10
398.2653997747988228
 20
76.1698453017692714
 30
0.0
 11
398.2767649375987844
 21
76.1749401648692839
 31
0.0
  0
LINE
  5
EE50
  8
0
 10
398.2767649375987844
 20
76.1749401648692839
 30
0.0
 11
398.2653997747988228
 21
76.1800350279692822
 31
0.0
  0
LINE
  5
EE51
  8
0
 10
398.2653997747988228
 20
76.1800350279692822
 30
0.0
 11
398.2653997747988228
 21
76.1698453017692714
 31
0.0
  0
LINE
  5
EE52
  8
0
 10
398.2426694492987735
 20
76.1698453017692714
 30
0.0
 11
398.2426694492987735
 21
76.1800350279692822
 31
0.0
  0
LINE
  5
EE53
  8
0
 10
398.2653997747988228
 20
76.1683168428692738
 30
0.0
 11
398.2426694492987735
 21
76.1683168428692738
 31
0.0
  0
LINE
  5
EE54
  8
0
 10
398.2426694492987735
 20
76.1683168428692738
 30
0.0
 11
398.231304286498812
 21
76.1632219797692755
 31
0.0
  0
LINE
  5
EE55
  8
0
 10
398.231304286498812
 20
76.1632219797692755
 30
0.0
 11
398.2426694492987735
 21
76.1581271166692773
 31
0.0
  0
LINE
  5
EE56
  8
0
 10
398.2426694492987735
 20
76.1581271166692773
 30
0.0
 11
398.2653997747988228
 21
76.1581271166692773
 31
0.0
  0
LINE
  5
EE57
  8
0
 10
398.2653997747988228
 20
76.1581271166692773
 30
0.0
 11
398.2767649375987844
 21
76.1632219797692755
 31
0.0
  0
LINE
  5
EE58
  8
0
 10
398.2767649375987844
 20
76.1632219797692755
 30
0.0
 11
398.2653997747988228
 21
76.1683168428692738
 31
0.0
  0
LINE
  5
EE59
  8
0
 10
398.2653997747988228
 20
76.1683168428692738
 30
0.0
 11
398.2653997747988228
 21
76.1581271166692773
 31
0.0
  0
LINE
  5
EE5A
  8
0
 10
398.2426694492987735
 20
76.1581271166692773
 30
0.0
 11
398.2426694492987735
 21
76.1683168428692738
 31
0.0
  0
LINE
  5
EE5B
  8
0
 10
398.2653997747988228
 20
76.1565986577692797
 30
0.0
 11
398.2426694492987735
 21
76.1565986577692797
 31
0.0
  0
LINE
  5
EE5C
  8
0
 10
398.2426694492987735
 20
76.1565986577692797
 30
0.0
 11
398.231304286498812
 21
76.1515037946692814
 31
0.0
  0
LINE
  5
EE5D
  8
0
 10
398.231304286498812
 20
76.1515037946692814
 30
0.0
 11
398.2426694492987735
 21
76.1464089315692831
 31
0.0
  0
LINE
  5
EE5E
  8
0
 10
398.2426694492987735
 20
76.1464089315692831
 30
0.0
 11
398.2653997747988228
 21
76.1464089315692831
 31
0.0
  0
LINE
  5
EE5F
  8
0
 10
398.2653997747988228
 20
76.1464089315692831
 30
0.0
 11
398.2767649375987844
 21
76.1515037946692814
 31
0.0
  0
LINE
  5
EE60
  8
0
 10
398.2767649375987844
 20
76.1515037946692814
 30
0.0
 11
398.2653997747988228
 21
76.1565986577692797
 31
0.0
  0
LINE
  5
EE61
  8
0
 10
398.2653997747988228
 20
76.1565986577692797
 30
0.0
 11
398.2653997747988228
 21
76.1464089315692831
 31
0.0
  0
LINE
  5
EE62
  8
0
 10
398.2426694492987735
 20
76.1464089315692831
 30
0.0
 11
398.2426694492987735
 21
76.1565986577692797
 31
0.0
  0
LINE
  5
EE63
  8
0
 10
398.2653997747988228
 20
76.1448804725692838
 30
0.0
 11
398.2426694492987735
 21
76.1448804725692838
 31
0.0
  0
LINE
  5
EE64
  8
0
 10
398.2426694492987735
 20
76.1448804725692838
 30
0.0
 11
398.231304286498812
 21
76.1397856094692713
 31
0.0
  0
LINE
  5
EE65
  8
0
 10
398.231304286498812
 20
76.1397856094692713
 30
0.0
 11
398.2426694492987735
 21
76.134690746369273
 31
0.0
  0
LINE
  5
EE66
  8
0
 10
398.2426694492987735
 20
76.134690746369273
 30
0.0
 11
398.2653997747988228
 21
76.134690746369273
 31
0.0
  0
LINE
  5
EE67
  8
0
 10
398.2653997747988228
 20
76.134690746369273
 30
0.0
 11
398.2767649375987844
 21
76.1397856094692713
 31
0.0
  0
LINE
  5
EE68
  8
0
 10
398.2767649375987844
 20
76.1397856094692713
 30
0.0
 11
398.2653997747988228
 21
76.1448804725692838
 31
0.0
  0
LINE
  5
EE69
  8
0
 10
398.2653997747988228
 20
76.1448804725692838
 30
0.0
 11
398.2653997747988228
 21
76.134690746369273
 31
0.0
  0
LINE
  5
EE6A
  8
0
 10
398.2426694492987735
 20
76.134690746369273
 30
0.0
 11
398.2426694492987735
 21
76.1448804725692838
 31
0.0
  0
LINE
  5
EE6B
  8
0
 10
398.2261899631988058
 20
76.1390213800692806
 30
0.0
 11
398.2034596376988134
 21
76.1390213800692806
 31
0.0
  0
LINE
  5
EE6C
  8
0
 10
398.2034596376988134
 20
76.1390213800692806
 30
0.0
 11
398.1920944748987949
 21
76.1339265169692823
 31
0.0
  0
LINE
  5
EE6D
  8
0
 10
398.1920944748987949
 20
76.1339265169692823
 30
0.0
 11
398.2034596376988134
 21
76.128831653869284
 31
0.0
  0
LINE
  5
EE6E
  8
0
 10
398.2034596376988134
 20
76.128831653869284
 30
0.0
 11
398.2261899631988058
 21
76.1288316538692698
 31
0.0
  0
LINE
  5
EE6F
  8
0
 10
398.2261899631988058
 20
76.1288316538692698
 30
0.0
 11
398.2375551259988242
 21
76.1339265169692823
 31
0.0
  0
LINE
  5
EE70
  8
0
 10
398.2375551259988242
 20
76.1339265169692823
 30
0.0
 11
398.2261899631988058
 21
76.1390213800692806
 31
0.0
  0
LINE
  5
EE71
  8
0
 10
398.2261899631988058
 20
76.1390213800692806
 30
0.0
 11
398.2261899631988058
 21
76.1288316538692698
 31
0.0
  0
LINE
  5
EE72
  8
0
 10
398.2034596376988134
 20
76.128831653869284
 30
0.0
 11
398.2034596376988134
 21
76.1390213800692806
 31
0.0
  0
LINE
  5
EE73
  8
0
 10
398.304609586398783
 20
76.1507395651692747
 30
0.0
 11
398.2818792608987906
 21
76.1507395651692747
 31
0.0
  0
LINE
  5
EE74
  8
0
 10
398.2818792608987906
 20
76.1507395651692747
 30
0.0
 11
398.2705140980987721
 21
76.1456447020692764
 31
0.0
  0
LINE
  5
EE75
  8
0
 10
398.2705140980987721
 20
76.1456447020692764
 30
0.0
 11
398.2818792608987906
 21
76.1405498389692639
 31
0.0
  0
LINE
  5
EE76
  8
0
 10
398.2818792608987906
 20
76.1405498389692639
 30
0.0
 11
398.304609586398783
 21
76.1405498389692639
 31
0.0
  0
LINE
  5
EE77
  8
0
 10
398.304609586398783
 20
76.1405498389692639
 30
0.0
 11
398.3159747491988014
 21
76.1456447020692764
 31
0.0
  0
LINE
  5
EE78
  8
0
 10
398.3159747491988014
 20
76.1456447020692764
 30
0.0
 11
398.304609586398783
 21
76.1507395651692747
 31
0.0
  0
LINE
  5
EE79
  8
0
 10
398.304609586398783
 20
76.1507395651692747
 30
0.0
 11
398.304609586398783
 21
76.1405498389692639
 31
0.0
  0
LINE
  5
EE7A
  8
0
 10
398.2818792608987906
 20
76.1405498389692639
 30
0.0
 11
398.2818792608987906
 21
76.1507395651692747
 31
0.0
  0
LINE
  5
EE7B
  8
0
 10
398.304609586398783
 20
76.162457750269283
 30
0.0
 11
398.2818792608987906
 21
76.162457750269283
 31
0.0
  0
LINE
  5
EE7C
  8
0
 10
398.2818792608987906
 20
76.162457750269283
 30
0.0
 11
398.2705140980987721
 21
76.1573628871692847
 31
0.0
  0
LINE
  5
EE7D
  8
0
 10
398.2705140980987721
 20
76.1573628871692847
 30
0.0
 11
398.2818792608987906
 21
76.1522680240692864
 31
0.0
  0
LINE
  5
EE7E
  8
0
 10
398.2818792608987906
 20
76.1522680240692864
 30
0.0
 11
398.304609586398783
 21
76.1522680240692722
 31
0.0
  0
LINE
  5
EE7F
  8
0
 10
398.304609586398783
 20
76.1522680240692722
 30
0.0
 11
398.3159747491988014
 21
76.1573628871692847
 31
0.0
  0
LINE
  5
EE80
  8
0
 10
398.3159747491988014
 20
76.1573628871692847
 30
0.0
 11
398.304609586398783
 21
76.162457750269283
 31
0.0
  0
LINE
  5
EE81
  8
0
 10
398.304609586398783
 20
76.162457750269283
 30
0.0
 11
398.304609586398783
 21
76.1522680240692722
 31
0.0
  0
LINE
  5
EE82
  8
0
 10
398.2818792608987906
 20
76.1522680240692864
 30
0.0
 11
398.2818792608987906
 21
76.162457750269283
 31
0.0
  0
LINE
  5
EE83
  8
0
 10
398.304609586398783
 20
76.1741759353692629
 30
0.0
 11
398.2818792608987906
 21
76.1741759353692629
 31
0.0
  0
LINE
  5
EE84
  8
0
 10
398.2818792608987906
 20
76.1741759353692629
 30
0.0
 11
398.2705140980987721
 21
76.1690810722692788
 31
0.0
  0
LINE
  5
EE85
  8
0
 10
398.2705140980987721
 20
76.1690810722692788
 30
0.0
 11
398.2818792608987906
 21
76.1639862091692805
 31
0.0
  0
LINE
  5
EE86
  8
0
 10
398.2818792608987906
 20
76.1639862091692805
 30
0.0
 11
398.304609586398783
 21
76.1639862091692805
 31
0.0
  0
LINE
  5
EE87
  8
0
 10
398.304609586398783
 20
76.1639862091692805
 30
0.0
 11
398.3159747491988014
 21
76.1690810722692788
 31
0.0
  0
LINE
  5
EE88
  8
0
 10
398.3159747491988014
 20
76.1690810722692788
 30
0.0
 11
398.304609586398783
 21
76.1741759353692629
 31
0.0
  0
LINE
  5
EE89
  8
0
 10
398.304609586398783
 20
76.1741759353692629
 30
0.0
 11
398.304609586398783
 21
76.1639862091692805
 31
0.0
  0
LINE
  5
EE8A
  8
0
 10
398.2818792608987906
 20
76.1639862091692805
 30
0.0
 11
398.2818792608987906
 21
76.1741759353692629
 31
0.0
  0
LINE
  5
EE8B
  8
0
 10
398.304609586398783
 20
76.1858941204692712
 30
0.0
 11
398.2818792608987906
 21
76.1858941204692712
 31
0.0
  0
LINE
  5
EE8C
  8
0
 10
398.2818792608987906
 20
76.1858941204692712
 30
0.0
 11
398.2705140980987721
 21
76.1807992573692729
 31
0.0
  0
LINE
  5
EE8D
  8
0
 10
398.2705140980987721
 20
76.1807992573692729
 30
0.0
 11
398.2818792608987906
 21
76.1757043942692746
 31
0.0
  0
LINE
  5
EE8E
  8
0
 10
398.2818792608987906
 20
76.1757043942692746
 30
0.0
 11
398.304609586398783
 21
76.1757043942692746
 31
0.0
  0
LINE
  5
EE8F
  8
0
 10
398.304609586398783
 20
76.1757043942692746
 30
0.0
 11
398.3159747491988014
 21
76.1807992573692729
 31
0.0
  0
LINE
  5
EE90
  8
0
 10
398.3159747491988014
 20
76.1807992573692729
 30
0.0
 11
398.304609586398783
 21
76.1858941204692712
 31
0.0
  0
LINE
  5
EE91
  8
0
 10
398.304609586398783
 20
76.1858941204692712
 30
0.0
 11
398.304609586398783
 21
76.1757043942692746
 31
0.0
  0
LINE
  5
EE92
  8
0
 10
398.2818792608987906
 20
76.1757043942692746
 30
0.0
 11
398.2818792608987906
 21
76.1858941204692712
 31
0.0
  0
LINE
  5
EE93
  8
0
 10
398.304609586398783
 20
76.1976123056692813
 30
0.0
 11
398.2818792608987906
 21
76.1976123056692813
 31
0.0
  0
LINE
  5
EE94
  8
0
 10
398.2818792608987906
 20
76.1976123056692813
 30
0.0
 11
398.2705140980987721
 21
76.192517442569283
 31
0.0
  0
LINE
  5
EE95
  8
0
 10
398.2705140980987721
 20
76.192517442569283
 30
0.0
 11
398.2818792608987906
 21
76.1874225794692848
 31
0.0
  0
LINE
  5
EE96
  8
0
 10
398.2818792608987906
 20
76.1874225794692848
 30
0.0
 11
398.304609586398783
 21
76.1874225794692848
 31
0.0
  0
LINE
  5
EE97
  8
0
 10
398.304609586398783
 20
76.1874225794692848
 30
0.0
 11
398.3159747491988014
 21
76.192517442569283
 31
0.0
  0
LINE
  5
EE98
  8
0
 10
398.3159747491988014
 20
76.192517442569283
 30
0.0
 11
398.304609586398783
 21
76.1976123056692813
 31
0.0
  0
LINE
  5
EE99
  8
0
 10
398.304609586398783
 20
76.1976123056692813
 30
0.0
 11
398.304609586398783
 21
76.1874225794692848
 31
0.0
  0
LINE
  5
EE9A
  8
0
 10
398.2818792608987906
 20
76.1874225794692848
 30
0.0
 11
398.2818792608987906
 21
76.1976123056692813
 31
0.0
  0
LINE
  5
EE9B
  8
0
 10
398.3051778444988145
 20
76.2090757476299672
 30
0.0
 11
398.282447518998822
 21
76.2090757476299672
 31
0.0
  0
LINE
  5
EE9C
  8
0
 10
398.282447518998822
 20
76.2090757476299672
 30
0.0
 11
398.2710823561988036
 21
76.2039808845299689
 31
0.0
  0
LINE
  5
EE9D
  8
0
 10
398.2710823561988036
 20
76.2039808845299689
 30
0.0
 11
398.282447518998822
 21
76.1988860214299706
 31
0.0
  0
LINE
  5
EE9E
  8
0
 10
398.282447518998822
 20
76.1988860214299706
 30
0.0
 11
398.3051778444988145
 21
76.1988860214299706
 31
0.0
  0
LINE
  5
EE9F
  8
0
 10
398.3051778444988145
 20
76.1988860214299706
 30
0.0
 11
398.316543007298776
 21
76.2039808845299689
 31
0.0
  0
LINE
  5
EEA0
  8
0
 10
398.316543007298776
 20
76.2039808845299689
 30
0.0
 11
398.3051778444988145
 21
76.2090757476299672
 31
0.0
  0
LINE
  5
EEA1
  8
0
 10
398.3051778444988145
 20
76.2090757476299672
 30
0.0
 11
398.3051778444988145
 21
76.1988860214299706
 31
0.0
  0
LINE
  5
EEA2
  8
0
 10
398.282447518998822
 20
76.1988860214299706
 30
0.0
 11
398.282447518998822
 21
76.2090757476299672
 31
0.0
  0
LINE
  5
EEA3
  8
0
 10
398.304609586398783
 20
76.2210486758692554
 30
0.0
 11
398.2818792608987906
 21
76.2210486758692554
 31
0.0
  0
LINE
  5
EEA4
  8
0
 10
398.2818792608987906
 20
76.2210486758692554
 30
0.0
 11
398.2705140980987721
 21
76.2159538127692713
 31
0.0
  0
LINE
  5
EEA5
  8
0
 10
398.2705140980987721
 20
76.2159538127692713
 30
0.0
 11
398.2818792608987906
 21
76.210858949669273
 31
0.0
  0
LINE
  5
EEA6
  8
0
 10
398.2818792608987906
 20
76.210858949669273
 30
0.0
 11
398.304609586398783
 21
76.210858949669273
 31
0.0
  0
LINE
  5
EEA7
  8
0
 10
398.304609586398783
 20
76.210858949669273
 30
0.0
 11
398.3159747491988014
 21
76.2159538127692713
 31
0.0
  0
LINE
  5
EEA8
  8
0
 10
398.3159747491988014
 20
76.2159538127692713
 30
0.0
 11
398.304609586398783
 21
76.2210486758692554
 31
0.0
  0
LINE
  5
EEA9
  8
0
 10
398.304609586398783
 20
76.2210486758692554
 30
0.0
 11
398.304609586398783
 21
76.210858949669273
 31
0.0
  0
LINE
  5
EEAA
  8
0
 10
398.2818792608987906
 20
76.210858949669273
 30
0.0
 11
398.2818792608987906
 21
76.2210486758692554
 31
0.0
  0
LINE
  5
EEAB
  8
0
 10
398.304609586398783
 20
76.2327668609692779
 30
0.0
 11
398.2818792608987906
 21
76.2327668609692779
 31
0.0
  0
LINE
  5
EEAC
  8
0
 10
398.2818792608987906
 20
76.2327668609692779
 30
0.0
 11
398.2705140980987721
 21
76.2276719978692654
 31
0.0
  0
LINE
  5
EEAD
  8
0
 10
398.2705140980987721
 20
76.2276719978692654
 30
0.0
 11
398.2818792608987906
 21
76.2225771347692813
 31
0.0
  0
LINE
  5
EEAE
  8
0
 10
398.2818792608987906
 20
76.2225771347692813
 30
0.0
 11
398.304609586398783
 21
76.2225771347692813
 31
0.0
  0
LINE
  5
EEAF
  8
0
 10
398.304609586398783
 20
76.2225771347692813
 30
0.0
 11
398.3159747491988014
 21
76.2276719978692654
 31
0.0
  0
LINE
  5
EEB0
  8
0
 10
398.3159747491988014
 20
76.2276719978692654
 30
0.0
 11
398.304609586398783
 21
76.2327668609692779
 31
0.0
  0
LINE
  5
EEB1
  8
0
 10
398.304609586398783
 20
76.2327668609692779
 30
0.0
 11
398.304609586398783
 21
76.2225771347692813
 31
0.0
  0
LINE
  5
EEB2
  8
0
 10
398.2818792608987906
 20
76.2225771347692813
 30
0.0
 11
398.2818792608987906
 21
76.2327668609692779
 31
0.0
  0
LINE
  5
EEB3
  8
0
 10
398.304609586398783
 20
76.2444850460692862
 30
0.0
 11
398.2818792608987906
 21
76.2444850460692862
 31
0.0
  0
LINE
  5
EEB4
  8
0
 10
398.2818792608987906
 20
76.2444850460692862
 30
0.0
 11
398.2705140980987721
 21
76.2393901829692737
 31
0.0
  0
LINE
  5
EEB5
  8
0
 10
398.2705140980987721
 20
76.2393901829692737
 30
0.0
 11
398.2818792608987906
 21
76.2342953198692754
 31
0.0
  0
LINE
  5
EEB6
  8
0
 10
398.2818792608987906
 20
76.2342953198692754
 30
0.0
 11
398.304609586398783
 21
76.2342953198692754
 31
0.0
  0
LINE
  5
EEB7
  8
0
 10
398.304609586398783
 20
76.2342953198692754
 30
0.0
 11
398.3159747491988014
 21
76.2393901829692737
 31
0.0
  0
LINE
  5
EEB8
  8
0
 10
398.3159747491988014
 20
76.2393901829692737
 30
0.0
 11
398.304609586398783
 21
76.2444850460692862
 31
0.0
  0
LINE
  5
EEB9
  8
0
 10
398.304609586398783
 20
76.2444850460692862
 30
0.0
 11
398.304609586398783
 21
76.2342953198692754
 31
0.0
  0
LINE
  5
EEBA
  8
0
 10
398.2818792608987906
 20
76.2342953198692754
 30
0.0
 11
398.2818792608987906
 21
76.2444850460692862
 31
0.0
  0
LINE
  5
EEBB
  8
0
 10
398.304609586398783
 20
76.2562032311692803
 30
0.0
 11
398.2818792608987906
 21
76.2562032311692803
 31
0.0
  0
LINE
  5
EEBC
  8
0
 10
398.2818792608987906
 20
76.2562032311692803
 30
0.0
 11
398.2705140980987721
 21
76.2511083680692821
 31
0.0
  0
LINE
  5
EEBD
  8
0
 10
398.2705140980987721
 20
76.2511083680692821
 30
0.0
 11
398.2818792608987906
 21
76.2460135049692838
 31
0.0
  0
LINE
  5
EEBE
  8
0
 10
398.2818792608987906
 20
76.2460135049692838
 30
0.0
 11
398.304609586398783
 21
76.2460135049692838
 31
0.0
  0
LINE
  5
EEBF
  8
0
 10
398.304609586398783
 20
76.2460135049692838
 30
0.0
 11
398.3159747491988014
 21
76.2511083680692821
 31
0.0
  0
LINE
  5
EEC0
  8
0
 10
398.3159747491988014
 20
76.2511083680692821
 30
0.0
 11
398.304609586398783
 21
76.2562032311692803
 31
0.0
  0
LINE
  5
EEC1
  8
0
 10
398.304609586398783
 20
76.2562032311692803
 30
0.0
 11
398.304609586398783
 21
76.2460135049692838
 31
0.0
  0
LINE
  5
EEC2
  8
0
 10
398.2818792608987906
 20
76.2460135049692838
 30
0.0
 11
398.2818792608987906
 21
76.2562032311692803
 31
0.0
  0
LINE
  5
EEC3
  8
0
 10
398.281739379729288
 20
76.2678587092564868
 30
0.0
 11
398.2705140980987721
 21
76.2628265531692762
 31
0.0
  0
LINE
  5
EEC4
  8
0
 10
398.2705140980987721
 20
76.2628265531692762
 30
0.0
 11
398.2818792608987906
 21
76.2577316900692779
 31
0.0
  0
LINE
  5
EEC5
  8
0
 10
398.2818792608987906
 20
76.2577316900692779
 30
0.0
 11
398.304609586398783
 21
76.2577316900692779
 31
0.0
  0
LINE
  5
EEC6
  8
0
 10
398.304609586398783
 20
76.2577316900692779
 30
0.0
 11
398.3159747491988014
 21
76.2628265531692762
 31
0.0
  0
LINE
  5
EEC7
  8
0
 10
398.3159747491988014
 20
76.2628265531692762
 30
0.0
 11
398.3121138961475936
 21
76.2645573262423255
 31
0.0
  0
LINE
  5
EEC8
  8
0
 10
398.304609586398783
 20
76.2654721270127425
 30
0.0
 11
398.304609586398783
 21
76.2577316900692779
 31
0.0
  0
LINE
  5
EEC9
  8
0
 10
398.2818792608987906
 20
76.2577316900692779
 30
0.0
 11
398.2818792608987906
 21
76.2678459425545157
 31
0.0
  0
LINE
  5
EECA
  8
0
 10
398.3302944128733998
 20
76.2620623237692712
 30
0.0
 11
398.32108907239882
 21
76.2620623237692712
 31
0.0
  0
LINE
  5
EECB
  8
0
 10
398.32108907239882
 20
76.2620623237692712
 30
0.0
 11
398.3097239095988016
 21
76.2569674606692729
 31
0.0
  0
LINE
  5
EECC
  8
0
 10
398.3097239095988016
 20
76.2569674606692729
 30
0.0
 11
398.32108907239882
 21
76.2518725975692746
 31
0.0
  0
LINE
  5
EECD
  8
0
 10
398.32108907239882
 20
76.2518725975692746
 30
0.0
 11
398.3438193978988124
 21
76.2518725975692746
 31
0.0
  0
LINE
  5
EECE
  8
0
 10
398.3438193978988124
 20
76.2518725975692746
 30
0.0
 11
398.355184560698774
 21
76.2569674606692729
 31
0.0
  0
LINE
  5
EECF
  8
0
 10
398.355184560698774
 20
76.2569674606692729
 30
0.0
 11
398.3514951735206182
 21
76.2586213676943316
 31
0.0
  0
LINE
  5
EED0
  8
0
 10
398.3438193978988124
 20
76.259933998239319
 30
0.0
 11
398.3438193978988124
 21
76.2518725975692746
 31
0.0
  0
LINE
  5
EED1
  8
0
 10
398.32108907239882
 20
76.2518725975692746
 30
0.0
 11
398.32108907239882
 21
76.2620623237692712
 31
0.0
  0
LINE
  5
EED2
  8
0
 10
398.3438193978988124
 20
76.2503441386692771
 30
0.0
 11
398.32108907239882
 21
76.2503441386692771
 31
0.0
  0
LINE
  5
EED3
  8
0
 10
398.32108907239882
 20
76.2503441386692771
 30
0.0
 11
398.3097239095988016
 21
76.2452492755692788
 31
0.0
  0
LINE
  5
EED4
  8
0
 10
398.3097239095988016
 20
76.2452492755692788
 30
0.0
 11
398.32108907239882
 21
76.2401544124692805
 31
0.0
  0
LINE
  5
EED5
  8
0
 10
398.32108907239882
 20
76.2401544124692805
 30
0.0
 11
398.3438193978988124
 21
76.2401544124692805
 31
0.0
  0
LINE
  5
EED6
  8
0
 10
398.3438193978988124
 20
76.2401544124692805
 30
0.0
 11
398.355184560698774
 21
76.2452492755692788
 31
0.0
  0
LINE
  5
EED7
  8
0
 10
398.355184560698774
 20
76.2452492755692788
 30
0.0
 11
398.3438193978988124
 21
76.2503441386692771
 31
0.0
  0
LINE
  5
EED8
  8
0
 10
398.3438193978988124
 20
76.2503441386692771
 30
0.0
 11
398.3438193978988124
 21
76.2401544124692805
 31
0.0
  0
LINE
  5
EED9
  8
0
 10
398.32108907239882
 20
76.2401544124692805
 30
0.0
 11
398.32108907239882
 21
76.2503441386692771
 31
0.0
  0
LINE
  5
EEDA
  8
0
 10
398.3438193978988124
 20
76.2386259534692812
 30
0.0
 11
398.32108907239882
 21
76.2386259534692812
 31
0.0
  0
LINE
  5
EEDB
  8
0
 10
398.32108907239882
 20
76.2386259534692812
 30
0.0
 11
398.3097239095988016
 21
76.2335310903692829
 31
0.0
  0
LINE
  5
EEDC
  8
0
 10
398.3097239095988016
 20
76.2335310903692829
 30
0.0
 11
398.32108907239882
 21
76.2284362272692704
 31
0.0
  0
LINE
  5
EEDD
  8
0
 10
398.32108907239882
 20
76.2284362272692704
 30
0.0
 11
398.3438193978988124
 21
76.2284362272692704
 31
0.0
  0
LINE
  5
EEDE
  8
0
 10
398.3438193978988124
 20
76.2284362272692704
 30
0.0
 11
398.355184560698774
 21
76.2335310903692829
 31
0.0
  0
LINE
  5
EEDF
  8
0
 10
398.355184560698774
 20
76.2335310903692829
 30
0.0
 11
398.3438193978988124
 21
76.2386259534692812
 31
0.0
  0
LINE
  5
EEE0
  8
0
 10
398.3438193978988124
 20
76.2386259534692812
 30
0.0
 11
398.3438193978988124
 21
76.2284362272692704
 31
0.0
  0
LINE
  5
EEE1
  8
0
 10
398.32108907239882
 20
76.2284362272692704
 30
0.0
 11
398.32108907239882
 21
76.2386259534692812
 31
0.0
  0
LINE
  5
EEE2
  8
0
 10
398.3438193978988124
 20
76.2269077683692728
 30
0.0
 11
398.32108907239882
 21
76.2269077683692728
 31
0.0
  0
LINE
  5
EEE3
  8
0
 10
398.32108907239882
 20
76.2269077683692728
 30
0.0
 11
398.3097239095988016
 21
76.2218129052692746
 31
0.0
  0
LINE
  5
EEE4
  8
0
 10
398.3097239095988016
 20
76.2218129052692746
 30
0.0
 11
398.32108907239882
 21
76.2167180421692763
 31
0.0
  0
LINE
  5
EEE5
  8
0
 10
398.32108907239882
 20
76.2167180421692763
 30
0.0
 11
398.3438193978988124
 21
76.2167180421692763
 31
0.0
  0
LINE
  5
EEE6
  8
0
 10
398.3438193978988124
 20
76.2167180421692763
 30
0.0
 11
398.355184560698774
 21
76.2218129052692746
 31
0.0
  0
LINE
  5
EEE7
  8
0
 10
398.355184560698774
 20
76.2218129052692746
 30
0.0
 11
398.3438193978988124
 21
76.2269077683692728
 31
0.0
  0
LINE
  5
EEE8
  8
0
 10
398.3438193978988124
 20
76.2269077683692728
 30
0.0
 11
398.3438193978988124
 21
76.2167180421692763
 31
0.0
  0
LINE
  5
EEE9
  8
0
 10
398.32108907239882
 20
76.2167180421692763
 30
0.0
 11
398.32108907239882
 21
76.2269077683692728
 31
0.0
  0
LINE
  5
EEEA
  8
0
 10
398.3438193978988124
 20
76.2151895832692787
 30
0.0
 11
398.32108907239882
 21
76.2151895832692787
 31
0.0
  0
LINE
  5
EEEB
  8
0
 10
398.32108907239882
 20
76.2151895832692787
 30
0.0
 11
398.3097239095988016
 21
76.2100947201692804
 31
0.0
  0
LINE
  5
EEEC
  8
0
 10
398.3097239095988016
 20
76.2100947201692804
 30
0.0
 11
398.32108907239882
 21
76.2049998570692821
 31
0.0
  0
LINE
  5
EEED
  8
0
 10
398.32108907239882
 20
76.2049998570692821
 30
0.0
 11
398.3438193978988124
 21
76.2049998570692821
 31
0.0
  0
LINE
  5
EEEE
  8
0
 10
398.3438193978988124
 20
76.2049998570692821
 30
0.0
 11
398.355184560698774
 21
76.2100947201692804
 31
0.0
  0
LINE
  5
EEEF
  8
0
 10
398.355184560698774
 20
76.2100947201692804
 30
0.0
 11
398.3438193978988124
 21
76.2151895832692787
 31
0.0
  0
LINE
  5
EEF0
  8
0
 10
398.3438193978988124
 20
76.2151895832692787
 30
0.0
 11
398.3438193978988124
 21
76.2049998570692821
 31
0.0
  0
LINE
  5
EEF1
  8
0
 10
398.32108907239882
 20
76.2049998570692821
 30
0.0
 11
398.32108907239882
 21
76.2151895832692787
 31
0.0
  0
LINE
  5
EEF2
  8
0
 10
398.3438193978988124
 20
76.2034713981692846
 30
0.0
 11
398.32108907239882
 21
76.2034713981692846
 31
0.0
  0
LINE
  5
EEF3
  8
0
 10
398.32108907239882
 20
76.2034713981692846
 30
0.0
 11
398.3097239095988016
 21
76.1983765350692863
 31
0.0
  0
LINE
  5
EEF4
  8
0
 10
398.3097239095988016
 20
76.1983765350692863
 30
0.0
 11
398.32108907239882
 21
76.1932816719692738
 31
0.0
  0
LINE
  5
EEF5
  8
0
 10
398.32108907239882
 20
76.1932816719692738
 30
0.0
 11
398.3438193978988124
 21
76.1932816719692738
 31
0.0
  0
LINE
  5
EEF6
  8
0
 10
398.3438193978988124
 20
76.1932816719692738
 30
0.0
 11
398.355184560698774
 21
76.1983765350692863
 31
0.0
  0
LINE
  5
EEF7
  8
0
 10
398.355184560698774
 20
76.1983765350692863
 30
0.0
 11
398.3438193978988124
 21
76.2034713981692846
 31
0.0
  0
LINE
  5
EEF8
  8
0
 10
398.3438193978988124
 20
76.2034713981692846
 30
0.0
 11
398.3438193978988124
 21
76.1932816719692738
 31
0.0
  0
LINE
  5
EEF9
  8
0
 10
398.32108907239882
 20
76.1932816719692738
 30
0.0
 11
398.32108907239882
 21
76.2034713981692846
 31
0.0
  0
LINE
  5
EEFA
  8
0
 10
398.3438193978988124
 20
76.1917532130692763
 30
0.0
 11
398.32108907239882
 21
76.1917532130692763
 31
0.0
  0
LINE
  5
EEFB
  8
0
 10
398.32108907239882
 20
76.1917532130692763
 30
0.0
 11
398.3097239095988016
 21
76.186658349969278
 31
0.0
  0
LINE
  5
EEFC
  8
0
 10
398.3097239095988016
 20
76.186658349969278
 30
0.0
 11
398.32108907239882
 21
76.1815634868692797
 31
0.0
  0
LINE
  5
EEFD
  8
0
 10
398.32108907239882
 20
76.1815634868692797
 30
0.0
 11
398.3438193978988124
 21
76.1815634868692797
 31
0.0
  0
LINE
  5
EEFE
  8
0
 10
398.3438193978988124
 20
76.1815634868692797
 30
0.0
 11
398.355184560698774
 21
76.186658349969278
 31
0.0
  0
LINE
  5
EEFF
  8
0
 10
398.355184560698774
 20
76.186658349969278
 30
0.0
 11
398.3438193978988124
 21
76.1917532130692763
 31
0.0
  0
LINE
  5
EF00
  8
0
 10
398.3438193978988124
 20
76.1917532130692763
 30
0.0
 11
398.3438193978988124
 21
76.1815634868692797
 31
0.0
  0
LINE
  5
EF01
  8
0
 10
398.32108907239882
 20
76.1815634868692797
 30
0.0
 11
398.32108907239882
 21
76.1917532130692763
 31
0.0
  0
LINE
  5
EF02
  8
0
 10
398.3438193978988124
 20
76.1800350279692822
 30
0.0
 11
398.32108907239882
 21
76.1800350279692822
 31
0.0
  0
LINE
  5
EF03
  8
0
 10
398.32108907239882
 20
76.1800350279692822
 30
0.0
 11
398.3097239095988016
 21
76.1749401648692839
 31
0.0
  0
LINE
  5
EF04
  8
0
 10
398.3097239095988016
 20
76.1749401648692839
 30
0.0
 11
398.32108907239882
 21
76.1698453017692714
 31
0.0
  0
LINE
  5
EF05
  8
0
 10
398.32108907239882
 20
76.1698453017692714
 30
0.0
 11
398.3438193978988124
 21
76.1698453017692714
 31
0.0
  0
LINE
  5
EF06
  8
0
 10
398.3438193978988124
 20
76.1698453017692714
 30
0.0
 11
398.355184560698774
 21
76.1749401648692839
 31
0.0
  0
LINE
  5
EF07
  8
0
 10
398.355184560698774
 20
76.1749401648692839
 30
0.0
 11
398.3438193978988124
 21
76.1800350279692822
 31
0.0
  0
LINE
  5
EF08
  8
0
 10
398.3438193978988124
 20
76.1800350279692822
 30
0.0
 11
398.3438193978988124
 21
76.1698453017692714
 31
0.0
  0
LINE
  5
EF09
  8
0
 10
398.32108907239882
 20
76.1698453017692714
 30
0.0
 11
398.32108907239882
 21
76.1800350279692822
 31
0.0
  0
LINE
  5
EF0A
  8
0
 10
398.3443876560987746
 20
76.1685715860511721
 30
0.0
 11
398.3216573305987822
 21
76.1685715860511721
 31
0.0
  0
LINE
  5
EF0B
  8
0
 10
398.3216573305987822
 20
76.1685715860511721
 30
0.0
 11
398.3102921677988206
 21
76.1634767229511738
 31
0.0
  0
LINE
  5
EF0C
  8
0
 10
398.3102921677988206
 20
76.1634767229511738
 30
0.0
 11
398.3216573305987822
 21
76.1583818598511755
 31
0.0
  0
LINE
  5
EF0D
  8
0
 10
398.3216573305987822
 20
76.1583818598511755
 30
0.0
 11
398.3443876560987746
 21
76.1583818598511755
 31
0.0
  0
LINE
  5
EF0E
  8
0
 10
398.3443876560987746
 20
76.1583818598511755
 30
0.0
 11
398.3557528188987931
 21
76.1634767229511738
 31
0.0
  0
LINE
  5
EF0F
  8
0
 10
398.3557528188987931
 20
76.1634767229511738
 30
0.0
 11
398.3443876560987746
 21
76.1685715860511721
 31
0.0
  0
LINE
  5
EF10
  8
0
 10
398.3443876560987746
 20
76.1685715860511721
 30
0.0
 11
398.3443876560987746
 21
76.1583818598511755
 31
0.0
  0
LINE
  5
EF11
  8
0
 10
398.3216573305987822
 20
76.1583818598511755
 30
0.0
 11
398.3216573305987822
 21
76.1685715860511721
 31
0.0
  0
LINE
  5
EF12
  8
0
 10
398.3438193978988124
 20
76.1565986577692797
 30
0.0
 11
398.32108907239882
 21
76.1565986577692797
 31
0.0
  0
LINE
  5
EF13
  8
0
 10
398.32108907239882
 20
76.1565986577692797
 30
0.0
 11
398.3097239095988016
 21
76.1515037946692814
 31
0.0
  0
LINE
  5
EF14
  8
0
 10
398.3097239095988016
 20
76.1515037946692814
 30
0.0
 11
398.32108907239882
 21
76.1464089315692831
 31
0.0
  0
LINE
  5
EF15
  8
0
 10
398.32108907239882
 20
76.1464089315692831
 30
0.0
 11
398.3438193978988124
 21
76.1464089315692831
 31
0.0
  0
LINE
  5
EF16
  8
0
 10
398.3438193978988124
 20
76.1464089315692831
 30
0.0
 11
398.355184560698774
 21
76.1515037946692814
 31
0.0
  0
LINE
  5
EF17
  8
0
 10
398.355184560698774
 20
76.1515037946692814
 30
0.0
 11
398.3438193978988124
 21
76.1565986577692797
 31
0.0
  0
LINE
  5
EF18
  8
0
 10
398.3438193978988124
 20
76.1565986577692797
 30
0.0
 11
398.3438193978988124
 21
76.1464089315692831
 31
0.0
  0
LINE
  5
EF19
  8
0
 10
398.32108907239882
 20
76.1464089315692831
 30
0.0
 11
398.32108907239882
 21
76.1565986577692797
 31
0.0
  0
LINE
  5
EF1A
  8
0
 10
398.3830292094987726
 20
76.162457750269283
 30
0.0
 11
398.3602988839987802
 21
76.162457750269283
 31
0.0
  0
LINE
  5
EF1B
  8
0
 10
398.3602988839987802
 20
76.162457750269283
 30
0.0
 11
398.3489337211988186
 21
76.1573628871692847
 31
0.0
  0
LINE
  5
EF1C
  8
0
 10
398.3489337211988186
 20
76.1573628871692847
 30
0.0
 11
398.3602988839987802
 21
76.1522680240692864
 31
0.0
  0
LINE
  5
EF1D
  8
0
 10
398.3602988839987802
 20
76.1522680240692864
 30
0.0
 11
398.3830292094987726
 21
76.1522680240692722
 31
0.0
  0
LINE
  5
EF1E
  8
0
 10
398.3830292094987726
 20
76.1522680240692722
 30
0.0
 11
398.394394372298791
 21
76.1573628871692847
 31
0.0
  0
LINE
  5
EF1F
  8
0
 10
398.394394372298791
 20
76.1573628871692847
 30
0.0
 11
398.3830292094987726
 21
76.162457750269283
 31
0.0
  0
LINE
  5
EF20
  8
0
 10
398.3830292094987726
 20
76.162457750269283
 30
0.0
 11
398.3830292094987726
 21
76.1522680240692722
 31
0.0
  0
LINE
  5
EF21
  8
0
 10
398.3602988839987802
 20
76.1522680240692864
 30
0.0
 11
398.3602988839987802
 21
76.162457750269283
 31
0.0
  0
LINE
  5
EF22
  8
0
 10
398.3830292094987726
 20
76.1741759353692629
 30
0.0
 11
398.3602988839987802
 21
76.1741759353692629
 31
0.0
  0
LINE
  5
EF23
  8
0
 10
398.3602988839987802
 20
76.1741759353692629
 30
0.0
 11
398.3489337211988186
 21
76.1690810722692788
 31
0.0
  0
LINE
  5
EF24
  8
0
 10
398.3489337211988186
 20
76.1690810722692788
 30
0.0
 11
398.3602988839987802
 21
76.1639862091692805
 31
0.0
  0
LINE
  5
EF25
  8
0
 10
398.3602988839987802
 20
76.1639862091692805
 30
0.0
 11
398.3830292094987726
 21
76.1639862091692805
 31
0.0
  0
LINE
  5
EF26
  8
0
 10
398.3830292094987726
 20
76.1639862091692805
 30
0.0
 11
398.394394372298791
 21
76.1690810722692788
 31
0.0
  0
LINE
  5
EF27
  8
0
 10
398.394394372298791
 20
76.1690810722692788
 30
0.0
 11
398.3830292094987726
 21
76.1741759353692629
 31
0.0
  0
LINE
  5
EF28
  8
0
 10
398.3830292094987726
 20
76.1741759353692629
 30
0.0
 11
398.3830292094987726
 21
76.1639862091692805
 31
0.0
  0
LINE
  5
EF29
  8
0
 10
398.3602988839987802
 20
76.1639862091692805
 30
0.0
 11
398.3602988839987802
 21
76.1741759353692629
 31
0.0
  0
LINE
  5
EF2A
  8
0
 10
398.3830292094987726
 20
76.1858941204692712
 30
0.0
 11
398.3602988839987802
 21
76.1858941204692712
 31
0.0
  0
LINE
  5
EF2B
  8
0
 10
398.3602988839987802
 20
76.1858941204692712
 30
0.0
 11
398.3489337211988186
 21
76.1807992573692729
 31
0.0
  0
LINE
  5
EF2C
  8
0
 10
398.3489337211988186
 20
76.1807992573692729
 30
0.0
 11
398.3602988839987802
 21
76.1757043942692746
 31
0.0
  0
LINE
  5
EF2D
  8
0
 10
398.3602988839987802
 20
76.1757043942692746
 30
0.0
 11
398.3830292094987726
 21
76.1757043942692746
 31
0.0
  0
LINE
  5
EF2E
  8
0
 10
398.3830292094987726
 20
76.1757043942692746
 30
0.0
 11
398.394394372298791
 21
76.1807992573692729
 31
0.0
  0
LINE
  5
EF2F
  8
0
 10
398.394394372298791
 20
76.1807992573692729
 30
0.0
 11
398.3830292094987726
 21
76.1858941204692712
 31
0.0
  0
LINE
  5
EF30
  8
0
 10
398.3830292094987726
 20
76.1858941204692712
 30
0.0
 11
398.3830292094987726
 21
76.1757043942692746
 31
0.0
  0
LINE
  5
EF31
  8
0
 10
398.3602988839987802
 20
76.1757043942692746
 30
0.0
 11
398.3602988839987802
 21
76.1858941204692712
 31
0.0
  0
LINE
  5
EF32
  8
0
 10
398.3830292094987726
 20
76.1976123056692813
 30
0.0
 11
398.3602988839987802
 21
76.1976123056692813
 31
0.0
  0
LINE
  5
EF33
  8
0
 10
398.3602988839987802
 20
76.1976123056692813
 30
0.0
 11
398.3489337211988186
 21
76.192517442569283
 31
0.0
  0
LINE
  5
EF34
  8
0
 10
398.3489337211988186
 20
76.192517442569283
 30
0.0
 11
398.3602988839987802
 21
76.1874225794692848
 31
0.0
  0
LINE
  5
EF35
  8
0
 10
398.3602988839987802
 20
76.1874225794692848
 30
0.0
 11
398.3830292094987726
 21
76.1874225794692848
 31
0.0
  0
LINE
  5
EF36
  8
0
 10
398.3830292094987726
 20
76.1874225794692848
 30
0.0
 11
398.394394372298791
 21
76.192517442569283
 31
0.0
  0
LINE
  5
EF37
  8
0
 10
398.394394372298791
 20
76.192517442569283
 30
0.0
 11
398.3830292094987726
 21
76.1976123056692813
 31
0.0
  0
LINE
  5
EF38
  8
0
 10
398.3830292094987726
 20
76.1976123056692813
 30
0.0
 11
398.3830292094987726
 21
76.1874225794692848
 31
0.0
  0
LINE
  5
EF39
  8
0
 10
398.3602988839987802
 20
76.1874225794692848
 30
0.0
 11
398.3602988839987802
 21
76.1976123056692813
 31
0.0
  0
LINE
  5
EF3A
  8
0
 10
398.3830292094987726
 20
76.2093304907692755
 30
0.0
 11
398.3602988839987802
 21
76.2093304907692755
 31
0.0
  0
LINE
  5
EF3B
  8
0
 10
398.3602988839987802
 20
76.2093304907692755
 30
0.0
 11
398.3489337211988186
 21
76.204235627669263
 31
0.0
  0
LINE
  5
EF3C
  8
0
 10
398.3489337211988186
 20
76.204235627669263
 30
0.0
 11
398.3602988839987802
 21
76.1991407645692789
 31
0.0
  0
LINE
  5
EF3D
  8
0
 10
398.3602988839987802
 20
76.1991407645692789
 30
0.0
 11
398.3830292094987726
 21
76.1991407645692789
 31
0.0
  0
LINE
  5
EF3E
  8
0
 10
398.3830292094987726
 20
76.1991407645692789
 30
0.0
 11
398.394394372298791
 21
76.204235627669263
 31
0.0
  0
LINE
  5
EF3F
  8
0
 10
398.394394372298791
 20
76.204235627669263
 30
0.0
 11
398.3830292094987726
 21
76.2093304907692755
 31
0.0
  0
LINE
  5
EF40
  8
0
 10
398.3830292094987726
 20
76.2093304907692755
 30
0.0
 11
398.3830292094987726
 21
76.1991407645692789
 31
0.0
  0
LINE
  5
EF41
  8
0
 10
398.3602988839987802
 20
76.1991407645692789
 30
0.0
 11
398.3602988839987802
 21
76.2093304907692755
 31
0.0
  0
LINE
  5
EF42
  8
0
 10
398.3830292094987726
 20
76.2210486758692554
 30
0.0
 11
398.3602988839987802
 21
76.2210486758692554
 31
0.0
  0
LINE
  5
EF43
  8
0
 10
398.3602988839987802
 20
76.2210486758692554
 30
0.0
 11
398.3489337211988186
 21
76.2159538127692713
 31
0.0
  0
LINE
  5
EF44
  8
0
 10
398.3489337211988186
 20
76.2159538127692713
 30
0.0
 11
398.3602988839987802
 21
76.210858949669273
 31
0.0
  0
LINE
  5
EF45
  8
0
 10
398.3602988839987802
 20
76.210858949669273
 30
0.0
 11
398.3830292094987726
 21
76.210858949669273
 31
0.0
  0
LINE
  5
EF46
  8
0
 10
398.3830292094987726
 20
76.210858949669273
 30
0.0
 11
398.394394372298791
 21
76.2159538127692713
 31
0.0
  0
LINE
  5
EF47
  8
0
 10
398.394394372298791
 20
76.2159538127692713
 30
0.0
 11
398.3830292094987726
 21
76.2210486758692554
 31
0.0
  0
LINE
  5
EF48
  8
0
 10
398.3830292094987726
 20
76.2210486758692554
 30
0.0
 11
398.3830292094987726
 21
76.210858949669273
 31
0.0
  0
LINE
  5
EF49
  8
0
 10
398.3602988839987802
 20
76.210858949669273
 30
0.0
 11
398.3602988839987802
 21
76.2210486758692554
 31
0.0
  0
LINE
  5
EF4A
  8
0
 10
398.383029209598817
 20
76.2327668609692779
 30
0.0
 11
398.3602988840988246
 21
76.2327668609692779
 31
0.0
  0
LINE
  5
EF4B
  8
0
 10
398.3602988840988246
 20
76.2327668609692779
 30
0.0
 11
398.3489337212988062
 21
76.2276719978692654
 31
0.0
  0
LINE
  5
EF4C
  8
0
 10
398.3489337212988062
 20
76.2276719978692654
 30
0.0
 11
398.3602988840988246
 21
76.2225771347692813
 31
0.0
  0
LINE
  5
EF4D
  8
0
 10
398.3602988840988246
 20
76.2225771347692813
 30
0.0
 11
398.383029209598817
 21
76.2225771347692813
 31
0.0
  0
LINE
  5
EF4E
  8
0
 10
398.383029209598817
 20
76.2225771347692813
 30
0.0
 11
398.3943943723987786
 21
76.2276719978692654
 31
0.0
  0
LINE
  5
EF4F
  8
0
 10
398.3943943723987786
 20
76.2276719978692654
 30
0.0
 11
398.383029209598817
 21
76.2327668609692779
 31
0.0
  0
LINE
  5
EF50
  8
0
 10
398.383029209598817
 20
76.2327668609692779
 30
0.0
 11
398.383029209598817
 21
76.2225771347692813
 31
0.0
  0
LINE
  5
EF51
  8
0
 10
398.3602988840988246
 20
76.2225771347692813
 30
0.0
 11
398.3602988840988246
 21
76.2327668609692779
 31
0.0
  0
LINE
  5
EF52
  8
0
 10
398.3830292094987726
 20
76.2444850460692862
 30
0.0
 11
398.3602988839987802
 21
76.2444850460692862
 31
0.0
  0
LINE
  5
EF53
  8
0
 10
398.3602988839987802
 20
76.2444850460692862
 30
0.0
 11
398.3489337211988186
 21
76.2393901829692737
 31
0.0
  0
LINE
  5
EF54
  8
0
 10
398.3489337211988186
 20
76.2393901829692737
 30
0.0
 11
398.3602988839987802
 21
76.2342953198692754
 31
0.0
  0
LINE
  5
EF55
  8
0
 10
398.3602988839987802
 20
76.2342953198692754
 30
0.0
 11
398.3830292094987726
 21
76.2342953198692754
 31
0.0
  0
LINE
  5
EF56
  8
0
 10
398.3830292094987726
 20
76.2342953198692754
 30
0.0
 11
398.394394372298791
 21
76.2393901829692737
 31
0.0
  0
LINE
  5
EF57
  8
0
 10
398.394394372298791
 20
76.2393901829692737
 30
0.0
 11
398.3830292094987726
 21
76.2444850460692862
 31
0.0
  0
LINE
  5
EF58
  8
0
 10
398.3830292094987726
 20
76.2444850460692862
 30
0.0
 11
398.3830292094987726
 21
76.2342953198692754
 31
0.0
  0
LINE
  5
EF59
  8
0
 10
398.3602988839987802
 20
76.2342953198692754
 30
0.0
 11
398.3602988839987802
 21
76.2444850460692862
 31
0.0
  0
LINE
  5
EF5A
  8
0
 10
398.3646025621482067
 20
76.2562032311692803
 30
0.0
 11
398.3602988839987802
 21
76.2562032311692803
 31
0.0
  0
LINE
  5
EF5B
  8
0
 10
398.3602988839987802
 20
76.2562032311692803
 30
0.0
 11
398.3489337211988186
 21
76.2511083680692821
 31
0.0
  0
LINE
  5
EF5C
  8
0
 10
398.3489337211988186
 20
76.2511083680692821
 30
0.0
 11
398.3602988839987802
 21
76.2460135049692838
 31
0.0
  0
LINE
  5
EF5D
  8
0
 10
398.3602988839987802
 20
76.2460135049692838
 30
0.0
 11
398.3830292094987726
 21
76.2460135049692838
 31
0.0
  0
LINE
  5
EF5E
  8
0
 10
398.3830292094987726
 20
76.2460135049692838
 30
0.0
 11
398.3924803852855234
 21
76.2502503511645386
 31
0.0
  0
LINE
  5
EF5F
  8
0
 10
398.3830292094987158
 20
76.2524234489924595
 30
0.0
 11
398.3830292094987726
 21
76.2460135049692838
 31
0.0
  0
LINE
  5
EF60
  8
0
 10
398.3602988839987802
 20
76.2460135049692838
 30
0.0
 11
398.3602988839987802
 21
76.2562032311692803
 31
0.0
  0
LINE
  5
EF61
  8
0
 10
398.3968634626763219
 20
76.2491583131915007
 30
0.0
 11
398.3881435327987788
 21
76.2452492755692788
 31
0.0
  0
LINE
  5
EF62
  8
0
 10
398.3881435327987788
 20
76.2452492755692788
 30
0.0
 11
398.3995086955987972
 21
76.2401544124692805
 31
0.0
  0
LINE
  5
EF63
  8
0
 10
398.3995086955987972
 20
76.2401544124692805
 30
0.0
 11
398.4222390210987896
 21
76.2401544124692805
 31
0.0
  0
LINE
  5
EF64
  8
0
 10
398.4222390210987896
 20
76.2401544124692805
 30
0.0
 11
398.4242944369474912
 21
76.2410758301864604
 31
0.0
  0
LINE
  5
EF65
  8
0
 10
398.4222390210987896
 20
76.241754417742186
 30
0.0
 11
398.4222390210987896
 21
76.2401544124692805
 31
0.0
  0
LINE
  5
EF66
  8
0
 10
398.3995086955987972
 20
76.2401544124692805
 30
0.0
 11
398.3995086955987972
 21
76.248473145169541
 31
0.0
  0
LINE
  5
EF67
  8
0
 10
398.4222390210987896
 20
76.2386259534692812
 30
0.0
 11
398.3995086955987972
 21
76.2386259534692812
 31
0.0
  0
LINE
  5
EF68
  8
0
 10
398.3995086955987972
 20
76.2386259534692812
 30
0.0
 11
398.3881435327987788
 21
76.2335310903692829
 31
0.0
  0
LINE
  5
EF69
  8
0
 10
398.3881435327987788
 20
76.2335310903692829
 30
0.0
 11
398.3995086955987972
 21
76.2284362272692704
 31
0.0
  0
LINE
  5
EF6A
  8
0
 10
398.3995086955987972
 20
76.2284362272692704
 30
0.0
 11
398.4222390210987896
 21
76.2284362272692704
 31
0.0
  0
LINE
  5
EF6B
  8
0
 10
398.4222390210987896
 20
76.2284362272692704
 30
0.0
 11
398.4336041838988081
 21
76.2335310903692829
 31
0.0
  0
LINE
  5
EF6C
  8
0
 10
398.4336041838988081
 20
76.2335310903692829
 30
0.0
 11
398.4222390210987896
 21
76.2386259534692812
 31
0.0
  0
LINE
  5
EF6D
  8
0
 10
398.4222390210987896
 20
76.2386259534692812
 30
0.0
 11
398.4222390210987896
 21
76.2284362272692704
 31
0.0
  0
LINE
  5
EF6E
  8
0
 10
398.3995086955987972
 20
76.2284362272692704
 30
0.0
 11
398.3995086955987972
 21
76.2386259534692812
 31
0.0
  0
LINE
  5
EF6F
  8
0
 10
398.4222390210987896
 20
76.2269077683692728
 30
0.0
 11
398.3995086955987972
 21
76.2269077683692728
 31
0.0
  0
LINE
  5
EF70
  8
0
 10
398.3995086955987972
 20
76.2269077683692728
 30
0.0
 11
398.3881435327987788
 21
76.2218129052692746
 31
0.0
  0
LINE
  5
EF71
  8
0
 10
398.3881435327987788
 20
76.2218129052692746
 30
0.0
 11
398.3995086955987972
 21
76.2167180421692763
 31
0.0
  0
LINE
  5
EF72
  8
0
 10
398.3995086955987972
 20
76.2167180421692763
 30
0.0
 11
398.4222390210987896
 21
76.2167180421692763
 31
0.0
  0
LINE
  5
EF73
  8
0
 10
398.4222390210987896
 20
76.2167180421692763
 30
0.0
 11
398.4336041838988081
 21
76.2218129052692746
 31
0.0
  0
LINE
  5
EF74
  8
0
 10
398.4336041838988081
 20
76.2218129052692746
 30
0.0
 11
398.4222390210987896
 21
76.2269077683692728
 31
0.0
  0
LINE
  5
EF75
  8
0
 10
398.4222390210987896
 20
76.2269077683692728
 30
0.0
 11
398.4222390210987896
 21
76.2167180421692763
 31
0.0
  0
LINE
  5
EF76
  8
0
 10
398.3995086955987972
 20
76.2167180421692763
 30
0.0
 11
398.3995086955987972
 21
76.2269077683692728
 31
0.0
  0
LINE
  5
EF77
  8
0
 10
398.4222390210987896
 20
76.2151895832692787
 30
0.0
 11
398.3995086955987972
 21
76.2151895832692787
 31
0.0
  0
LINE
  5
EF78
  8
0
 10
398.3995086955987972
 20
76.2151895832692787
 30
0.0
 11
398.3881435327987788
 21
76.2100947201692804
 31
0.0
  0
LINE
  5
EF79
  8
0
 10
398.3881435327987788
 20
76.2100947201692804
 30
0.0
 11
398.3995086955987972
 21
76.2049998570692821
 31
0.0
  0
LINE
  5
EF7A
  8
0
 10
398.3995086955987972
 20
76.2049998570692821
 30
0.0
 11
398.4222390210987896
 21
76.2049998570692821
 31
0.0
  0
LINE
  5
EF7B
  8
0
 10
398.4222390210987896
 20
76.2049998570692821
 30
0.0
 11
398.4336041838988081
 21
76.2100947201692804
 31
0.0
  0
LINE
  5
EF7C
  8
0
 10
398.4336041838988081
 20
76.2100947201692804
 30
0.0
 11
398.4222390210987896
 21
76.2151895832692787
 31
0.0
  0
LINE
  5
EF7D
  8
0
 10
398.4222390210987896
 20
76.2151895832692787
 30
0.0
 11
398.4222390210987896
 21
76.2049998570692821
 31
0.0
  0
LINE
  5
EF7E
  8
0
 10
398.3995086955987972
 20
76.2049998570692821
 30
0.0
 11
398.3995086955987972
 21
76.2151895832692787
 31
0.0
  0
LINE
  5
EF7F
  8
0
 10
398.4222390210987896
 20
76.2034713981692846
 30
0.0
 11
398.3995086955987972
 21
76.2034713981692846
 31
0.0
  0
LINE
  5
EF80
  8
0
 10
398.3995086955987972
 20
76.2034713981692846
 30
0.0
 11
398.3881435327987788
 21
76.1983765350692863
 31
0.0
  0
LINE
  5
EF81
  8
0
 10
398.3881435327987788
 20
76.1983765350692863
 30
0.0
 11
398.3995086955987972
 21
76.1932816719692738
 31
0.0
  0
LINE
  5
EF82
  8
0
 10
398.3995086955987972
 20
76.1932816719692738
 30
0.0
 11
398.4222390210987896
 21
76.1932816719692738
 31
0.0
  0
LINE
  5
EF83
  8
0
 10
398.4222390210987896
 20
76.1932816719692738
 30
0.0
 11
398.4336041838988081
 21
76.1983765350692863
 31
0.0
  0
LINE
  5
EF84
  8
0
 10
398.4336041838988081
 20
76.1983765350692863
 30
0.0
 11
398.4222390210987896
 21
76.2034713981692846
 31
0.0
  0
LINE
  5
EF85
  8
0
 10
398.4222390210987896
 20
76.2034713981692846
 30
0.0
 11
398.4222390210987896
 21
76.1932816719692738
 31
0.0
  0
LINE
  5
EF86
  8
0
 10
398.3995086955987972
 20
76.1932816719692738
 30
0.0
 11
398.3995086955987972
 21
76.2034713981692846
 31
0.0
  0
LINE
  5
EF87
  8
0
 10
398.4222390210987896
 20
76.1917532130692763
 30
0.0
 11
398.3995086955987972
 21
76.1917532130692763
 31
0.0
  0
LINE
  5
EF88
  8
0
 10
398.3995086955987972
 20
76.1917532130692763
 30
0.0
 11
398.3881435327987788
 21
76.186658349969278
 31
0.0
  0
LINE
  5
EF89
  8
0
 10
398.3881435327987788
 20
76.186658349969278
 30
0.0
 11
398.3995086955987972
 21
76.1815634868692797
 31
0.0
  0
LINE
  5
EF8A
  8
0
 10
398.3995086955987972
 20
76.1815634868692797
 30
0.0
 11
398.4222390210987896
 21
76.1815634868692797
 31
0.0
  0
LINE
  5
EF8B
  8
0
 10
398.4222390210987896
 20
76.1815634868692797
 30
0.0
 11
398.4336041838988081
 21
76.186658349969278
 31
0.0
  0
LINE
  5
EF8C
  8
0
 10
398.4336041838988081
 20
76.186658349969278
 30
0.0
 11
398.4222390210987896
 21
76.1917532130692763
 31
0.0
  0
LINE
  5
EF8D
  8
0
 10
398.4222390210987896
 20
76.1917532130692763
 30
0.0
 11
398.4222390210987896
 21
76.1815634868692797
 31
0.0
  0
LINE
  5
EF8E
  8
0
 10
398.3995086955987972
 20
76.1815634868692797
 30
0.0
 11
398.3995086955987972
 21
76.1917532130692763
 31
0.0
  0
LINE
  5
EF8F
  8
0
 10
398.4222390210987896
 20
76.1800350279692822
 30
0.0
 11
398.3995086955987972
 21
76.1800350279692822
 31
0.0
  0
LINE
  5
EF90
  8
0
 10
398.3995086955987972
 20
76.1800350279692822
 30
0.0
 11
398.3881435327987788
 21
76.1749401648692839
 31
0.0
  0
LINE
  5
EF91
  8
0
 10
398.3881435327987788
 20
76.1749401648692839
 30
0.0
 11
398.3995086955987972
 21
76.1698453017692714
 31
0.0
  0
LINE
  5
EF92
  8
0
 10
398.3995086955987972
 20
76.1698453017692714
 30
0.0
 11
398.4222390210987896
 21
76.1698453017692714
 31
0.0
  0
LINE
  5
EF93
  8
0
 10
398.4222390210987896
 20
76.1698453017692714
 30
0.0
 11
398.4336041838988081
 21
76.1749401648692839
 31
0.0
  0
LINE
  5
EF94
  8
0
 10
398.4336041838988081
 20
76.1749401648692839
 30
0.0
 11
398.4222390210987896
 21
76.1800350279692822
 31
0.0
  0
LINE
  5
EF95
  8
0
 10
398.4222390210987896
 20
76.1800350279692822
 30
0.0
 11
398.4222390210987896
 21
76.1698453017692714
 31
0.0
  0
LINE
  5
EF96
  8
0
 10
398.3995086955987972
 20
76.1698453017692714
 30
0.0
 11
398.3995086955987972
 21
76.1800350279692822
 31
0.0
  0
LINE
  5
EF97
  8
0
 10
398.4222390210987896
 20
76.1683168428692738
 30
0.0
 11
398.3995086955987972
 21
76.1683168428692738
 31
0.0
  0
LINE
  5
EF98
  8
0
 10
398.3995086955987972
 20
76.1683168428692738
 30
0.0
 11
398.3881435327987788
 21
76.1632219797692755
 31
0.0
  0
LINE
  5
EF99
  8
0
 10
398.3881435327987788
 20
76.1632219797692755
 30
0.0
 11
398.3995086955987972
 21
76.1581271166692773
 31
0.0
  0
LINE
  5
EF9A
  8
0
 10
398.3995086955987972
 20
76.1581271166692773
 30
0.0
 11
398.4222390210987896
 21
76.1581271166692773
 31
0.0
  0
LINE
  5
EF9B
  8
0
 10
398.4222390210987896
 20
76.1581271166692773
 30
0.0
 11
398.4336041838988081
 21
76.1632219797692755
 31
0.0
  0
LINE
  5
EF9C
  8
0
 10
398.4336041838988081
 20
76.1632219797692755
 30
0.0
 11
398.4222390210987896
 21
76.1683168428692738
 31
0.0
  0
LINE
  5
EF9D
  8
0
 10
398.4222390210987896
 20
76.1683168428692738
 30
0.0
 11
398.4222390210987896
 21
76.1581271166692773
 31
0.0
  0
LINE
  5
EF9E
  8
0
 10
398.3995086955987972
 20
76.1581271166692773
 30
0.0
 11
398.3995086955987972
 21
76.1683168428692738
 31
0.0
  0
LINE
  5
EF9F
  8
0
 10
398.4614488326988067
 20
76.1858941204692712
 30
0.0
 11
398.4387185071988142
 21
76.1858941204692712
 31
0.0
  0
LINE
  5
EFA0
  8
0
 10
398.4387185071988142
 20
76.1858941204692712
 30
0.0
 11
398.4273533443987958
 21
76.1807992573692729
 31
0.0
  0
LINE
  5
EFA1
  8
0
 10
398.4273533443987958
 20
76.1807992573692729
 30
0.0
 11
398.4387185071988142
 21
76.1757043942692746
 31
0.0
  0
LINE
  5
EFA2
  8
0
 10
398.4387185071988142
 20
76.1757043942692746
 30
0.0
 11
398.4614488326988067
 21
76.1757043942692746
 31
0.0
  0
LINE
  5
EFA3
  8
0
 10
398.4614488326988067
 20
76.1757043942692746
 30
0.0
 11
398.4728139954988251
 21
76.1807992573692729
 31
0.0
  0
LINE
  5
EFA4
  8
0
 10
398.4728139954988251
 20
76.1807992573692729
 30
0.0
 11
398.4614488326988067
 21
76.1858941204692712
 31
0.0
  0
LINE
  5
EFA5
  8
0
 10
398.4614488326988067
 20
76.1858941204692712
 30
0.0
 11
398.4614488326988067
 21
76.1757043942692746
 31
0.0
  0
LINE
  5
EFA6
  8
0
 10
398.4387185071988142
 20
76.1757043942692746
 30
0.0
 11
398.4387185071988142
 21
76.1858941204692712
 31
0.0
  0
LINE
  5
EFA7
  8
0
 10
398.4614488326988067
 20
76.1976123056692813
 30
0.0
 11
398.4387185071988142
 21
76.1976123056692813
 31
0.0
  0
LINE
  5
EFA8
  8
0
 10
398.4387185071988142
 20
76.1976123056692813
 30
0.0
 11
398.4273533443987958
 21
76.192517442569283
 31
0.0
  0
LINE
  5
EFA9
  8
0
 10
398.4273533443987958
 20
76.192517442569283
 30
0.0
 11
398.4387185071988142
 21
76.1874225794692848
 31
0.0
  0
LINE
  5
EFAA
  8
0
 10
398.4387185071988142
 20
76.1874225794692848
 30
0.0
 11
398.4614488326988067
 21
76.1874225794692848
 31
0.0
  0
LINE
  5
EFAB
  8
0
 10
398.4614488326988067
 20
76.1874225794692848
 30
0.0
 11
398.4728139954988251
 21
76.192517442569283
 31
0.0
  0
LINE
  5
EFAC
  8
0
 10
398.4728139954988251
 20
76.192517442569283
 30
0.0
 11
398.4614488326988067
 21
76.1976123056692813
 31
0.0
  0
LINE
  5
EFAD
  8
0
 10
398.4614488326988067
 20
76.1976123056692813
 30
0.0
 11
398.4614488326988067
 21
76.1874225794692848
 31
0.0
  0
LINE
  5
EFAE
  8
0
 10
398.4387185071988142
 20
76.1874225794692848
 30
0.0
 11
398.4387185071988142
 21
76.1976123056692813
 31
0.0
  0
LINE
  5
EFAF
  8
0
 10
398.4614488326988067
 20
76.2093304907692755
 30
0.0
 11
398.4387185071988142
 21
76.2093304907692755
 31
0.0
  0
LINE
  5
EFB0
  8
0
 10
398.4387185071988142
 20
76.2093304907692755
 30
0.0
 11
398.4273533443987958
 21
76.204235627669263
 31
0.0
  0
LINE
  5
EFB1
  8
0
 10
398.4273533443987958
 20
76.204235627669263
 30
0.0
 11
398.4387185071988142
 21
76.1991407645692789
 31
0.0
  0
LINE
  5
EFB2
  8
0
 10
398.4387185071988142
 20
76.1991407645692789
 30
0.0
 11
398.4614488326988067
 21
76.1991407645692789
 31
0.0
  0
LINE
  5
EFB3
  8
0
 10
398.4614488326988067
 20
76.1991407645692789
 30
0.0
 11
398.4728139954988251
 21
76.204235627669263
 31
0.0
  0
LINE
  5
EFB4
  8
0
 10
398.4728139954988251
 20
76.204235627669263
 30
0.0
 11
398.4614488326988067
 21
76.2093304907692755
 31
0.0
  0
LINE
  5
EFB5
  8
0
 10
398.4614488326988067
 20
76.2093304907692755
 30
0.0
 11
398.4614488326988067
 21
76.1991407645692789
 31
0.0
  0
LINE
  5
EFB6
  8
0
 10
398.4387185071988142
 20
76.1991407645692789
 30
0.0
 11
398.4387185071988142
 21
76.2093304907692755
 31
0.0
  0
LINE
  5
EFB7
  8
0
 10
398.4614488326988067
 20
76.2210486758692554
 30
0.0
 11
398.4387185071988142
 21
76.2210486758692554
 31
0.0
  0
LINE
  5
EFB8
  8
0
 10
398.4387185071988142
 20
76.2210486758692554
 30
0.0
 11
398.4273533443987958
 21
76.2159538127692713
 31
0.0
  0
LINE
  5
EFB9
  8
0
 10
398.4273533443987958
 20
76.2159538127692713
 30
0.0
 11
398.4387185071988142
 21
76.210858949669273
 31
0.0
  0
LINE
  5
EFBA
  8
0
 10
398.4387185071988142
 20
76.210858949669273
 30
0.0
 11
398.4614488326988067
 21
76.210858949669273
 31
0.0
  0
LINE
  5
EFBB
  8
0
 10
398.4614488326988067
 20
76.210858949669273
 30
0.0
 11
398.4728139954988251
 21
76.2159538127692713
 31
0.0
  0
LINE
  5
EFBC
  8
0
 10
398.4728139954988251
 20
76.2159538127692713
 30
0.0
 11
398.4614488326988067
 21
76.2210486758692554
 31
0.0
  0
LINE
  5
EFBD
  8
0
 10
398.4614488326988067
 20
76.2210486758692554
 30
0.0
 11
398.4614488326988067
 21
76.210858949669273
 31
0.0
  0
LINE
  5
EFBE
  8
0
 10
398.4387185071988142
 20
76.210858949669273
 30
0.0
 11
398.4387185071988142
 21
76.2210486758692554
 31
0.0
  0
LINE
  5
EFBF
  8
0
 10
398.4458196249457274
 20
76.2327668609692779
 30
0.0
 11
398.4387185071988142
 21
76.2327668609692779
 31
0.0
  0
LINE
  5
EFC0
  8
0
 10
398.4387185071988142
 20
76.2327668609692779
 30
0.0
 11
398.4273533443987958
 21
76.2276719978692654
 31
0.0
  0
LINE
  5
EFC1
  8
0
 10
398.4273533443987958
 20
76.2276719978692654
 30
0.0
 11
398.4387185071988142
 21
76.2225771347692813
 31
0.0
  0
LINE
  5
EFC2
  8
0
 10
398.4387185071988142
 20
76.2225771347692813
 30
0.0
 11
398.4614488326988067
 21
76.2225771347692813
 31
0.0
  0
LINE
  5
EFC3
  8
0
 10
398.4614488326988067
 20
76.2225771347692813
 30
0.0
 11
398.4641919431127235
 21
76.2238068375261264
 31
0.0
  0
LINE
  5
EFC4
  8
0
 10
398.4614488326988067
 20
76.2252620983215508
 30
0.0
 11
398.4614488326988067
 21
76.2225771347692813
 31
0.0
  0
LINE
  5
EFC5
  8
0
 10
398.4387185071988142
 20
76.2225771347692813
 30
0.0
 11
398.4387185071988142
 21
76.2327668609692779
 31
0.0
  0
LINE
  5
EFC6
  8
0
 10
398.1967970957987859
 20
76.1287614717692804
 30
0.0
 11
398.2034596376988134
 21
76.128831653869284
 31
0.0
  0
LINE
  5
EFC7
  8
0
 10
398.228171214798806
 20
76.1297198246068092
 30
0.0
 11
398.2357905499987965
 21
76.1300785612692721
 31
0.0
  0
LINE
  5
EFC8
  8
0
 10
398.2357905499987965
 20
76.1300785612692721
 30
0.0
 11
398.2426694492987735
 21
76.1331622874692755
 31
0.0
  0
LINE
  5
EFC9
  8
0
 10
398.2426694492987735
 20
76.1331622874692755
 30
0.0
 11
398.2653997747988228
 21
76.1331622874692755
 31
0.0
  0
LINE
  5
EFCA
  8
0
 10
398.2653997747988228
 20
76.1331622874692755
 30
0.0
 11
398.2676854348154052
 21
76.1321376541618093
 31
0.0
  0
LINE
  5
EFCB
  8
0
 10
398.2676854348154052
 20
76.1321376541618093
 30
0.0
 11
398.2734518156988202
 21
76.1326095741970619
 31
0.0
  0
LINE
  5
EFCC
  8
0
 10
398.2734518156988202
 20
76.1326095741970619
 30
0.0
 11
398.2705140980987721
 21
76.1339265169692823
 31
0.0
  0
LINE
  5
EFCD
  8
0
 10
398.2705140980987721
 20
76.1339265169692823
 30
0.0
 11
398.281879260798803
 21
76.1390213800692806
 31
0.0
  0
LINE
  5
EFCE
  8
0
 10
398.281879260798803
 20
76.1390213800692806
 30
0.0
 11
398.304609586398783
 21
76.1390213800692806
 31
0.0
  0
LINE
  5
EFCF
  8
0
 10
398.304609586398783
 20
76.1390213800692806
 30
0.0
 11
398.3104125674673242
 21
76.1364199748282147
 31
0.0
  0
LINE
  5
EFD0
  8
0
 10
398.3104125674673242
 20
76.1364199748282147
 30
0.0
 11
398.3157396798987975
 21
76.1370888134692763
 31
0.0
  0
LINE
  5
EFD1
  8
0
 10
398.3157396798987975
 20
76.1370888134692763
 30
0.0
 11
398.3097239095988016
 21
76.1397856094692713
 31
0.0
  0
LINE
  5
EFD2
  8
0
 10
398.3097239095988016
 20
76.1397856094692713
 30
0.0
 11
398.32108907239882
 21
76.1448804725692554
 31
0.0
  0
LINE
  5
EFD3
  8
0
 10
398.32108907239882
 20
76.1448804725692554
 30
0.0
 11
398.3438193979988
 21
76.1448804725692554
 31
0.0
  0
LINE
  5
EFD4
  8
0
 10
398.3438193979988
 20
76.1448804725692554
 30
0.0
 11
398.3498351682987959
 21
76.1421836765692746
 31
0.0
  0
LINE
  5
EFD5
  8
0
 10
398.3498351682987959
 20
76.1421836765692746
 30
0.0
 11
398.3547367023987817
 21
76.143043296777833
 31
0.0
  0
LINE
  5
EFD6
  8
0
 10
398.3547367023987817
 20
76.143043296777833
 30
0.0
 11
398.3489337211988186
 21
76.1456447020692764
 31
0.0
  0
LINE
  5
EFD7
  8
0
 10
398.3489337211988186
 20
76.1456447020692764
 30
0.0
 11
398.3602988839987802
 21
76.1507395651692747
 31
0.0
  0
LINE
  5
EFD8
  8
0
 10
398.3602988839987802
 20
76.1507395651692747
 30
0.0
 11
398.383029209598817
 21
76.1507395651692747
 31
0.0
  0
LINE
  5
EFD9
  8
0
 10
398.383029209598817
 20
76.1507395651692747
 30
0.0
 11
398.3859669272425776
 21
76.1494226223496469
 31
0.0
  0
LINE
  5
EFDA
  8
0
 10
398.3859669272425776
 20
76.1494226223496469
 30
0.0
 11
398.3904291927988197
 21
76.1504791612247374
 31
0.0
  0
LINE
  5
EFDB
  8
0
 10
398.3904291927988197
 20
76.1504791612247374
 30
0.0
 11
398.3881435327987788
 21
76.1515037946692814
 31
0.0
  0
LINE
  5
EFDC
  8
0
 10
398.3881435327987788
 20
76.1515037946692814
 30
0.0
 11
398.3995086955987972
 21
76.1565986576692779
 31
0.0
  0
LINE
  5
EFDD
  8
0
 10
398.3995086955987972
 20
76.1565986576692779
 30
0.0
 11
398.4132664940988207
 21
76.1565986576692779
 31
0.0
  0
LINE
  5
EFDE
  8
0
 10
398.4132664940988207
 20
76.1565986576692779
 30
0.0
 11
398.4222390210987896
 21
76.1581271166692773
 31
0.0
  0
LINE
  5
EFDF
  8
0
 10
398.4336041838988081
 20
76.1632219797692755
 30
0.0
 11
398.4371702885987929
 21
76.1646802565692838
 31
0.0
  0
LINE
  5
EFE0
  8
0
 10
398.4371702885987929
 20
76.1646802565692838
 30
0.0
 11
398.4273533443987958
 21
76.1690810722692788
 31
0.0
  0
LINE
  5
EFE1
  8
0
 10
398.4273533443987958
 20
76.1690810722692788
 30
0.0
 11
398.4387185071988142
 21
76.1741759353692629
 31
0.0
  0
LINE
  5
EFE2
  8
0
 10
398.4387185071988142
 20
76.1741759353692629
 30
0.0
 11
398.4583523954988209
 21
76.1741759353692629
 31
0.0
  0
LINE
  5
EFE3
  8
0
 10
398.4583523954988209
 20
76.1741759353692629
 30
0.0
 11
398.4614488326988067
 21
76.1757043942692746
 31
0.0
  0
LINE
  5
EFE4
  8
0
 10
398.4708327439691971
 20
76.1816874281214638
 30
0.0
 11
398.4734420552987899
 21
76.1835746237809843
 31
0.0
  0
LINE
  5
EFE5
  8
0
 10
398.4734420552987899
 20
76.1835746237809843
 30
0.0
 11
398.4665631559988128
 21
76.186658349969278
 31
0.0
  0
LINE
  5
EFE6
  8
0
 10
398.4665631559988128
 20
76.186658349969278
 30
0.0
 11
398.4779283187987744
 21
76.1917532130692763
 31
0.0
  0
LINE
  5
EFE7
  8
0
 10
398.4779283187987744
 20
76.1917532130692763
 30
0.0
 11
398.482499638785896
 21
76.1917532130332944
 31
0.0
  0
LINE
  5
EFE8
  8
0
 10
398.482499638785896
 20
76.1917532130332944
 30
0.0
 11
398.4838037540163214
 21
76.1932816719692738
 31
0.0
  0
LINE
  5
EFE9
  8
0
 10
398.4838037540163214
 20
76.1932816719692738
 30
0.0
 11
398.4779283187987744
 21
76.1932816719692738
 31
0.0
  0
LINE
  5
EFEA
  8
0
 10
398.4779283187987744
 20
76.1932816719692738
 30
0.0
 11
398.4665631559988128
 21
76.1983765350692863
 31
0.0
  0
LINE
  5
EFEB
  8
0
 10
398.4665631559988128
 20
76.1983765350692863
 30
0.0
 11
398.4779283187987744
 21
76.2034713981692846
 31
0.0
  0
LINE
  5
EFEC
  8
0
 10
398.4779283187987744
 20
76.2034713981692846
 30
0.0
 11
398.4869693229551899
 21
76.2034791347295339
 31
0.0
  0
LINE
  5
EFED
  8
0
 10
398.476905707926278
 20
76.2147311594266483
 30
0.0
 11
398.4665631559988128
 21
76.2100947201692804
 31
0.0
  0
LINE
  5
EFEE
  8
0
 10
398.4665631559988128
 20
76.2100947201692804
 30
0.0
 11
398.4779283187987744
 21
76.2049998570692821
 31
0.0
  0
LINE
  5
EFEF
  8
0
 10
398.4779283187987744
 20
76.2049998570692821
 30
0.0
 11
398.4860226866491075
 21
76.2050132149763044
 31
0.0
  0
LINE
  5
EFF0
  8
0
 10
398.4779283187987744
 20
76.2138289222387755
 30
0.0
 11
398.4779283187987744
 21
76.2049998570692821
 31
0.0
  0
LINE
  5
EFF1
  8
0
 10
398.4779283187987744
 20
76.2034713981692846
 30
0.0
 11
398.4779283187987744
 21
76.1932816719692738
 31
0.0
  0
LINE
  5
EFF2
  8
0
 10
398.4838037539988136
 20
76.1932816719487107
 30
0.0
 11
398.4837791962435745
 21
76.2034764048770654
 31
0.0
  0
LINE
  5
EFF3
  8
0
 10
398.4734420552987899
 20
76.1897420761692814
 30
0.0
 11
398.4734420552987899
 21
76.1835746237809843
 31
0.0
  0
LINE
  5
EFF4
  8
0
 10
398.4371702885987929
 20
76.1734818879583742
 30
0.0
 11
398.4371702885558761
 21
76.1646802565885253
 31
0.0
  0
LINE
  5
EFF5
  8
0
 10
398.3904291927988197
 20
76.1525284279956622
 30
0.0
 11
398.3904291927988197
 21
76.1504791612692742
 31
0.0
  0
LINE
  5
EFF6
  8
0
 10
398.3547367023987817
 20
76.1482461073692747
 30
0.0
 11
398.3547367023850825
 21
76.143043296775403
 31
0.0
  0
LINE
  5
EFF7
  8
0
 10
398.3157396798987975
 20
76.1424824055692824
 30
0.0
 11
398.3157396798987975
 21
76.1370888134692763
 31
0.0
  0
LINE
  5
EFF8
  8
0
 10
398.2734518156988202
 20
76.1352434597692707
 30
0.0
 11
398.2734518156988202
 21
76.1326095741692797
 31
0.0
  0
LINE
  5
EFF9
  8
0
 10
398.2760258060358183
 20
76.268360984312892
 30
0.0
 11
398.2653997747988228
 21
76.2635907826692829
 31
0.0
  0
LINE
  5
EFFA
  8
0
 10
398.2653997747988228
 20
76.2635907826692829
 30
0.0
 11
398.2426694492987735
 21
76.2635907826692829
 31
0.0
  0
LINE
  5
EFFB
  8
0
 10
398.2426694492987735
 20
76.2635907826692829
 30
0.0
 11
398.231304286498812
 21
76.2686856457692812
 31
0.0
  0
LINE
  5
EFFC
  8
0
 10
398.231304286498812
 20
76.2686856457692812
 30
0.0
 11
398.236487819129195
 21
76.2710093598357162
 31
0.0
  0
LINE
  5
EFFD
  8
0
 10
398.2426694492987735
 20
76.2635907826692829
 30
0.0
 11
398.2426694492987735
 21
76.2706787856616018
 31
0.0
  0
LINE
  5
EFFE
  8
0
 10
398.2653997747988228
 20
76.2635907826692829
 30
0.0
 11
398.2653997747988228
 21
76.2691999434885446
 31
0.0
  0
LINE
  5
EFFF
  8
0
 10
398.2303349829554122
 20
76.2713080367079783
 30
0.0
 11
398.2261899631988058
 21
76.269449875169272
 31
0.0
  0
LINE
  5
F000
  8
0
 10
398.2261899631988058
 20
76.269449875169272
 30
0.0
 11
398.2034596376988134
 21
76.269449875169272
 31
0.0
  0
LINE
  5
F001
  8
0
 10
398.2034596376988134
 20
76.269449875169272
 30
0.0
 11
398.1968781852987718
 21
76.2724002595692809
 31
0.0
  0
LINE
  5
F002
  8
0
 10
398.2034596376988134
 20
76.269449875169272
 30
0.0
 11
398.2034596376988134
 21
76.2722580724692705
 31
0.0
  0
LINE
  5
F003
  8
0
 10
398.2261899631988058
 20
76.269449875169272
 30
0.0
 11
398.2261899631988058
 21
76.2714921848916134
 31
0.0
  0
ARC
  5
F004
  8
0
 10
398.1776066747841014
 20
75.0360867007390056
 30
0.0
 40
1.2441553969176899
 50
83.9167456688083462
 51
90.0917183920927869
  0
ARC
  5
F005
  8
0
 10
398.2279309711145174
 20
75.5082890872823072
 30
0.0
 40
0.7692789617702858
 50
72.9127648342608694
 51
83.9167456688083462
  0
ARC
  5
F006
  8
0
 10
398.4071765163088799
 20
76.091398050422498
 30
0.0
 40
0.1592420543896968
 50
51.3161258776631897
 51
72.9127648342610968
  0
ARC
  5
F007
  8
0
 10
398.4815841373036278
 20
76.1851366606838667
 30
0.0
 40
0.0395658590923792
 50
17.1194038192030504
 51
50.5837611365429893
  0
ARC
  5
F008
  8
0
 10
398.4966948196898784
 20
76.1910854951523362
 30
0.0
 40
0.0234062767471278
 50
348.9995264550851175
 51
14.0895251236117094
  0
ARC
  5
F009
  8
0
 10
398.4908133936261834
 20
76.1922287790149966
 30
0.0
 40
0.0293977932941541
 50
315.976620977176708
 51
348.9995264550851175
  0
ARC
  5
F00A
  8
0
 10
398.4379445072315207
 20
76.2433253759451617
 30
0.0
 40
0.102923172357868
 50
295.0777014643057896
 51
315.976620977176708
  0
ARC
  5
F00B
  8
0
 10
398.3386491380625785
 20
76.4555132242272606
 30
0.0
 40
0.3371949233159566
 50
284.6271738011104162
 51
295.0777014643057896
  0
ARC
  5
F00C
  8
0
 10
398.2457586927695274
 20
76.8114330363099356
 30
0.0
 40
0.7050366657266128
 50
277.6902147894473956
 51
284.6271738011104162
  0
ARC
  5
F00D
  8
0
 10
398.1802553870089127
 20
77.2965298696821748
 30
0.0
 40
1.194536023043214
 50
273.0111560226409892
 51
277.6902147894473956
  0
ARC
  5
F00E
  8
0
 10
398.1774109829050872
 20
77.3506028832160411
 30
0.0
 40
1.24868379702643
 50
269.9175907404376744
 51
273.0111560226409892
  0
ARC
  5
F00F
  8
0
 10
398.4661684363314862
 20
76.2055753753981975
 30
0.0
 40
0.0315187298851662
 50
317.7948679264807197
 51
48.3117079127431097
  0
ARC
  5
F010
  8
0
 10
398.3273450941512124
 20
76.4078761796642141
 30
0.0
 40
0.6044860184041263
 50
180.0030251490503019
 51
191.6591311346653015
  0
ARC
  5
F011
  8
0
 10
398.3254268139496048
 20
76.407480349704997
 30
0.0
 40
0.602527324888343
 50
191.6591311346653015
 51
200.4446610736058005
  0
ARC
  5
F012
  8
0
 10
397.7603212138134268
 20
76.4071147557649795
 30
0.0
 40
0.0374688182524212
 50
133.3497338836907034
 51
178.9179589094503058
  0
ARC
  5
F013
  8
0
 10
397.917336512175325
 20
76.2029513519958215
 30
0.0
 40
0.2948607944501688
 50
100.1287039215606995
 51
128.2968366781047962
  0
ARC
  5
F014
  8
0
 10
398.119713725052975
 20
75.3984929126665406
 30
0.0
 40
1.1238567521085441
 50
94.8455615100475598
 51
103.0742381452396046
  0
ARC
  5
F015
  8
0
 10
398.1741328841533232
 20
74.8552551517894216
 30
0.0
 40
1.6697705962084299
 50
89.9491438147309594
 51
95.1316434100688468
  0
ARC
  5
F016
  8
0
 10
398.0238848768373146
 20
76.4078761796642141
 30
0.0
 40
0.6044860184041263
 50
348.3408688653346985
 51
359.9969748509495844
  0
ARC
  5
F017
  8
0
 10
398.0258031570389221
 20
76.407480349704997
 30
0.0
 40
0.602527324888343
 50
339.5553389263941995
 51
348.3408688653346985
  0
ARC
  5
F018
  8
0
 10
398.433893458813202
 20
76.2029513519958215
 30
0.0
 40
0.2948607944501688
 50
51.7031633218951967
 51
79.8712960784392436
  0
ARC
  5
F019
  8
0
 10
398.2315162459354951
 20
75.3984929126665406
 30
0.0
 40
1.1238567521085441
 50
76.9257618547605659
 51
85.154438489952426
  0
ARC
  5
F01A
  8
0
 10
398.1770970868352038
 20
74.8552551517894216
 30
0.0
 40
1.6697705962084299
 50
84.8683565899311674
 51
90.0508561852690548
  0
ARC
  5
F01B
  8
0
 10
398.5965535736970082
 20
76.4077438040795016
 30
0.0
 40
0.031817310516543
 50
359.9562517000086928
 51
20.6882530602212285
  0
ARC
  5
F01C
  8
0
 10
398.583783261017004
 20
76.4029212968447808
 30
0.0
 40
0.0454678585632366
 50
20.6882530602219887
 51
43.7470531163303278
  0
LINE
  5
F01D
  8
0
 10
400.4429378160172064
 20
68.4725570672588333
 30
0.0
 11
400.4200844902438803
 21
68.4725570672588333
 31
0.0
  0
LINE
  5
F01E
  8
0
 10
400.213822640852527
 20
68.4725570672588333
 30
0.0
 11
400.0593812155905198
 21
68.4725570672588333
 31
0.0
  0
LINE
  5
F01F
  8
0
 10
399.6521664560896738
 20
68.4725570672588333
 30
0.0
 11
399.2590938228996151
 21
68.4725570672588333
 31
0.0
  0
LINE
  5
F020
  8
0
 10
397.3094732496896881
 20
67.566935180269283
 30
0.0
 11
397.3094732496896881
 21
68.3339015450172553
 31
0.0
  0
ENDSEC
  0
EOF
