  0
SECTION
  2
HEADER
  9
$ACADVER
  1
AC1009
  9
$INSBASE
 10
413.8692653348733757
 20
67.5136223361778463
 30
0.0
  9
$EXTMIN
 10
404.5209189928962132
 20
67.5089510377948443
 30
-0.0000000000112498
  9
$EXTMAX
 10
414.7418466150281233
 20
81.0149443515315539
 30
0.0000000000002956
  9
$LIMMIN
 10
0.0
 20
0.0
  9
$LIMMAX
 10
11.6929133858000007
 20
8.2677165353999982
  9
$ORTHOMODE
 70
     0
  9
$REGENMODE
 70
     1
  9
$FILLMODE
 70
     1
  9
$QTEXTMODE
 70
     0
  9
$MIRRTEXT
 70
     0
  9
$DRAGMODE
 70
     2
  9
$LTSCALE
 40
0.6431102362
  9
$OSMODE
 70
  4095
  9
$ATTMODE
 70
     1
  9
$TEXTSIZE
 40
0.2
  9
$TRACEWID
 40
0.05
  9
$TEXTSTYLE
  7
STANDARD
  9
$CLAYER
  8
0
  9
$CELTYPE
  6
BYLAYER
  9
$CECOLOR
 62
   256
  9
$DIMSCALE
 40
1.0
  9
$DIMASZ
 40
0.1875
  9
$DIMEXO
 40
0.0625
  9
$DIMDLI
 40
0.4443307087
  9
$DIMRND
 40
0.0
  9
$DIMDLE
 40
0.0
  9
$DIMEXE
 40
0.125
  9
$DIMTP
 40
0.01
  9
$DIMTM
 40
0.01
  9
$DIMTXT
 40
1.0
  9
$DIMCEN
 40
0.1052362205
  9
$DIMTSZ
 40
0.0
  9
$DIMTOL
 70
     1
  9
$DIMLIM
 70
     0
  9
$DIMTIH
 70
     0
  9
$DIMTOH
 70
     1
  9
$DIMSE1
 70
     0
  9
$DIMSE2
 70
     0
  9
$DIMTAD
 70
     0
  9
$DIMZIN
 70
     0
  9
$DIMBLK
  1

  9
$DIMASO
 70
     1
  9
$DIMSHO
 70
     1
  9
$DIMPOST
  1
\X
  9
$DIMAPOST
  1

  9
$DIMALT
 70
     1
  9
$DIMALTD
 70
     2
  9
$DIMALTF
 40
25.3999999999999986
  9
$DIMLFAC
 40
1.0
  9
$DIMTOFL
 70
     0
  9
$DIMTVP
 40
0.0
  9
$DIMTIX
 70
     0
  9
$DIMSOXD
 70
     0
  9
$DIMSAH
 70
     0
  9
$DIMBLK1
  1

  9
$DIMBLK2
  1

  9
$DIMSTYLE
  2
STANDARD
  9
$DIMCLRD
 70
     0
  9
$DIMCLRE
 70
     0
  9
$DIMCLRT
 70
     0
  9
$DIMTFAC
 40
1.0
  9
$DIMGAP
 40
0.09
  9
$LUNITS
 70
     2
  9
$LUPREC
 70
     4
  9
$SKETCHINC
 40
0.1
  9
$FILLETRAD
 40
0.0
  9
$AUNITS
 70
     0
  9
$AUPREC
 70
     0
  9
$MENU
  1
.
  9
$ELEVATION
 40
0.0
  9
$PELEVATION
 40
0.0
  9
$THICKNESS
 40
0.0
  9
$LIMCHECK
 70
     0
  9
$BLIPMODE
 70
     0
  9
$CHAMFERA
 40
0.0
  9
$CHAMFERB
 40
0.0
  9
$SKPOLY
 70
     0
  9
$TDCREATE
 40
2458172.5207638889551163
  9
$TDUPDATE
 40
2459054.9028356480412185
  9
$TDINDWG
 40
0.2688397917
  9
$TDUSRTIMER
 40
0.2688397917
  9
$USRTIMER
 70
     1
  9
$ANGBASE
 50
0.0
  9
$ANGDIR
 70
     0
  9
$PDMODE
 70
     0
  9
$PDSIZE
 40
0.3125
  9
$PLINEWID
 40
0.0
  9
$COORDS
 70
     1
  9
$SPLFRAME
 70
     0
  9
$SPLINETYPE
 70
     6
  9
$SPLINESEGS
 70
     8
  9
$ATTDIA
 70
     1
  9
$ATTREQ
 70
     1
  9
$HANDLING
 70
     1
  9
$HANDSEED
  5
E8F3
  9
$SURFTAB1
 70
     6
  9
$SURFTAB2
 70
     6
  9
$SURFTYPE
 70
     6
  9
$SURFU
 70
     6
  9
$SURFV
 70
     6
  9
$UCSNAME
  2

  9
$UCSORG
 10
0.0
 20
0.0
 30
0.0
  9
$UCSXDIR
 10
1.0
 20
0.0
 30
0.0
  9
$UCSYDIR
 10
0.0
 20
1.0
 30
0.0
  9
$PUCSNAME
  2

  9
$PUCSORG
 10
0.0
 20
0.0
 30
0.0
  9
$PUCSXDIR
 10
1.0
 20
0.0
 30
0.0
  9
$PUCSYDIR
 10
0.0
 20
1.0
 30
0.0
  9
$USERI1
 70
     0
  9
$USERI2
 70
     0
  9
$USERI3
 70
     0
  9
$USERI4
 70
     0
  9
$USERI5
 70
     0
  9
$USERR1
 40
0.0
  9
$USERR2
 40
0.0
  9
$USERR3
 40
0.0
  9
$USERR4
 40
0.0
  9
$USERR5
 40
0.0
  9
$WORLDVIEW
 70
     1
  9
$SHADEDGE
 70
     3
  9
$SHADEDIF
 70
    70
  9
$TILEMODE
 70
     1
  9
$MAXACTVP
 70
    64
  9
$PLIMCHECK
 70
     0
  9
$PEXTMIN
 10
1.0000000000000000E+20
 20
1.0000000000000000E+20
 30
1.0000000000000000E+20
  9
$PEXTMAX
 10
-1.0000000000000000E+20
 20
-1.0000000000000000E+20
 30
-1.0000000000000000E+20
  9
$PLIMMIN
 10
0.0
 20
0.0
  9
$PLIMMAX
 10
12.0
 20
9.0
  9
$UNITMODE
 70
     0
  9
$VISRETAIN
 70
     1
  9
$PLINEGEN
 70
     0
  9
$PSLTSCALE
 70
     1
  0
ENDSEC
  0
SECTION
  2
TABLES
  0
TABLE
  2
VPORT
 70
     1
  0
VPORT
  2
*ACTIVE
 70
     0
 10
0.0
 20
0.0
 11
1.0
 21
1.0
 12
-19.9979063040915399
 22
4.559406182444504
 13
0.0
 23
0.0
 14
1.0
 24
1.0
 15
0.0
 25
0.0
 16
0.0
 26
0.0
 36
14.6338572656650907
 17
429.6292891080536833
 27
69.7025415122186871
 37
0.0
 40
13.6183871554598799
 41
2.6486111111111108
 42
50.0
 43
0.0
 44
0.0
 50
0.0
 51
0.0
 71
     0
 72
   100
 73
     1
 74
     1
 75
     0
 76
     0
 77
     0
 78
     0
  0
ENDTAB
  0
TABLE
  2
LTYPE
 70
     2
  0
LTYPE
  2
CONTINUOUS
 70
     0
  3
Solid line
 72
    65
 73
     0
 40
0.0
  0
LTYPE
  2
PHANTOM2
 70
     0
  3
___ _ _ ___ _ _ ___ _ _ ___ _ _
 72
    65
 73
     6
 40
1.25
 49
0.625
 49
-0.125
 49
0.125
 49
-0.125
 49
0.125
 49
-0.125
  0
ENDTAB
  0
TABLE
  2
LAYER
 70
     2
  0
LAYER
  2
0
 70
     0
 62
   255
  6
CONTINUOUS
  0
LAYER
  2
DEFPOINTS
 70
     0
 62
     7
  6
CONTINUOUS
  0
ENDTAB
  0
TABLE
  2
STYLE
 70
     1
  0
STYLE
  2
STANDARD
 70
     0
 40
0.0
 41
0.8
 50
0.0
 71
     0
 42
0.2
  3
txt
  4

  0
ENDTAB
  0
TABLE
  2
VIEW
 70
     0
  0
ENDTAB
  0
TABLE
  2
UCS
 70
     0
  0
ENDTAB
  0
TABLE
  2
APPID
 70
    10
  0
APPID
  2
ACAD
 70
     0
  0
APPID
  2
ACAD_MLEADERVER
 70
     0
  0
APPID
  2
ACAD_EXEMPT_FROM_CAD_STANDARDS
 70
     0
  0
APPID
  2
ACAD_DSTYLE_DIMJAG
 70
     0
  0
APPID
  2
ACAD_DSTYLE_DIMTALN
 70
     0
  0
APPID
  2
ACAD_NAV_VCDISPLAY
 70
     0
  0
APPID
  2
ACAECLAYERSTANDARD
 70
     0
  0
APPID
  2
ACCMTRANSPARENCY
 70
     0
  0
APPID
  2
DCO15
 70
     0
  0
APPID
  2
ACDBATTR
 70
     0
  0
ENDTAB
  0
TABLE
  2
DIMSTYLE
 70
     1
  0
DIMSTYLE
  2
STANDARD
 70
     0
  3

  4

  5

  6

  7

 40
1.0
 41
0.1875
 42
0.0625
 43
0.38
 44
0.125
 45
0.0
 46
0.0
 47
0.01
 48
0.01
140
0.15625
141
0.09
142
0.0
143
25.3999999999999986
144
1.0
145
0.0
146
1.0
147
0.09
 71
     1
 72
     0
 73
     1
 74
     1
 75
     0
 76
     0
 77
     0
 78
     4
170
     0
171
     2
172
     0
173
     0
174
     0
175
     0
176
     0
177
     0
178
     0
  0
ENDTAB
  0
ENDSEC
  0
SECTION
  2
BLOCKS
  0
BLOCK
  8
0
  2
$MODEL_SPACE
 70
     0
 10
0.0
 20
0.0
 30
0.0
  3
$MODEL_SPACE
  1

  0
ENDBLK
  5
21
  8
0
  0
BLOCK
 67
     1
  8
0
  2
$PAPER_SPACE
 70
     0
 10
0.0
 20
0.0
 30
0.0
  3
$PAPER_SPACE
  1

  0
ENDBLK
  5
1D
 67
     1
  8
0
  0
BLOCK
  8
0
  2
_FILLED
 70
     0
 10
0.0
 20
0.0
 30
0.0
  3
_FILLED
  1

  0
SOLID
  5
87E2
  8
0
  6
BYBLOCK
 62
     0
 10
0.0
 20
0.0
 30
0.0
 11
-1.0
 21
0.1666666667
 31
0.0
 12
-1.0
 22
-0.1666666667
 32
0.0
 13
-1.0
 23
-0.1666666667
 33
0.0
  0
ENDBLK
  5
87E3
  8
0
  6
BYBLOCK
 62
     0
  0
ENDSEC
  0
SECTION
  2
ENTITIES
  0
ATTDEF
  5
B1E1
  8
DEFPOINTS
 10
413.8695174326268216
 20
67.5172874317647711
 30
0.0
 40
0.001
  1
K-99480T-4E2
  3

  2
MODELNUMBER
 70
     0
1001
ACDBATTR
1070
     0
1070
     1
  0
ATTDEF
  5
B1E2
  8
DEFPOINTS
 10
413.8695174326268216
 20
67.5156207650981059
 30
0.0
 40
0.001
  1
KUMIN
  3

  2
TRADENAME
 70
     0
1001
ACDBATTR
1070
     0
1070
     1
  0
ATTDEF
  5
B1E3
  8
DEFPOINTS
 10
413.8695174326268216
 20
67.5139540984314408
 30
0.0
 40
0.001
  1
KITCHEN SINK FAUCET
  3

  2
PRODUCT
 70
     0
1001
ACDBATTR
1070
     0
1070
     1
  0
LINE
  5
E526
  8
0
 10
414.7295015553734174
 20
67.5136223361778463
 30
0.0
 11
413.0090291143733907
 21
67.5136223361778463
 31
0.0
  0
LINE
  5
E527
  8
0
 10
413.0090291143733907
 20
67.5136223361778463
 30
0.0
 11
413.0090291143733907
 21
67.5539866087778336
 31
0.0
  0
ARC
  5
E528
  8
0
 10
413.0277199598733091
 20
67.5539866087778336
 30
0.0
 40
0.0186908455000001
 50
90.0
 51
179.9999999999909903
  0
LINE
  5
E529
  8
0
 10
413.003110411690102
 20
67.5726774542778514
 30
0.0
 11
414.7354061458732986
 21
67.5726774542778514
 31
0.0
  0
LINE
  5
E52A
  8
0
 10
414.7295015553734174
 20
67.5136223361778463
 30
0.0
 11
414.7295015553734174
 21
67.5539866087778336
 31
0.0
  0
ARC
  5
E52B
  8
0
 10
414.7108107098732717
 20
67.5539866087778336
 30
0.0
 40
0.0186908455000037
 50
359.9999999999894271
 51
89.9999999999902229
  0
LINE
  5
E52C
  8
0
 10
414.7354061458732986
 20
67.5726774542778514
 30
0.0
 11
414.7354070671732984
 21
67.7104727298778499
 31
0.0
  0
ARC
  5
E52D
  8
0
 10
394.2312720391539074
 20
67.7106098206417641
 30
0.0
 40
20.504135028477851
 50
359.9996169200904887
 51
2.4057643989941941
  0
ARC
  5
E52E
  8
0
 10
405.4145454696110846
 20
68.1804549568161207
 30
0.0
 40
9.31099609999319
 50
2.4057643989941941
 51
8.6924210770093602
  0
ARC
  5
E52F
  8
0
 10
407.5523577613990938
 20
68.5072968073695705
 30
0.0
 40
7.1483433330901347
 50
8.6924210770093602
 51
12.1083733841882495
  0
ARC
  5
E530
  8
0
 10
413.8677726565073272
 20
71.7286416503775968
 30
0.0
 40
0.66954841919001
 50
57.9269674041385869
 51
89.8722657855087732
  0
ARC
  5
E531
  8
0
 10
413.90042939280562
 20
71.780633828948794
 30
0.0
 40
0.6081509887169242
 50
46.11322532899284
 51
57.9330502997475705
  0
ARC
  5
E532
  8
0
 10
413.8551778695057806
 20
71.7335888091385527
 30
0.0
 40
0.6734268207675488
 50
13.3336288022533598
 51
46.11322532899284
  0
ARC
  5
E533
  8
0
 10
413.5206548725220728
 20
71.6796622710044176
 30
0.0
 40
1.0116698590809761
 50
9.6278207939456077
 51
11.9360186321466806
  0
ARC
  5
E534
  8
0
 10
413.953264272361082
 20
71.753048760827383
 30
0.0
 40
0.5728800805793394
 50
4.4482198899664009
 51
9.6278207939456077
  0
ARC
  5
E535
  8
0
 10
413.3826442929725999
 20
71.7086588402298446
 30
0.0
 40
1.1452240557620601
 50
358.8761085602047274
 51
4.4482198899664009
  0
ARC
  5
E536
  8
0
 10
420.9550896889771252
 20
71.5601016804014876
 30
0.0
 40
6.4286784063248543
 50
178.8761085602046137
 51
180.1914654683934884
  0
LINE
  5
E537
  8
0
 10
414.5264471770732939
 20
71.5386189875778484
 30
0.0
 11
414.5288454017733102
 21
70.7203062943778491
 31
0.0
  0
LINE
  5
E538
  8
0
 10
414.5288454017733102
 20
70.7203062943778491
 30
0.0
 11
414.5416689838733078
 21
70.0067437197778446
 31
0.0
  0
ARC
  5
E539
  8
0
 10
455.6728682021512782
 20
70.7955440846213406
 30
0.0
 40
41.1387621975825226
 50
181.0986645958537906
 51
182.0149880416136057
  0
ARC
  5
E53A
  8
0
 10
411.5245255385052019
 20
69.2422870030964646
 30
0.0
 40
3.0368958904191121
 50
358.43575726772292
 51
2.0149880416136701
  0
ARC
  5
E53B
  8
0
 10
413.8801511582449848
 20
69.1779596469281302
 30
0.0
 40
0.6803921095763688
 50
348.1794559282411115
 51
358.43575726772292
  0
ARC
  5
E53C
  8
0
 10
413.8692561977521791
 20
69.1672854856423101
 30
0.0
 40
0.6889861444354966
 50
270.0007598388996257
 51
349.2339457569316892
  0
ARC
  5
E53D
  8
0
 10
413.8692678747701166
 20
69.1672671694027628
 30
0.0
 40
0.6889678281400524
 50
190.7665899758715113
 51
269.999788777704623
  0
ARC
  5
E53E
  8
0
 10
414.6885323439656759
 20
69.2636140031443404
 30
0.0
 40
1.512936010025717
 50
175.3565519480864907
 51
188.5545955269604121
  0
ARC
  5
E53F
  8
0
 10
395.7919136042303876
 20
70.0747033258608241
 30
0.0
 40
17.4022780448501209
 50
357.7322080212811102
 51
359.0516566870692259
  0
ARC
  5
E540
  8
0
 10
-58.8320289324049099
 20
80.6121072447854061
 30
0.0
 40
472.1479561315802016
 50
358.6862048205047131
 51
358.7544928412052059
  0
ARC
  5
E541
  8
0
 10
334.424797300412024
 20
71.4536393203322149
 30
0.0
 40
78.787318107367085
 50
359.1968522281737251
 51
0.0618118988950243
  0
ARC
  5
E542
  8
0
 10
434.693000454157584
 20
71.7331646337510591
 30
0.0
 40
21.4818116837582416
 50
179.9610829060690946
 51
180.5188473125874111
  0
ARC
  5
E543
  8
0
 10
413.8668914639318928
 20
71.7424736896994943
 30
0.0
 40
0.6557190130166105
 50
89.7925741354831644
 51
179.5384558495034071
  0
LINE
  5
E544
  8
0
 10
413.4165094313822806
 20
72.2190492715829038
 30
0.0
 11
413.4165094313822806
 21
76.1711026522445422
 31
0.0
  0
LINE
  5
E545
  8
0
 10
414.322021240373374
 20
72.2146458999261824
 30
0.0
 11
414.322021240373374
 21
76.1711026498477537
 31
0.0
  0
ARC
  5
E546
  8
0
 10
409.479504771059112
 20
76.1711054713851468
 30
0.0
 40
3.9370046603242952
 50
359.9999589726522231
 51
164.9997016973171071
  0
ARC
  5
E547
  8
0
 10
409.4795015562858111
 20
76.1711026498947916
 30
0.0
 40
4.8425196840875593
 50
359.999999999443105
 51
164.9996506566729124
  0
LINE
  5
E548
  8
0
 10
404.8019943710174857
 20
77.4244674900507732
 30
0.0
 11
404.6797100130733043
 21
76.9680960617778425
 31
0.0
  0
LINE
  5
E549
  8
0
 10
404.6797100130733043
 20
76.9680960617778425
 30
0.0
 11
404.5625281619330735
 21
76.530767439778117
 31
0.0
  0
ARC
  5
E54A
  8
0
 10
405.1567246593422169
 20
76.371552968086192
 30
0.0
 40
0.6151574802677722
 50
164.9999999940835096
 51
184.8351193892385993
  0
ARC
  5
E54B
  8
0
 10
404.5555255340324834
 20
76.3206977450285251
 30
0.0
 40
0.0118112761813565
 50
184.8351193892353024
 51
254.9991392859882069
  0
LINE
  5
E54C
  8
0
 10
404.5524683794234875
 20
76.309288974247707
 30
0.0
 11
405.3351550500102007
 21
76.0995561109694449
 31
0.0
  0
ARC
  5
E54D
  8
0
 10
405.3393407130726018
 20
76.120035497822883
 30
0.0
 40
0.0209027524782043
 50
258.4487377543143793
 51
266.7910223801071083
  0
ARC
  5
E54E
  8
0
 10
405.3375696881540762
 20
76.1122176990688786
 30
0.0
 40
0.0130660046606844
 50
272.6360774681087946
 51
322.3127447214067729
  0
ARC
  5
E54F
  8
0
 10
404.838148575665798
 20
76.4578668212327557
 30
0.0
 40
0.6204155476390119
 50
325.2497545337541283
 51
344.9151092073961991
  0
LINE
  5
E550
  8
0
 10
405.4371854062010812
 20
76.2964037374816968
 30
0.0
 11
405.6766555966210035
 21
77.1900970571652465
 31
0.0
  0
ARC
  5
E551
  8
0
 10
404.5996546786732893
 20
76.2966454433778409
 30
0.0
 40
0.0078740156999971
 50
165.0044785588725915
 51
254.9999999999245119
  0
LINE
  5
E552
  8
0
 10
404.5976167334487741
 20
76.2890397282566113
 30
0.0
 11
405.2859339561488241
 21
76.1046056843566134
 31
0.0
  0
ARC
  5
E553
  8
0
 10
405.2879695069078139
 20
76.1121925369301806
 30
0.0
 40
0.0078551765649217
 50
254.9812608722895106
 51
269.8602515432216933
  0
ARC
  5
E554
  8
0
 10
405.2879735714914773
 20
76.1122091764267168
 30
0.0
 40
0.0078718269542631
 50
269.8309626037465137
 51
344.9283646783803192
  0
LINE
  5
E555
  8
0
 10
413.003110411690102
 20
67.5726774542778514
 30
0.0
 11
413.0031094903901021
 21
67.7104727298778499
 31
0.0
  0
ARC
  5
E556
  8
0
 10
433.5072445184096068
 20
67.7106098206417641
 30
0.0
 40
20.504135028477851
 50
177.5942356010058063
 51
180.0003830799095113
  0
ARC
  5
E557
  8
0
 10
422.3239710879523727
 20
68.1804549568161207
 30
0.0
 40
9.31099609999319
 50
171.3075789229905865
 51
177.5942356010058063
  0
ARC
  5
E558
  8
0
 10
420.1861587961643068
 20
68.5072968073695705
 30
0.0
 40
7.1483433330901347
 50
167.8935035447078974
 51
171.3075789229905865
  0
LINE
  5
E559
  8
0
 10
404.5625281619135762
 20
76.5307674398280398
 30
0.0
 11
405.4371854062453053
 21
76.2964037376463438
 31
0.0
  0
ENDSEC
  0
EOF
