  0
SECTION
  2
HEADER
  9
$ACADVER
  1
AC1009
  9
$INSBASE
 10
3290.3961161517599976
 20
143.8636696307916907
 30
0.0
  9
$EXTMIN
 10
3287.4932320222360431
 20
140.18184471417959
 30
-0.0015258207003583
  9
$EXTMAX
 10
3293.2719561710059679
 20
147.5434850494567911
 30
0.0000000349246037
  9
$LIMMIN
 10
0.0
 20
0.0
  9
$LIMMAX
 10
11.6929133858000007
 20
8.2677165353999982
  9
$ORTHOMODE
 70
     0
  9
$REGENMODE
 70
     1
  9
$FILLMODE
 70
     1
  9
$QTEXTMODE
 70
     0
  9
$MIRRTEXT
 70
     0
  9
$DRAGMODE
 70
     2
  9
$LTSCALE
 40
0.6431102362
  9
$OSMODE
 70
  2039
  9
$ATTMODE
 70
     1
  9
$TEXTSIZE
 40
0.2
  9
$TRACEWID
 40
0.05
  9
$TEXTSTYLE
  7
STANDARD
  9
$CLAYER
  8
0
  9
$CELTYPE
  6
BYLAYER
  9
$CECOLOR
 62
   256
  9
$DIMSCALE
 40
1.0
  9
$DIMASZ
 40
0.1875
  9
$DIMEXO
 40
0.0625
  9
$DIMDLI
 40
0.4443307087
  9
$DIMRND
 40
0.0
  9
$DIMDLE
 40
0.0
  9
$DIMEXE
 40
0.125
  9
$DIMTP
 40
0.01
  9
$DIMTM
 40
0.01
  9
$DIMTXT
 40
2.0
  9
$DIMCEN
 40
0.1052362205
  9
$DIMTSZ
 40
0.0
  9
$DIMTOL
 70
     1
  9
$DIMLIM
 70
     0
  9
$DIMTIH
 70
     1
  9
$DIMTOH
 70
     1
  9
$DIMSE1
 70
     0
  9
$DIMSE2
 70
     0
  9
$DIMTAD
 70
     0
  9
$DIMZIN
 70
     0
  9
$DIMBLK
  1

  9
$DIMASO
 70
     1
  9
$DIMSHO
 70
     1
  9
$DIMPOST
  1
\X
  9
$DIMAPOST
  1

  9
$DIMALT
 70
     1
  9
$DIMALTD
 70
     2
  9
$DIMALTF
 40
25.3999999999999986
  9
$DIMLFAC
 40
1.0
  9
$DIMTOFL
 70
     0
  9
$DIMTVP
 40
0.0
  9
$DIMTIX
 70
     0
  9
$DIMSOXD
 70
     0
  9
$DIMSAH
 70
     0
  9
$DIMBLK1
  1

  9
$DIMBLK2
  1

  9
$DIMSTYLE
  2
STANDARD
  9
$DIMCLRD
 70
     0
  9
$DIMCLRE
 70
     0
  9
$DIMCLRT
 70
     0
  9
$DIMTFAC
 40
1.0
  9
$DIMGAP
 40
0.09
  9
$LUNITS
 70
     2
  9
$LUPREC
 70
     4
  9
$SKETCHINC
 40
0.1
  9
$FILLETRAD
 40
0.0
  9
$AUNITS
 70
     0
  9
$AUPREC
 70
     0
  9
$MENU
  1
.
  9
$ELEVATION
 40
0.0
  9
$PELEVATION
 40
0.0
  9
$THICKNESS
 40
0.0
  9
$LIMCHECK
 70
     0
  9
$BLIPMODE
 70
     0
  9
$CHAMFERA
 40
0.0
  9
$CHAMFERB
 40
0.0
  9
$SKPOLY
 70
     0
  9
$TDCREATE
 40
2458060.468368056230247
  9
$TDUPDATE
 40
2459208.4335069442167878
  9
$TDINDWG
 40
0.5958288194
  9
$TDUSRTIMER
 40
0.5958288194
  9
$USRTIMER
 70
     1
  9
$ANGBASE
 50
0.0
  9
$ANGDIR
 70
     0
  9
$PDMODE
 70
     0
  9
$PDSIZE
 40
0.3125
  9
$PLINEWID
 40
0.0
  9
$COORDS
 70
     1
  9
$SPLFRAME
 70
     0
  9
$SPLINETYPE
 70
     6
  9
$SPLINESEGS
 70
     8
  9
$ATTDIA
 70
     1
  9
$ATTREQ
 70
     1
  9
$HANDLING
 70
     1
  9
$HANDSEED
  5
23FB1
  9
$SURFTAB1
 70
     6
  9
$SURFTAB2
 70
     6
  9
$SURFTYPE
 70
     6
  9
$SURFU
 70
     6
  9
$SURFV
 70
     6
  9
$UCSNAME
  2

  9
$UCSORG
 10
0.0
 20
0.0
 30
0.0
  9
$UCSXDIR
 10
1.0
 20
0.0
 30
0.0
  9
$UCSYDIR
 10
0.0
 20
1.0
 30
0.0
  9
$PUCSNAME
  2

  9
$PUCSORG
 10
0.0
 20
0.0
 30
0.0
  9
$PUCSXDIR
 10
1.0
 20
0.0
 30
0.0
  9
$PUCSYDIR
 10
0.0
 20
1.0
 30
0.0
  9
$USERI1
 70
     0
  9
$USERI2
 70
     0
  9
$USERI3
 70
     0
  9
$USERI4
 70
     0
  9
$USERI5
 70
     0
  9
$USERR1
 40
0.0
  9
$USERR2
 40
0.0
  9
$USERR3
 40
0.0
  9
$USERR4
 40
0.0
  9
$USERR5
 40
0.0
  9
$WORLDVIEW
 70
     1
  9
$SHADEDGE
 70
     3
  9
$SHADEDIF
 70
    70
  9
$TILEMODE
 70
     1
  9
$MAXACTVP
 70
    64
  9
$PLIMCHECK
 70
     0
  9
$PEXTMIN
 10
1.0000000000000000E+20
 20
1.0000000000000000E+20
 30
1.0000000000000000E+20
  9
$PEXTMAX
 10
-1.0000000000000000E+20
 20
-1.0000000000000000E+20
 30
-1.0000000000000000E+20
  9
$PLIMMIN
 10
0.0
 20
0.0
  9
$PLIMMAX
 10
12.0
 20
9.0
  9
$UNITMODE
 70
     0
  9
$VISRETAIN
 70
     1
  9
$PLINEGEN
 70
     0
  9
$PSLTSCALE
 70
     1
  0
ENDSEC
  0
SECTION
  2
TABLES
  0
TABLE
  2
VPORT
 70
     1
  0
VPORT
  2
*ACTIVE
 70
     0
 10
0.0
 20
0.0
 11
1.0
 21
1.0
 12
-13.3105211377542201
 22
-51.3988466940694977
 13
0.0
 23
0.0
 14
1.0
 24
1.0
 15
0.0
 25
0.0
 16
0.0
 26
0.0
 36
96.5995694866707311
 17
3303.693115234375
 27
195.2615115758877096
 37
0.0
 40
7.4229022520756578
 41
2.6486111111111108
 42
50.0
 43
0.0
 44
0.0
 50
0.0
 51
0.0
 71
     0
 72
   100
 73
     1
 74
     1
 75
     0
 76
     0
 77
     0
 78
     0
  0
ENDTAB
  0
TABLE
  2
LTYPE
 70
     2
  0
LTYPE
  2
CONTINUOUS
 70
     0
  3
Solid line
 72
    65
 73
     0
 40
0.0
  0
LTYPE
  2
PHANTOM2
 70
     0
  3
___ _ _ ___ _ _ ___ _ _ ___ _ _
 72
    65
 73
     6
 40
1.25
 49
0.625
 49
-0.125
 49
0.125
 49
-0.125
 49
0.125
 49
-0.125
  0
ENDTAB
  0
TABLE
  2
LAYER
 70
     2
  0
LAYER
  2
0
 70
     0
 62
   255
  6
CONTINUOUS
  0
LAYER
  2
DEFPOINTS
 70
     0
 62
     7
  6
CONTINUOUS
  0
ENDTAB
  0
TABLE
  2
STYLE
 70
     1
  0
STYLE
  2
STANDARD
 70
     0
 40
0.0
 41
0.8
 50
0.0
 71
     0
 42
0.2
  3
txt
  4

  0
ENDTAB
  0
TABLE
  2
VIEW
 70
     0
  0
ENDTAB
  0
TABLE
  2
UCS
 70
     0
  0
ENDTAB
  0
TABLE
  2
APPID
 70
     9
  0
APPID
  2
ACAD
 70
     0
  0
APPID
  2
ACAD_MLEADERVER
 70
     0
  0
APPID
  2
ACAD_EXEMPT_FROM_CAD_STANDARDS
 70
     0
  0
APPID
  2
ACAD_NAV_VCDISPLAY
 70
     0
  0
APPID
  2
ACAECLAYERSTANDARD
 70
     0
  0
APPID
  2
ACCMTRANSPARENCY
 70
     0
  0
APPID
  2
ACAD_DSTYLE_DIMJAG
 70
     0
  0
APPID
  2
ACAD_DSTYLE_DIMTALN
 70
     0
  0
APPID
  2
ACDBATTR
 70
     0
  0
ENDTAB
  0
TABLE
  2
DIMSTYLE
 70
     1
  0
DIMSTYLE
  2
STANDARD
 70
     0
  3

  4

  5

  6

  7

 40
1.0
 41
0.1875
 42
0.0625
 43
0.38
 44
0.125
 45
0.0
 46
0.0
 47
0.01
 48
0.01
140
0.15625
141
0.09
142
0.0
143
25.3999999999999986
144
1.0
145
0.0
146
1.0
147
0.09
 71
     1
 72
     0
 73
     1
 74
     1
 75
     0
 76
     0
 77
     0
 78
     4
170
     0
171
     2
172
     0
173
     0
174
     0
175
     0
176
     0
177
     0
178
     0
  0
ENDTAB
  0
ENDSEC
  0
SECTION
  2
BLOCKS
  0
BLOCK
  8
0
  2
$MODEL_SPACE
 70
     0
 10
0.0
 20
0.0
 30
0.0
  3
$MODEL_SPACE
  1

  0
ENDBLK
  5
21
  8
0
  0
BLOCK
 67
     1
  8
0
  2
$PAPER_SPACE
 70
     0
 10
0.0
 20
0.0
 30
0.0
  3
$PAPER_SPACE
  1

  0
ENDBLK
  5
1D
 67
     1
  8
0
  0
BLOCK
  8
0
  2
_FILLED
 70
     0
 10
0.0
 20
0.0
 30
0.0
  3
_FILLED
  1

  0
SOLID
  5
211E5
  8
0
  6
BYBLOCK
 62
     0
 10
0.0
 20
0.0
 30
0.0
 11
-1.0
 21
0.1666666667
 31
0.0
 12
-1.0
 22
-0.1666666667
 32
0.0
 13
-1.0
 23
-0.1666666667
 33
0.0
  0
ENDBLK
  5
211E6
  8
0
  6
BYBLOCK
 62
     0
  0
BLOCK
  8
0
  2
A$C6A5A1766
 70
     0
 10
0.0
 20
0.0
 30
0.0
  3
A$C6A5A1766
  1

  0
LINE
  5
225FD
  8
0
 62
     1
 10
0.0
 20
-25.2550275006999989
 30
0.0
 11
0.0
 21
147.5081481452064054
 31
0.0
  0
ARC
  5
225FE
  8
0
 10
0.0007514126702155
 20
-15.4951705008879994
 30
0.0
 40
4.2598277055847502
 50
263.6334821151767756
 51
269.9898933060501918
  0
ARC
  5
225FF
  8
0
 10
0.16378411546152
 20
-14.5982637761653304
 30
0.0
 40
5.1696601838072933
 50
238.9132956189727963
 51
262.9399865581817153
  0
ARC
  5
22600
  8
0
 10
2.4437109048609331
 20
-11.2742819803077001
 30
0.0
 40
9.1965139174334194
 50
205.6458512969236097
 51
237.4414906274641908
  0
ARC
  5
22601
  8
0
 10
6.1755721462031223
 20
-9.1782573014519002
 30
0.0
 40
13.4707053666538599
 50
179.7458537556383931
 51
206.8128887147927912
  0
ARC
  5
22602
  8
0
 10
4.211241679829822
 20
-8.9489523315295827
 30
0.0
 40
11.5074915614249509
 50
160.6146186210216911
 51
180.8442361684070931
  0
ARC
  5
22603
  8
0
 10
-0.9874742528191076
 20
-7.2143050629720937
 30
0.0
 40
6.0284003249415283
 50
128.2310680002719039
 51
159.7662839135815886
  0
ARC
  5
22604
  8
0
 10
-1.2642676713132139
 20
-7.0563605443192321
 30
0.0
 40
5.7342913915603591
 50
115.0717129839378998
 51
127.0351083156741936
  0
ARC
  5
22605
  8
0
 10
-3.4680509060059328
 20
-2.3457527775090621
 30
0.0
 40
0.5336677676483504
 50
89.9089093879093753
 51
115.0708758176772051
  0
LINE
  5
22606
  8
0
 10
-3.4672024647500002
 20
-1.8120856843000011
 30
0.0
 11
-2.4850001854499988
 21
-1.8120857223999991
 31
0.0
  0
LINE
  5
22607
  8
0
 10
-3.5550001854499991
 20
-1.819215875638992
 30
0.0
 11
-3.5550001854499991
 21
-1.159976596199999
 31
0.0
  0
ARC
  5
22608
  8
0
 10
-3.5149961995514261
 20
-1.159976596200003
 30
0.0
 40
0.040003985898573
 50
90.0057088102859666
 51
180.000000000000199
  0
LINE
  5
22609
  8
0
 10
-3.515000185449999
 20
-1.119972610499999
 30
0.0
 11
-3.0550001877333561
 21
-1.1199267772335799
 31
0.0
  0
ARC
  5
2260A
  8
0
 10
-3.0550038063113112
 20
-1.1599304201794991
 30
0.0
 40
0.0400036431095813
 50
359.9395723098908206
 51
89.994817240911587
  0
LINE
  5
2260B
  8
0
 10
-3.015000185449999
 20
-1.1599755885999981
 30
0.0
 11
-3.015000185449999
 21
-1.812085720241164
 31
0.0
  0
LINE
  5
2260C
  8
0
 10
-2.9800001854499989
 20
-1.1190977238999971
 30
0.0
 11
-2.5200001854499989
 21
-1.1190977238999971
 31
0.0
  0
ARC
  5
2260D
  8
0
 10
-2.5200001854499989
 20
-1.149097723899998
 30
0.0
 40
0.0300000000000011
 50
0.0
 51
90.0000000000025437
  0
LINE
  5
2260E
  8
0
 10
-2.49000018545
 20
-1.149097723899998
 30
0.0
 11
-2.49000018545
 21
-1.7090977239000009
 31
0.0
  0
ARC
  5
2260F
  8
0
 10
-2.5200001854500012
 20
-1.7090977239000009
 30
0.0
 40
0.0300000000000011
 50
270.0000000000025011
 51
0.0
  0
LINE
  5
22610
  8
0
 10
-2.5200001854499989
 20
-1.7390977239000021
 30
0.0
 11
-2.9800001854499989
 21
-1.7390977239000021
 31
0.0
  0
ARC
  5
22611
  8
0
 10
-2.9800001854499989
 20
-1.7090977238995959
 30
0.0
 40
0.0300000000004062
 50
179.999702444694293
 51
270.0000000000032969
  0
LINE
  5
22612
  8
0
 10
-3.0100001854499991
 20
-1.709097568100002
 30
0.0
 11
-3.0099972771917258
 21
-1.149097723907551
 31
0.0
  0
ARC
  5
22613
  8
0
 10
-2.9799971212276861
 20
-1.1490978797079521
 30
0.0
 40
0.0300001559644443
 50
90.0058522031193604
 51
179.9997024446940941
  0
LINE
  5
22614
  8
0
 10
-1.945000185449999
 20
-1.8784013175647869
 30
0.0
 11
-1.945000185449999
 21
-1.129018158899999
 31
0.0
  0
ARC
  5
22615
  8
0
 10
-1.965000747257889
 20
-1.129018158899995
 30
0.0
 40
0.0200005618078896
 50
0.0000000000022391
 51
89.9983905841617826
  0
LINE
  5
22616
  8
0
 10
-1.9650001854500001
 20
-1.1090175970999989
 30
0.0
 11
-2.4650001854499979
 21
-1.1090175970999949
 31
0.0
  0
ARC
  5
22617
  8
0
 10
-2.4650246876477051
 20
-1.128993095422107
 30
0.0
 40
0.0199755133494576
 50
89.9297203108202012
 51
180.0714848932379937
  0
LINE
  5
22618
  8
0
 10
-2.4850001854499988
 20
-1.1290180177999991
 30
0.0
 11
-2.4850001854499988
 21
-2.0144830758659671
 31
0.0
  0
ARC
  5
22619
  8
0
 10
-3.373775348442666
 20
-1.330289539400823
 30
0.0
 40
0.3285613919179742
 50
39.8092645893339565
 51
48.6134506901705095
  0
ARC
  5
2261A
  8
0
 10
-2.7500001854064018
 20
-0.6181439618554557
 30
0.0
 40
0.6181439618554562
 50
311.1244747103380064
 51
228.8755252051039975
  0
ARC
  5
2261B
  8
0
 10
-2.129656253762541
 20
-1.3263957310919881
 30
0.0
 40
0.3233714890315127
 50
131.3865492252714944
 51
137.7610389694467017
  0
CIRCLE
  5
2261C
  8
0
 10
-2.7500001854499989
 20
-0.6180977239000001
 30
0.0
 40
0.4674999999999998
  0
ARC
  5
2261D
  8
0
 10
-3.3113041343833451
 20
-1.1228513185696789
 30
0.0
 40
0.2949729273094674
 50
3.854111666408008
 51
31.75856764660697
  0
ARC
  5
2261E
  8
0
 10
3.163974465041445
 20
-0.6866209962509835
 30
0.0
 40
6.1949831460610563
 50
183.854111666407988
 51
184.2771674870274126
  0
ARC
  5
2261F
  8
0
 10
-3.9208130986306911
 20
-1.240893731252722
 30
0.0
 40
0.911736064819591
 50
2.5748577988899108
 51
5.806690532982663
  0
LINE
  5
22620
  8
0
 10
-3.0099998338521718
 20
-1.6413956275284001
 30
0.0
 11
-3.015000185449999
 21
-1.6352812747999961
 31
0.0
  0
LINE
  5
22621
  8
0
 10
-2.4900001854499991
 20
-1.641395197599997
 30
0.0
 11
-2.4850001854499988
 21
-1.6352812747999961
 31
0.0
  0
ARC
  5
22622
  8
0
 10
-2.202770788610438
 20
-1.118260537608843
 30
0.0
 40
0.2806221502474049
 50
147.5336246418526116
 51
176.7104881020316896
  0
ARC
  5
22623
  8
0
 10
-1.793279314985126
 20
-1.162009268975374
 30
0.0
 40
0.6922434656980699
 50
175.0400292259297998
 51
176.909026727830593
  0
ARC
  5
22624
  8
0
 10
-21.0273950996353705
 20
0.4793439841418277
 30
0.0
 40
18.6124991159703583
 50
354.8511107839680108
 51
355.0255654811459181
  0
ARC
  5
22625
  8
0
 10
-0.0021813519000782
 20
-13.8819868221050307
 30
0.0
 40
12.7364350260036208
 50
89.9901870297407953
 51
92.0264435382613044
  0
ARC
  5
22626
  8
0
 10
-0.0656314430666001
 20
-12.0887434454669602
 30
0.0
 40
10.9420694774251306
 50
92.0264435382612049
 51
97.0747062190055772
  0
ARC
  5
22627
  8
0
 10
-0.4691008213902466
 20
-8.8377974777475359
 30
0.0
 40
7.66618223512328
 50
97.0747062190055345
 51
98.2092868063391506
  0
ARC
  5
22628
  8
0
 10
-1.519788763838152
 20
-1.58840805277941
 30
0.0
 40
0.3410831001269229
 50
97.4053039911428442
 51
179.1758473527644071
  0
ARC
  5
22629
  8
0
 10
-2.109667916683367
 20
-1.5631496149020589
 30
0.0
 40
0.2496622823346202
 50
325.2573492067683105
 51
355.3240735334123883
  0
ARC
  5
2262A
  8
0
 10
-2.1076935457729591
 20
-1.564203996891983
 30
0.0
 40
0.2474391543007623
 50
311.110136552817778
 51
325.1974296736959786
  0
ARC
  5
2262B
  8
0
 10
-0.01849095626502
 20
-12.0250043144986503
 30
0.0
 40
10.3329451370300802
 50
89.8974683108681205
 51
98.0219116156393255
  0
ARC
  5
2262C
  8
0
 10
-0.4541036132314043
 20
-8.9340367198073096
 30
0.0
 40
7.2114328339402238
 50
98.0219116156393255
 51
106.3570216516300064
  0
ARC
  5
2262D
  8
0
 10
-0.8849088191398939
 20
-7.4662220742212311
 30
0.0
 40
5.6817031325763399
 50
106.357021651629907
 51
133.3507360128436972
  0
ARC
  5
2262E
  8
0
 10
-0.7060748946898175
 20
-7.3209894883455533
 30
0.0
 40
5.7034866975173779
 50
135.6592555236636883
 51
162.6243455419194959
  0
ARC
  5
2262F
  8
0
 10
4.5794854655698209
 20
-8.8887594387803617
 30
0.0
 40
11.2163455600717104
 50
163.044382024269197
 51
181.769036624991486
  0
ARC
  5
22630
  8
0
 10
6.1827514242981492
 20
-9.0196714846503312
 30
0.0
 40
12.8160749790588806
 50
180.9627632968748117
 51
205.9920180546149879
  0
ARC
  5
22631
  8
0
 10
2.647407252088712
 20
-10.9187139796422308
 30
0.0
 40
8.8074755669054081
 50
204.9666288378184902
 51
234.166522871404112
  0
ARC
  5
22632
  8
0
 10
0.379280533551051
 20
-13.8230056055889108
 30
0.0
 40
5.126942585138166
 50
235.715137270833111
 51
252.7486923382915904
  0
ARC
  5
22633
  8
0
 10
0.0432641519762047
 20
-14.8095711299075408
 30
0.0
 40
4.0852075282589517
 50
253.1459009339712054
 51
264.8368403669741156
  0
ARC
  5
22634
  8
0
 10
0.1118354839242519
 20
-12.6138086373437606
 30
0.0
 40
6.2795630288532287
 50
266.0167555569977935
 51
268.9795404591355918
  0
ARC
  5
22635
  8
0
 10
-0.0007514126702155
 20
-15.4951705008879994
 30
0.0
 40
4.2598277055847502
 50
270.0101066939498082
 51
276.3665178848232244
  0
ARC
  5
22636
  8
0
 10
-0.16378411546152
 20
-14.5982637761653304
 30
0.0
 40
5.1696601838072933
 50
277.0600134418182279
 51
301.0867043810271753
  0
ARC
  5
22637
  8
0
 10
-2.4437109048609331
 20
-11.2742819803077001
 30
0.0
 40
9.1965139174334194
 50
302.5585093725355819
 51
334.3541487030764188
  0
ARC
  5
22638
  8
0
 10
-6.175547758940338
 20
-9.1758481321424163
 30
0.0
 40
13.4717704987862295
 50
333.1779198745397252
 51
0.2438797958337641
  0
ARC
  5
22639
  8
0
 10
-4.210141679829821
 20
-8.9489523315295791
 30
0.0
 40
11.5074915614249402
 50
359.1557638315927079
 51
19.3853813789782912
  0
ARC
  5
2263A
  8
0
 10
0.9870615825507167
 20
-7.2169527787351413
 30
0.0
 40
6.0307356802656251
 50
20.2523484032773595
 51
51.7814190209529812
  0
ARC
  5
2263B
  8
0
 10
1.2642676713132139
 20
-7.0563605443192321
 30
0.0
 40
5.7342913915603591
 50
52.964891684325778
 51
64.9282870160621002
  0
ARC
  5
2263C
  8
0
 10
3.4680509060059319
 20
-2.3457527775090621
 30
0.0
 40
0.5336677676483504
 50
64.9291241823227381
 51
90.0910906120905963
  0
LINE
  5
2263D
  8
0
 10
3.4672024647499988
 20
-1.8120856843000011
 30
0.0
 11
2.4850001854499979
 21
-1.8120857223999991
 31
0.0
  0
LINE
  5
2263E
  8
0
 10
3.5719998145499989
 20
-1.822306590552589
 30
0.0
 11
3.5719998145499989
 21
-1.159976596199999
 31
0.0
  0
ARC
  5
2263F
  8
0
 10
3.5319958286514268
 20
-1.159976596200003
 30
0.0
 40
0.040003985898573
 50
359.9999999999997726
 51
89.9942911897141045
  0
LINE
  5
22640
  8
0
 10
3.5319998145499998
 20
-1.119972610499999
 30
0.0
 11
3.0550001877333561
 21
-1.1199267772335799
 31
0.0
  0
ARC
  5
22641
  8
0
 10
3.0550038063113112
 20
-1.1599304201794991
 30
0.0
 40
0.0400036431095813
 50
90.005182759088413
 51
180.0604276901090941
  0
LINE
  5
22642
  8
0
 10
3.015000185449999
 20
-1.1599755885999981
 30
0.0
 11
3.015000185449999
 21
-1.812085720241164
 31
0.0
  0
LINE
  5
22643
  8
0
 10
2.9800001854499989
 20
-1.1190977238999971
 30
0.0
 11
2.520000185449998
 21
-1.1190977238999971
 31
0.0
  0
ARC
  5
22644
  8
0
 10
2.520000185449998
 20
-1.149097723899998
 30
0.0
 40
0.0300000000000011
 50
89.9999999999974563
 51
180.0
  0
LINE
  5
22645
  8
0
 10
2.4900001854499991
 20
-1.149097723899998
 30
0.0
 11
2.4900001854499991
 21
-1.7090977239000009
 31
0.0
  0
ARC
  5
22646
  8
0
 10
2.5200001854499998
 20
-1.7090977239000009
 30
0.0
 40
0.0300000000000011
 50
180.0
 51
269.9999999999973852
  0
LINE
  5
22647
  8
0
 10
2.520000185449998
 20
-1.7390977239000021
 30
0.0
 11
2.9800001854499989
 21
-1.7390977239000021
 31
0.0
  0
ARC
  5
22648
  8
0
 10
2.9800001854499989
 20
-1.7090977238995959
 30
0.0
 40
0.0300000000004062
 50
269.9999999999965894
 51
0.0002975553056421
  0
LINE
  5
22649
  8
0
 10
3.0100001854499991
 20
-1.709097568100002
 30
0.0
 11
3.0099972771917258
 21
-1.149097723907551
 31
0.0
  0
ARC
  5
2264A
  8
0
 10
2.979997121227687
 20
-1.1490978797079521
 30
0.0
 40
0.0300001559644443
 50
0.0002975553058456
 51
89.9941477968805685
  0
LINE
  5
2264B
  8
0
 10
1.945000185449999
 20
-1.8784013175647869
 30
0.0
 11
1.945000185449999
 21
-1.129018158899999
 31
0.0
  0
ARC
  5
2264C
  8
0
 10
1.9650007472578901
 20
-1.129018158899995
 30
0.0
 40
0.0200005618078896
 50
90.0016094158381748
 51
179.9999999999976978
  0
LINE
  5
2264D
  8
0
 10
1.965000185449999
 20
-1.1090175970999989
 30
0.0
 11
2.4650001854499992
 21
-1.1090175970999949
 31
0.0
  0
ARC
  5
2264E
  8
0
 10
2.465024687647706
 20
-1.128993095422107
 30
0.0
 40
0.0199755133494576
 50
359.9285151067618926
 51
90.0702796891798272
  0
LINE
  5
2264F
  8
0
 10
2.4850001854499979
 20
-1.1290180177999991
 30
0.0
 11
2.4850001854499979
 21
-2.0144830758659671
 31
0.0
  0
ARC
  5
22650
  8
0
 10
3.3737753484426669
 20
-1.330289539400823
 30
0.0
 40
0.3285613919179742
 50
131.3865493098294053
 51
140.190735410666008
  0
ARC
  5
22651
  8
0
 10
2.7500001854064018
 20
-0.6181439618554557
 30
0.0
 40
0.6181439618554562
 50
311.1244747948960025
 51
228.8755252896621073
  0
ARC
  5
22652
  8
0
 10
2.129656253762541
 20
-1.3263957310919881
 30
0.0
 40
0.3233714890315127
 50
42.2389610305532202
 51
48.6134507747285269
  0
CIRCLE
  5
22653
  8
0
 10
2.7500001854499989
 20
-0.6180977239000001
 30
0.0
 40
0.4674999999999998
  0
ARC
  5
22654
  8
0
 10
3.311304134383346
 20
-1.1228513185696789
 30
0.0
 40
0.2949729273094674
 50
148.2414323533930087
 51
176.145888333592012
  0
ARC
  5
22655
  8
0
 10
-3.163974465041445
 20
-0.6866209962509835
 30
0.0
 40
6.1949831460610563
 50
355.7228325129726159
 51
356.1458883335919836
  0
ARC
  5
22656
  8
0
 10
3.9208130986306911
 20
-1.240893731252722
 30
0.0
 40
0.911736064819591
 50
174.1933094670172864
 51
177.4251422011101056
  0
LINE
  5
22657
  8
0
 10
3.0099998338521701
 20
-1.641395627528385
 30
0.0
 11
3.015000185449999
 21
-1.6352812747999961
 31
0.0
  0
LINE
  5
22658
  8
0
 10
2.4900001854499991
 20
-1.641395197599997
 30
0.0
 11
2.4850001854499979
 21
-1.6352812747999961
 31
0.0
  0
ARC
  5
22659
  8
0
 10
2.2027707886104388
 20
-1.118260537608843
 30
0.0
 40
0.2806221502474049
 50
3.2895118979682381
 51
32.4663753581474026
  0
ARC
  5
2265A
  8
0
 10
1.793279314985126
 20
-1.162009268975374
 30
0.0
 40
0.6922434656980699
 50
3.0909732721694221
 51
4.9599707740702197
  0
ARC
  5
2265B
  8
0
 10
21.0273950996353705
 20
0.4793439841418277
 30
0.0
 40
18.6124991159703583
 50
184.9744345188539967
 51
185.1488892160321029
  0
ARC
  5
2265C
  8
0
 10
0.0021813519000782
 20
-13.8819868221050307
 30
0.0
 40
12.7364350260036208
 50
87.9735564617386387
 51
90.0098129702591336
  0
ARC
  5
2265D
  8
0
 10
0.0656314430666001
 20
-12.0887434454669602
 30
0.0
 40
10.9420694774251306
 50
82.9252937809943802
 51
87.9735564617387382
  0
ARC
  5
2265E
  8
0
 10
0.4691008213902466
 20
-8.8377974777475359
 30
0.0
 40
7.66618223512328
 50
81.7907131936609062
 51
82.9252937809944797
  0
ARC
  5
2265F
  8
0
 10
1.519788763838152
 20
-1.58840805277941
 30
0.0
 40
0.3410831001269229
 50
0.8241526472355655
 51
82.5946960088572268
  0
ARC
  5
22660
  8
0
 10
2.1096679166833678
 20
-1.5631496149020589
 30
0.0
 40
0.2496622823346202
 50
184.6759264665876117
 51
214.7426507932316895
  0
ARC
  5
22661
  8
0
 10
2.1076935457729591
 20
-1.564203996891983
 30
0.0
 40
0.2474391543007623
 50
214.8025703263039929
 51
228.8898634471819946
  0
ARC
  5
22662
  8
0
 10
0.01849095626502
 20
-12.0250043144986503
 30
0.0
 40
10.3329451370300802
 50
81.9780883843606745
 51
90.1025316891318226
  0
ARC
  5
22663
  8
0
 10
0.4541036132314043
 20
-8.9340367198073096
 30
0.0
 40
7.2114328339402238
 50
73.642978348370022
 51
81.9780883843606745
  0
ARC
  5
22664
  8
0
 10
0.8849088191398939
 20
-7.4662220742212311
 30
0.0
 40
5.6817031325763399
 50
46.6492639871562886
 51
73.642978348370022
  0
ARC
  5
22665
  8
0
 10
0.7060748946898175
 20
-7.3209894883455533
 30
0.0
 40
5.7034866975173779
 50
17.3756544580805112
 51
44.340744476336333
  0
ARC
  5
22666
  8
0
 10
-4.5793788009608862
 20
-8.8921545658432564
 30
0.0
 40
11.2172341350223697
 50
358.2484534894513786
 51
16.9723647827300006
  0
ARC
  5
22667
  8
0
 10
-6.1827769222302358
 20
-9.0170555469742482
 30
0.0
 40
12.8172445356809099
 50
333.9975208726543201
 51
359.0256290996035773
  0
ARC
  5
22668
  8
0
 10
-2.647407252088712
 20
-10.9187139796422308
 30
0.0
 40
8.8074755669054081
 50
305.8334771285959164
 51
335.0333711621814246
  0
ARC
  5
22669
  8
0
 10
-0.379280533551051
 20
-13.8230056055889108
 30
0.0
 40
5.126942585138166
 50
287.2513076617083811
 51
304.284862729166889
  0
ARC
  5
2266A
  8
0
 10
-0.0432641519762047
 20
-14.8095711299075408
 30
0.0
 40
4.0852075282589517
 50
275.1631596330258844
 51
286.854099066028823
  0
ARC
  5
2266B
  8
0
 10
-0.1118354839242519
 20
-12.6138086373437606
 30
0.0
 40
6.2795630288532287
 50
271.0204595408644082
 51
273.9832444430020928
  0
LINE
  5
2266C
  8
0
 62
     1
 10
-0.5105107681376745
 20
0.0
 30
0.0
 11
3292.1509827748286625
 21
0.0
 31
0.0
  0
ENDBLK
  5
22670
  8
0
  0
ENDSEC
  0
SECTION
  2
ENTITIES
  0
ATTDEF
  5
21AFD
  8
DEFPOINTS
 10
3290.396411608201106
 20
143.8677928667758863
 30
0.0
 40
0.001
  1
K-99472T-4
  3

  2
MODELNUMBER
 70
     0
1001
ACDBATTR
1070
     0
1070
     1
  0
ATTDEF
  5
21AFE
  8
DEFPOINTS
 10
3290.396411608201106
 20
143.8661262001093064
 30
0.0
 40
0.001
  1
KUMIN
  3

  2
TRADENAME
 70
     0
1001
ACDBATTR
1070
     0
1070
     1
  0
ATTDEF
  5
21AFF
  8
DEFPOINTS
 10
3290.396411608201106
 20
143.8644595334426128
 30
0.0
 40
0.001
  1
VALVE TRIM
  3

  2
PRODUCT
 70
     0
1001
ACDBATTR
1070
     0
1070
     1
  0
ARC
  5
23D74
  8
0
 10
3290.3966315129600844
 20
144.7405474130503933
 30
0.0
 40
2.7984348079248358
 50
90.0105516203940255
 51
98.9781448227676179
  0
ARC
  5
23D75
  8
0
 10
3290.3923965663138915
 20
144.7673519839750895
 30
0.0
 40
2.7712977521606619
 50
98.9781448227676179
 51
146.0305100568305932
  0
ARC
  5
23D76
  8
0
 10
3290.320777936705781
 20
142.8707637035508071
 30
0.0
 40
2.6644836237870071
 50
206.5716602793825984
 51
236.2853186512710124
  0
ARC
  5
23D77
  8
0
 10
3290.3934324111892238
 20
142.9761762846665931
 30
0.0
 40
2.7924951462400762
 50
236.245825934284909
 51
262.4151289902421809
  0
ARC
  5
23D78
  8
0
 10
3290.3965253205660701
 20
142.9782706410481126
 30
0.0
 40
2.794980817323705
 50
262.3579475254722979
 51
266.5493522276751719
  0
ARC
  5
23D79
  8
0
 10
3290.2239287515490105
 20
140.2121921795609012
 30
0.0
 40
0.0242324078331929
 50
280.389693628798625
 51
285.4064761784953816
  0
ARC
  5
23D7A
  8
0
 10
3290.2317317880888368
 20
140.1838759357638082
 30
0.0
 40
0.0051392969525068
 50
85.4334291016078566
 51
105.4064761784953959
  0
ARC
  5
23D7B
  8
0
 10
3290.2330608885649781
 20
140.2005165471099133
 30
0.0
 40
0.0115543082317208
 50
265.4334291016078851
 51
280.0553422355254156
  0
ARC
  5
23D7C
  8
0
 10
3290.2418977292418276
 20
140.1639360832828061
 30
0.0
 40
0.0261099277302664
 50
100.677488750532703
 51
105.1402619041654987
  0
ARC
  5
23D7D
  8
0
 10
3290.5060810512532044
 20
146.0907011724046924
 30
0.0
 40
5.9072361486690941
 50
267.389794566330977
 51
268.1814926777776122
  0
ARC
  5
23D7E
  8
0
 10
3290.3962121023068903
 20
142.9687900616204104
 30
0.0
 40
2.7834315483115182
 50
268.4026560450769807
 51
269.9980248979774728
  0
ARC
  5
23D7F
  8
0
 10
3338.8565491308308992
 20
145.230995270503513
 30
0.0
 40
49.4165819632456831
 50
180.7275756461791048
 51
181.8770931460707914
  0
ARC
  5
23D80
  8
0
 10
3256.397997824426966
 20
142.6419829210126977
 30
0.0
 40
33.0827201836862983
 50
0.5144551038783184
 51
1.6807955015616789
  0
ARC
  5
23D81
  8
0
 10
3360.1011351740221471
 20
143.5731517178899992
 30
0.0
 40
70.6245976462391241
 50
180.514455103878305
 51
180.7404826671522073
  0
ARC
  5
23D82
  8
0
 10
3290.3797899766009323
 20
142.6462408896130114
 30
0.0
 40
0.8974666998796088
 50
179.0938073625920879
 51
205.0045507597687049
  0
ARC
  5
23D83
  8
0
 10
3290.4145747353459228
 20
142.6884506026264887
 30
0.0
 40
0.947125700821185
 50
206.429364175069793
 51
268.8832887800803064
  0
ARC
  5
23D84
  8
0
 10
3299.3863064312699862
 20
145.217669276555597
 30
0.0
 40
9.9613034064999724
 50
181.9233581712221905
 51
183.5348950536609891
  0
ARC
  5
23D85
  8
0
 10
3290.4110536736488939
 20
144.8959189967528118
 30
0.0
 40
0.9805192810343916
 50
90.8728946852149306
 51
180.7349604127560951
  0
ARC
  5
23D86
  8
0
 10
3290.3951307723491482
 20
144.9125914771761074
 30
0.0
 40
1.034308531183336
 50
89.9454146530826222
 51
203.321589295569396
  0
ARC
  5
23D87
  8
0
 10
3290.3996250479640366
 20
144.9091218278913118
 30
0.0
 40
0.9981096498036226
 50
90.2014261232680639
 51
196.4983762437265113
  0
ARC
  5
23D89
  8
0
 10
3290.3956007905608203
 20
144.7405474130503933
 30
0.0
 40
2.7984348079248358
 50
81.0218551772323679
 51
89.9894483796059745
  0
ARC
  5
23D8A
  8
0
 10
3290.3998357372061037
 20
144.7673519839750895
 30
0.0
 40
2.7712977521606619
 50
33.9694899431693571
 51
81.0218551772323679
  0
ARC
  5
23D8B
  8
0
 10
3290.3072159936768912
 20
144.7918495315921916
 30
0.0
 40
2.8353385843177978
 50
3.130284169037147
 51
32.5130000578787914
  0
ARC
  5
23D8C
  8
0
 10
3185.6491889387898482
 20
141.1170144452713089
 30
0.0
 40
107.5573358676691953
 50
1.463301948640056
 51
2.0404924458713092
  0
ARC
  5
23D8D
  8
0
 10
3221.9899568532941885
 20
144.9221155411784139
 30
0.0
 40
71.1893609734291175
 50
358.4097292700782873
 51
359.1480929561371909
  0
ARC
  5
23D8E
  8
0
 10
3289.8878197635949618
 20
143.0436053136808141
 30
0.0
 40
3.265523734998665
 50
335.2970073175314951
 51
358.2955459563099794
  0
ARC
  5
23D8F
  8
0
 10
3290.4714543668142142
 20
142.8707637035508071
 30
0.0
 40
2.6644836237870071
 50
303.714681348729016
 51
333.4283397206173731
  0
ARC
  5
23D90
  8
0
 10
3290.3987998923321356
 20
142.9761762846665931
 30
0.0
 40
2.7924951462400762
 50
277.5848710097577055
 51
303.7541740657151195
  0
ARC
  5
23D91
  8
0
 10
3290.3957069829548345
 20
142.9782706410481126
 30
0.0
 40
2.794980817323705
 50
273.4506477723248281
 51
277.6420524745275884
  0
ARC
  5
23D92
  8
0
 10
3290.5683035519709847
 20
140.2121921795609012
 30
0.0
 40
0.0242324078331929
 50
254.5935238215045899
 51
259.610306371201375
  0
ARC
  5
23D93
  8
0
 10
3290.5605005154311584
 20
140.1838759357638082
 30
0.0
 40
0.0051392969525068
 50
74.5935238215046184
 51
94.5665708983921434
  0
ARC
  5
23D94
  8
0
 10
3290.5591714149559266
 20
140.2005165471099133
 30
0.0
 40
0.0115543082317208
 50
259.9446577644746981
 51
274.5665708983921149
  0
ARC
  5
23D95
  8
0
 10
3290.5503345742790771
 20
140.1639360832828061
 30
0.0
 40
0.0261099277302664
 50
74.8597380958345155
 51
79.3225112494672402
  0
ARC
  5
23D96
  8
0
 10
3290.2861512522681551
 20
146.0907011724046924
 30
0.0
 40
5.9072361486690941
 50
271.8185073222223878
 51
272.610205433669023
  0
ARC
  5
23D97
  8
0
 10
3290.3960202012140144
 20
142.9687900616204104
 30
0.0
 40
2.7834315483115182
 50
270.0019751020225272
 51
271.5973439549230761
  0
ARC
  5
23D98
  8
0
 10
3241.935683172689096
 20
145.230995270503513
 30
0.0
 40
49.4165819632456831
 50
358.1229068539291234
 51
359.2724243538207816
  0
ARC
  5
23D99
  8
0
 10
3324.3942344790930292
 20
142.6419829210126977
 30
0.0
 40
33.0827201836862983
 50
178.319204498438296
 51
179.485544896121695
  0
ARC
  5
23D9A
  8
0
 10
3220.6910971294978481
 20
143.5731517178899992
 30
0.0
 40
70.6245976462391241
 50
359.259517332847679
 51
359.4855448961217235
  0
ARC
  5
23D9B
  8
0
 10
3290.4124423269199724
 20
142.6462408896130114
 30
0.0
 40
0.8974666998796088
 50
334.9954492402297888
 51
0.9061926374078172
  0
ARC
  5
23D9C
  8
0
 10
3290.3776575681749819
 20
142.6884506026264887
 30
0.0
 40
0.947125700821185
 50
271.1167112199198073
 51
333.5706358249300933
  0
ARC
  5
23D9D
  8
0
 10
3281.4059258722509185
 20
145.217669276555597
 30
0.0
 40
9.9613034064999724
 50
356.4651049463388972
 51
358.0766418287777242
  0
ARC
  5
23D9E
  8
0
 10
3290.3811786298711013
 20
144.8959189967528118
 30
0.0
 40
0.9805192810343916
 50
359.2650395872439049
 51
89.1271053147850836
  0
ARC
  5
23D9F
  8
0
 10
3290.397101531170847
 20
144.9125914771761074
 30
0.0
 40
1.034308531183336
 50
336.6784107044305756
 51
90.0545853469173778
  0
ARC
  5
23DA0
  8
0
 10
3290.392607255556868
 20
144.9091218278913118
 30
0.0
 40
0.9981096498036226
 50
343.501623756273375
 51
89.7985738767319219
  0
ARC
  5
23DA1
  8
0
 10
3290.485016309843104
 20
144.7918495315921916
 30
0.0
 40
2.8353385843177978
 50
147.4869999421212015
 51
176.8697158309628037
  0
ARC
  5
23DA2
  8
0
 10
3395.143043364730147
 20
141.1170144452713089
 30
0.0
 40
107.5573358676691953
 50
177.9595075541286917
 51
178.536698051359906
  0
ARC
  5
23DA3
  8
0
 10
3358.8022754502258067
 20
144.9221155411784139
 30
0.0
 40
71.1893609734291175
 50
180.8519070438628091
 51
181.590270729921599
  0
ARC
  5
23DA4
  8
0
 10
3290.9044125399250333
 20
143.0436053136808141
 30
0.0
 40
3.265523734998665
 50
181.7044540436899922
 51
204.7029926824683912
  0
ENDSEC
  0
EOF
