  0
SECTION
  2
HEADER
  9
$ACADVER
  1
AC1009
  9
$INSBASE
 10
957.9926575539636815
 20
139.0779757044147118
 30
0.0
  9
$EXTMIN
 10
957.0933096838798519
 20
139.0736918067937893
 30
-0.0015258207003583
  9
$EXTMAX
 10
958.9126562335386552
 20
149.4880386534456136
 30
0.0000000349246037
  9
$LIMMIN
 10
0.0
 20
0.0
  9
$LIMMAX
 10
11.6929133858000007
 20
8.2677165353999982
  9
$ORTHOMODE
 70
     0
  9
$REGENMODE
 70
     1
  9
$FILLMODE
 70
     1
  9
$QTEXTMODE
 70
     0
  9
$MIRRTEXT
 70
     0
  9
$DRAGMODE
 70
     2
  9
$LTSCALE
 40
0.6431102362
  9
$OSMODE
 70
  4095
  9
$ATTMODE
 70
     1
  9
$TEXTSIZE
 40
0.2
  9
$TRACEWID
 40
0.05
  9
$TEXTSTYLE
  7
STANDARD
  9
$CLAYER
  8
0
  9
$CELTYPE
  6
BYLAYER
  9
$CECOLOR
 62
   256
  9
$DIMSCALE
 40
1.0
  9
$DIMASZ
 40
0.1875
  9
$DIMEXO
 40
0.0625
  9
$DIMDLI
 40
0.4443307087
  9
$DIMRND
 40
0.0
  9
$DIMDLE
 40
0.0
  9
$DIMEXE
 40
0.125
  9
$DIMTP
 40
0.01
  9
$DIMTM
 40
0.01
  9
$DIMTXT
 40
1.0
  9
$DIMCEN
 40
0.1052362205
  9
$DIMTSZ
 40
0.0
  9
$DIMTOL
 70
     1
  9
$DIMLIM
 70
     0
  9
$DIMTIH
 70
     0
  9
$DIMTOH
 70
     1
  9
$DIMSE1
 70
     0
  9
$DIMSE2
 70
     0
  9
$DIMTAD
 70
     0
  9
$DIMZIN
 70
     0
  9
$DIMBLK
  1

  9
$DIMASO
 70
     1
  9
$DIMSHO
 70
     1
  9
$DIMPOST
  1
\X
  9
$DIMAPOST
  1

  9
$DIMALT
 70
     1
  9
$DIMALTD
 70
     2
  9
$DIMALTF
 40
25.3999999999999986
  9
$DIMLFAC
 40
1.0
  9
$DIMTOFL
 70
     0
  9
$DIMTVP
 40
0.0
  9
$DIMTIX
 70
     0
  9
$DIMSOXD
 70
     0
  9
$DIMSAH
 70
     0
  9
$DIMBLK1
  1

  9
$DIMBLK2
  1

  9
$DIMSTYLE
  2
STANDARD
  9
$DIMCLRD
 70
     0
  9
$DIMCLRE
 70
     0
  9
$DIMCLRT
 70
     0
  9
$DIMTFAC
 40
1.0
  9
$DIMGAP
 40
0.09
  9
$LUNITS
 70
     2
  9
$LUPREC
 70
     4
  9
$SKETCHINC
 40
0.1
  9
$FILLETRAD
 40
0.0
  9
$AUNITS
 70
     0
  9
$AUPREC
 70
     0
  9
$MENU
  1
.
  9
$ELEVATION
 40
0.0
  9
$PELEVATION
 40
0.0
  9
$THICKNESS
 40
0.0
  9
$LIMCHECK
 70
     0
  9
$BLIPMODE
 70
     0
  9
$CHAMFERA
 40
0.0
  9
$CHAMFERB
 40
0.0
  9
$SKPOLY
 70
     0
  9
$TDCREATE
 40
2458172.5207638889551163
  9
$TDUPDATE
 40
2459152.9113773149438202
  9
$TDINDWG
 40
0.4451974769
  9
$TDUSRTIMER
 40
0.4451974769
  9
$USRTIMER
 70
     1
  9
$ANGBASE
 50
0.0
  9
$ANGDIR
 70
     0
  9
$PDMODE
 70
     0
  9
$PDSIZE
 40
0.3125
  9
$PLINEWID
 40
0.0
  9
$COORDS
 70
     1
  9
$SPLFRAME
 70
     0
  9
$SPLINETYPE
 70
     6
  9
$SPLINESEGS
 70
     8
  9
$ATTDIA
 70
     1
  9
$ATTREQ
 70
     1
  9
$HANDLING
 70
     1
  9
$HANDSEED
  5
C386
  9
$SURFTAB1
 70
     6
  9
$SURFTAB2
 70
     6
  9
$SURFTYPE
 70
     6
  9
$SURFU
 70
     6
  9
$SURFV
 70
     6
  9
$UCSNAME
  2

  9
$UCSORG
 10
0.0
 20
0.0
 30
0.0
  9
$UCSXDIR
 10
1.0
 20
0.0
 30
0.0
  9
$UCSYDIR
 10
0.0
 20
1.0
 30
0.0
  9
$PUCSNAME
  2

  9
$PUCSORG
 10
0.0
 20
0.0
 30
0.0
  9
$PUCSXDIR
 10
1.0
 20
0.0
 30
0.0
  9
$PUCSYDIR
 10
0.0
 20
1.0
 30
0.0
  9
$USERI1
 70
     0
  9
$USERI2
 70
     0
  9
$USERI3
 70
     0
  9
$USERI4
 70
     0
  9
$USERI5
 70
     0
  9
$USERR1
 40
0.0
  9
$USERR2
 40
0.0
  9
$USERR3
 40
0.0
  9
$USERR4
 40
0.0
  9
$USERR5
 40
0.0
  9
$WORLDVIEW
 70
     1
  9
$SHADEDGE
 70
     3
  9
$SHADEDIF
 70
    70
  9
$TILEMODE
 70
     1
  9
$MAXACTVP
 70
    64
  9
$PLIMCHECK
 70
     0
  9
$PEXTMIN
 10
1.0000000000000000E+20
 20
1.0000000000000000E+20
 30
1.0000000000000000E+20
  9
$PEXTMAX
 10
-1.0000000000000000E+20
 20
-1.0000000000000000E+20
 30
-1.0000000000000000E+20
  9
$PLIMMIN
 10
0.0
 20
0.0
  9
$PLIMMAX
 10
12.0
 20
9.0
  9
$UNITMODE
 70
     0
  9
$VISRETAIN
 70
     1
  9
$PLINEGEN
 70
     0
  9
$PSLTSCALE
 70
     1
  0
ENDSEC
  0
SECTION
  2
TABLES
  0
TABLE
  2
VPORT
 70
     1
  0
VPORT
  2
*ACTIVE
 70
     0
 10
0.0
 20
0.0
 11
1.0
 21
1.0
 12
491.2607812508791767
 22
55.1477181101899205
 13
0.0
 23
0.0
 14
1.0
 24
1.0
 15
0.0
 25
0.0
 16
0.0
 26
0.0
 36
24.1179433675886514
 17
466.74220170783002
 27
89.133147119929788
 37
0.0
 40
10.5470136854626109
 41
2.887234042553191
 42
50.0
 43
0.0
 44
0.0
 50
0.0
 51
0.0
 71
     0
 72
   100
 73
     1
 74
     1
 75
     0
 76
     0
 77
     0
 78
     0
  0
ENDTAB
  0
TABLE
  2
LTYPE
 70
     2
  0
LTYPE
  2
CONTINUOUS
 70
     0
  3
Solid line
 72
    65
 73
     0
 40
0.0
  0
LTYPE
  2
PHANTOM2
 70
     0
  3
___ _ _ ___ _ _ ___ _ _ ___ _ _
 72
    65
 73
     6
 40
1.25
 49
0.625
 49
-0.125
 49
0.125
 49
-0.125
 49
0.125
 49
-0.125
  0
ENDTAB
  0
TABLE
  2
LAYER
 70
     2
  0
LAYER
  2
0
 70
     0
 62
   255
  6
CONTINUOUS
  0
LAYER
  2
DEFPOINTS
 70
     0
 62
     7
  6
CONTINUOUS
  0
ENDTAB
  0
TABLE
  2
STYLE
 70
     1
  0
STYLE
  2
STANDARD
 70
     0
 40
0.0
 41
0.8
 50
0.0
 71
     0
 42
0.2
  3
txt
  4

  0
ENDTAB
  0
TABLE
  2
VIEW
 70
     0
  0
ENDTAB
  0
TABLE
  2
UCS
 70
     0
  0
ENDTAB
  0
TABLE
  2
APPID
 70
    11
  0
APPID
  2
ACAD
 70
     0
  0
APPID
  2
ACAD_MLEADERVER
 70
     0
  0
APPID
  2
ACAD_EXEMPT_FROM_CAD_STANDARDS
 70
     0
  0
APPID
  2
ACAD_DSTYLE_DIMJAG
 70
     0
  0
APPID
  2
ACAD_DSTYLE_DIMTALN
 70
     0
  0
APPID
  2
ACAD_NAV_VCDISPLAY
 70
     0
  0
APPID
  2
ACAECLAYERSTANDARD
 70
     0
  0
APPID
  2
ACCMTRANSPARENCY
 70
     0
  0
APPID
  2
DCO15
 70
     0
  0
APPID
  2
ACDBATTR
 70
     0
  0
APPID
  2
ACADANNOTATIVE
 70
     0
  0
ENDTAB
  0
TABLE
  2
DIMSTYLE
 70
     1
  0
DIMSTYLE
  2
STANDARD
 70
     0
  3

  4

  5

  6

  7

 40
1.0
 41
0.1875
 42
0.0625
 43
0.38
 44
0.125
 45
0.0
 46
0.0
 47
0.01
 48
0.01
140
0.15625
141
0.09
142
0.0
143
25.3999999999999986
144
1.0
145
0.0
146
1.0
147
0.09
 71
     1
 72
     0
 73
     1
 74
     1
 75
     0
 76
     0
 77
     0
 78
     4
170
     0
171
     2
172
     0
173
     0
174
     0
175
     0
176
     0
177
     0
178
     0
  0
ENDTAB
  0
ENDSEC
  0
SECTION
  2
BLOCKS
  0
BLOCK
  8
0
  2
$MODEL_SPACE
 70
     0
 10
0.0
 20
0.0
 30
0.0
  3
$MODEL_SPACE
  1

  0
ENDBLK
  5
21
  8
0
  0
BLOCK
 67
     1
  8
0
  2
$PAPER_SPACE
 70
     0
 10
0.0
 20
0.0
 30
0.0
  3
$PAPER_SPACE
  1

  0
ENDBLK
  5
1D
 67
     1
  8
0
  0
ENDSEC
  0
SECTION
  2
ENTITIES
  0
ATTDEF
  5
829
  8
DEFPOINTS
 10
957.9900175410383554
 20
139.083143804407996
 30
0.0
 40
0.001
  1
K-99453IN-4
  3

  2
MODELNUMBER
 70
     0
1001
ACDBATTR
1070
     0
1070
     1
  0
ATTDEF
  5
82A
  8
DEFPOINTS
 10
957.9900175410383554
 20
139.0814771377413877
 30
0.0
 40
0.001
  1
 KUMIN
  3

  2
TRADENAME
 70
     0
1001
ACDBATTR
1070
     0
1070
     1
  0
ATTDEF
  5
82B
  8
DEFPOINTS
 10
957.9900175410383554
 20
139.0798104710746941
 30
0.0
 40
0.001
  1
BATHROOM SINK FAUCET
  3

  2
PRODUCT
 70
     0
1001
ACDBATTR
1070
     0
1070
     1
  0
LINE
  5
BF04
  8
0
 10
958.8805519441636989
 20
139.0779757044147118
 30
0.0
 11
957.1047631637635504
 21
139.0779757044147971
 31
0.0
  0
LINE
  5
BF05
  8
0
 10
958.8587875825514857
 20
139.2157709799147085
 30
0.0
 11
957.1265275252757192
 21
139.2157709799147938
 31
0.0
  0
LINE
  5
BF06
  8
0
 10
958.8784845821459157
 20
139.1964147923295059
 30
0.0
 11
958.8805519441636989
 21
139.0779757044147118
 31
0.0
  0
ARC
  5
BF07
  8
0
 10
958.8587875825514857
 20
139.1960709799147082
 30
0.0
 40
0.0197
 50
1.0000000233018951
 51
90.0
  0
LINE
  5
BF08
  8
0
 10
958.5748929340583118
 20
148.4926540939146946
 30
0.0
 11
957.4104221738692786
 21
148.4926540939148083
 31
0.0
  0
LINE
  5
BF09
  8
0
 10
958.5941059933621773
 20
148.535961180514704
 30
0.0
 11
957.3912091145654131
 21
148.535961180514704
 31
0.0
  0
LINE
  5
BF0A
  8
0
 10
958.0063331443636798
 20
149.4872360438367878
 30
0.0
 11
957.9789819635641379
 21
149.4872360438367878
 31
0.0
  0
LINE
  5
BF0B
  8
0
 10
958.3864666262709306
 20
149.1717504278043123
 30
0.0
 11
957.5868084517851457
 21
149.1717504278043123
 31
0.0
  0
LINE
  5
BF0C
  8
0
 10
957.1068305256811755
 20
139.1964147923129929
 30
0.0
 11
957.1047631637635504
 21
139.0779757044147971
 31
0.0
  0
ARC
  5
BF0D
  8
0
 10
957.1265275252757192
 20
139.1960709799147935
 30
0.0
 40
0.0197
 50
90.0
 51
179.0000000250539927
  0
LINE
  5
BF0E
  8
0
 10
957.3036804854617685
 20
139.2157709799147085
 30
0.0
 11
957.3036804854617685
 21
146.8801497975890129
 31
0.0
  0
ARC
  5
BF0F
  8
0
 10
925.7372113865479832
 20
146.6674702203087861
 30
0.0
 40
31.5671855567655584
 50
0.3860253659719045
 51
1.2455158995341311
  0
ARC
  5
BF10
  8
0
 10
957.4369522416766358
 20
147.3525902506937939
 30
0.0
 40
0.1400175325649594
 50
164.4448946584645057
 51
179.5725583356712889
  0
ARC
  5
BF11
  8
0
 10
954.6306233051601566
 20
148.0503387982290064
 30
0.0
 40
2.751809545037649
 50
346.1184687807581781
 51
356.3289786749883206
  0
ARC
  5
BF12
  8
0
 10
1046.8062726360010402
 20
144.7653395207595111
 30
0.0
 40
89.4835050515416128
 50
177.7669264841335064
 51
178.0090475439195927
  0
LINE
  5
BF13
  8
0
 10
957.3907221738693352
 20
148.2520301957551112
 30
0.0
 11
957.3907221738693352
 21
148.472954093914808
 31
0.0
  0
ARC
  5
BF14
  8
0
 10
957.4104221738692786
 20
148.472954093914808
 30
0.0
 40
0.0197
 50
89.9999999999869686
 51
180.0000000000104876
  0
LINE
  5
BF15
  8
0
 10
957.3912091145654131
 20
148.535961180514704
 30
0.0
 11
957.3912091145654131
 21
149.0366711385663052
 31
0.0
  0
LINE
  5
BF16
  8
0
 10
957.4710040106637052
 20
148.4926540939148083
 30
0.0
 11
957.4710040106637052
 21
148.535961180514704
 31
0.0
  0
ARC
  5
BF17
  8
0
 10
951.083857208217637
 20
149.0393399165965889
 30
0.0
 40
6.307352470956773
 50
359.9757569086345939
 51
1.2585071538141881
  0
ARC
  5
BF18
  8
0
 10
953.0016312396836611
 20
149.0814707782760138
 30
0.0
 40
4.3891157167286341
 50
1.2585071538141881
 51
2.3488488570598229
  0
ARC
  5
BF19
  8
0
 10
957.4269604697533396
 20
149.2647194501668935
 30
0.0
 40
0.0400429513712445
 50
166.2333579229577936
 51
184.8228577196161098
  0
ARC
  5
BF1A
  8
0
 10
957.4382776184804698
 20
149.2581470490434867
 30
0.0
 40
0.0527283210338616
 50
139.3746950793021142
 51
162.2199221288036028
  0
ARC
  5
BF1B
  8
0
 10
957.4985089325857643
 20
149.2103418195075903
 30
0.0
 40
0.1296025622181207
 50
135.7764172093804973
 51
140.6717977953873913
  0
ARC
  5
BF1C
  8
0
 10
957.7241645672927461
 20
149.0024464318078969
 30
0.0
 40
0.4363923682762247
 50
128.8960004865591884
 51
136.8797591298273062
  0
ARC
  5
BF1D
  8
0
 10
957.7821148712386048
 20
148.9246193386248933
 30
0.0
 40
0.5333649816588244
 50
112.6653252145913058
 51
128.4914043327111983
  0
ARC
  5
BF1E
  8
0
 10
957.8803743474807106
 20
148.6889290778206885
 30
0.0
 40
0.7887173032799791
 50
101.0977623715621974
 51
112.6543087234202005
  0
ARC
  5
BF1F
  8
0
 10
957.9657608075539201
 20
148.2800568560230943
 30
0.0
 40
1.2063899175658519
 50
92.8733761917412153
 51
101.3394358012513976
  0
ARC
  5
BF20
  8
0
 10
957.9950073657421399
 20
147.7963266710920038
 30
0.0
 40
1.6909853105071531
 50
90.5429980076232539
 51
93.0414685689613208
  0
ARC
  5
BF21
  8
0
 10
957.5928284667205617
 20
149.424454647505911
 30
0.0
 40
0.2527759150607364
 50
244.0986665389399093
 51
268.6353365104441764
  0
ARC
  5
BF22
  8
0
 10
957.6535439319170564
 20
149.4582696757647966
 30
0.0
 40
0.3122685869483785
 50
223.1004936467874131
 51
236.7677747672236137
  0
ARC
  5
BF23
  8
0
 10
957.381808369466853
 20
149.1943744915369905
 30
0.0
 40
0.0668242318740103
 50
49.1248305229571471
 51
73.8901010310850239
  0
ARC
  5
BF24
  8
0
 10
957.3867511301909872
 20
149.2266947575683957
 30
0.0
 40
0.0346594362507287
 50
66.8973278977067167
 51
89.4905644032884453
  0
CIRCLE
  5
BF25
  8
0
 10
957.9926575539636815
 20
148.8312367711147033
 30
0.0
 40
0.1259842520000003
  0
CIRCLE
  5
BF26
  8
0
 10
957.9926575539636815
 20
148.8312367711147033
 30
0.0
 40
0.0826771654000003
  0
LINE
  5
BF27
  8
0
 10
957.9138451016636964
 20
148.8562189856089901
 30
0.0
 11
957.9138451016636964
 21
148.806254556620388
 31
0.0
  0
LINE
  5
BF28
  8
0
 10
957.308229843498907
 20
147.3507685593147016
 30
0.0
 11
958.677085264428797
 21
147.3507685593147016
 31
0.0
  0
ARC
  5
BF29
  8
0
 10
957.9921532889128457
 20
147.7275814385575075
 30
0.0
 40
0.8562386610313087
 50
264.2696129256913764
 51
270.0337432332414096
  0
ARC
  5
BF2A
  8
0
 10
957.9807786821571653
 20
147.6142308920132962
 30
0.0
 40
0.7423188292164764
 50
253.2959895979203964
 51
264.2696129256913764
  0
ARC
  5
BF2B
  8
0
 10
957.9507559008677617
 20
147.5141851929506061
 30
0.0
 40
0.6378654458471923
 50
240.9642084819863896
 51
253.2959895979203964
  0
ARC
  5
BF2C
  8
0
 10
957.9644483647551851
 20
147.538850701429709
 30
0.0
 40
0.6660766293714518
 50
223.695747444328191
 51
240.9642084819863896
  0
ARC
  5
BF2D
  8
0
 10
958.0620051805849471
 20
147.6320641674523984
 30
0.0
 40
0.8010065465980897
 50
214.09012941167299
 51
223.695747444328191
  0
ARC
  5
BF2E
  8
0
 10
958.1854448550885763
 20
147.715608100219896
 30
0.0
 40
0.9500600334538413
 50
202.5827499849627884
 51
214.09012941167299
  0
ARC
  5
BF2F
  8
0
 10
957.3555169308699533
 20
147.3704355725546122
 30
0.0
 40
0.0512138657182121
 50
157.3727403635286066
 51
202.5827499849596052
  0
ARC
  5
BF30
  8
0
 10
958.0143659961870526
 20
147.0958153286240133
 30
0.0
 40
0.7650054103907956
 50
142.8382947201401123
 51
157.3727403635286066
  0
ARC
  5
BF31
  8
0
 10
958.0341875762742347
 20
147.0807908008177947
 30
0.0
 40
0.7898777137210303
 50
123.015127371701098
 51
142.8382947201401123
  0
ARC
  5
BF32
  8
0
 10
957.9489195588910206
 20
147.1700377912283102
 30
0.0
 40
0.6689736756627469
 50
104.3754254739044995
 51
121.0557901318325946
  0
ARC
  5
BF33
  8
0
 10
957.9807558524368005
 20
147.0473033320367904
 30
0.0
 40
0.795769509279467
 50
94.0270414890100739
 51
104.4018973532941033
  0
ARC
  5
BF34
  8
0
 10
958.0172413885275091
 20
146.0605360849569934
 30
0.0
 40
1.782966338773887
 50
90.7900287115154043
 51
92.9696559404521992
  0
ARC
  5
BF35
  8
0
 10
957.9926244983264496
 20
147.852001563055893
 30
0.0
 40
0.9721065312112436
 50
267.0649763121376168
 51
270.0019482931638777
  0
ARC
  5
BF36
  8
0
 10
957.9889425739436319
 20
147.7798858536816908
 30
0.0
 40
0.8998968930252011
 50
261.7234531793667998
 51
267.0639909141586941
  0
ARC
  5
BF37
  8
0
 10
957.954491324317928
 20
147.5430524909073995
 30
0.0
 40
0.6605709012822665
 50
255.1532685614880904
 51
261.7234531793667998
  0
ARC
  5
BF38
  8
0
 10
957.8869465556203977
 20
147.2882474731887896
 30
0.0
 40
0.3969653383042049
 50
244.3740411903397103
 51
255.1532685614880904
  0
ARC
  5
BF39
  8
0
 10
957.7822766803321883
 20
147.0700383569655969
 30
0.0
 40
0.1549508734560984
 50
227.219915926674787
 51
244.3740411903393976
  0
ARC
  5
BF3A
  8
0
 10
957.7469862569871566
 20
147.0452020170484104
 30
0.0
 40
0.1131143651049457
 50
209.2513030568919987
 51
231.8005145870968136
  0
ARC
  5
BF3B
  8
0
 10
957.71797632655489
 20
147.0285129024790081
 30
0.0
 40
0.0796495851590575
 50
179.9074692242805895
 51
208.9739526284267868
  0
ARC
  5
BF3C
  8
0
 10
957.6851233628967748
 20
147.0824081097528904
 30
0.0
 40
0.0468022475863773
 50
145.9799211644231889
 51
179.1034299135565107
  0
ARC
  5
BF3D
  8
0
 10
957.9928717436152965
 20
144.7197506708297112
 30
0.0
 40
2.4164189517778421
 50
90.0050786570190553
 51
91.3482615411151357
  0
ARC
  5
BF3E
  8
0
 10
957.9908954537961563
 20
144.8037196642960964
 30
0.0
 40
2.3324267046046341
 50
91.3482615411151357
 51
96.0303882788212633
  0
ARC
  5
BF3F
  8
0
 10
957.8752311709031346
 20
145.8986054626732027
 30
0.0
 40
1.231448440593444
 50
96.0303882788212633
 51
104.0794822609428962
  0
ARC
  5
BF40
  8
0
 10
957.6292881115771252
 20
146.8792319405870046
 30
0.0
 40
0.2204507760974789
 50
104.0794822609428962
 51
118.362902724912999
  0
ARC
  5
BF41
  8
0
 10
957.5361744292587218
 20
147.0517089177990044
 30
0.0
 40
0.0244444866498066
 50
118.3629027249133969
 51
148.3673200015541056
  0
ARC
  5
BF42
  8
0
 10
957.5262848932280804
 20
147.059716351237995
 30
0.0
 40
0.0119365382773744
 50
156.2206038654026941
 51
207.7648900744507898
  0
ARC
  5
BF43
  8
0
 10
957.6906710498916482
 20
147.1794904886289999
 30
0.0
 40
0.2152109011281051
 50
215.6181739382955982
 51
226.3242757877200972
  0
ARC
  5
BF44
  8
0
 10
957.7582290381770918
 20
147.2911595658243868
 30
0.0
 40
0.3100331283129698
 50
223.5069792065509944
 51
248.0462005748507863
  0
LINE
  5
BF45
  8
0
 10
957.6383268452636912
 20
147.0286415338505037
 30
0.0
 11
957.6383268452636912
 21
147.0831404461146974
 31
0.0
  0
ARC
  5
BF46
  8
0
 10
957.9926309114841843
 20
146.1865173409462102
 30
0.0
 40
0.915555774355896
 50
89.9983327049181838
 51
92.6702940574555782
  0
ARC
  5
BF47
  8
0
 10
957.9883239472661671
 20
146.2788637917585959
 30
0.0
 40
0.823108941427847
 50
92.6702940574555782
 51
101.0417743494927976
  0
ARC
  5
BF48
  8
0
 10
957.9147514897276778
 20
146.655893433485403
 30
0.0
 40
0.4389680073308954
 50
101.0417743494927976
 51
113.8992952674751962
  0
ARC
  5
BF49
  8
0
 10
957.796560923224888
 20
146.922614463196112
 30
0.0
 40
0.1472333372963094
 50
113.8992952674751962
 51
136.1587805058985907
  0
ARC
  5
BF4A
  8
0
 10
957.72319925958368
 20
146.9930671517855956
 30
0.0
 40
0.045520432403755
 50
136.1587805058981075
 51
178.3843416616956006
  0
ARC
  5
BF4B
  8
0
 10
957.7237724186686592
 20
146.9960430308451862
 30
0.0
 40
0.0461065674371603
 50
182.1036348082139114
 51
220.7169492092731105
  0
ARC
  5
BF4C
  8
0
 10
957.811478300474846
 20
147.0862284219824971
 30
0.0
 40
0.1717742446949157
 50
224.4362423557979866
 51
244.7277428753234005
  0
ARC
  5
BF4D
  8
0
 10
957.9125942081258245
 20
147.3258891805942881
 30
0.0
 40
0.4318023702921977
 50
246.1712879041876931
 51
259.4606961656403996
  0
ARC
  5
BF4E
  8
0
 10
957.9820299646970625
 20
147.6612432704600906
 30
0.0
 40
0.7742303855070503
 50
258.948233903774792
 51
266.6674910359997739
  0
ARC
  5
BF4F
  8
0
 10
957.9925519479560307
 20
147.7975373584033889
 30
0.0
 40
0.9109093047638344
 50
266.5051249697850722
 51
270.0066425697032741
  0
ARC
  5
BF50
  8
0
 10
957.9922938865565811
 20
147.5791914408843013
 30
0.0
 40
0.6207416225524977
 50
245.6510073619137131
 51
270.0335672814787245
  0
ARC
  5
BF51
  8
0
 10
957.9922278870061518
 20
147.543875326197707
 30
0.0
 40
0.6204354704252112
 50
245.6449025754614013
 51
270.0396758207735957
  0
ARC
  5
BF52
  8
0
 10
957.9948628507415833
 20
147.5064570337532075
 30
0.0
 40
0.6030134680071318
 50
246.0887317977862097
 51
269.7904615960866863
  0
ARC
  5
BF53
  8
0
 10
957.8564482100141504
 20
147.1948081268263024
 30
0.0
 40
0.262009735702341
 50
233.1559582192097935
 51
246.1362146387571954
  0
ARC
  5
BF54
  8
0
 10
957.7328401746684676
 20
147.0298423736381039
 30
0.0
 40
0.0558722909551021
 50
201.27469380008651
 51
233.1559582192097935
  0
LINE
  5
BF55
  8
0
 10
957.9451336670214232
 20
146.9176881289436949
 30
0.0
 11
957.9549761845637477
 21
146.913714839105694
 31
0.0
  0
LINE
  5
BF56
  8
0
 10
957.9549761845637477
 20
146.913714839105694
 30
0.0
 11
957.9746612239636079
 21
146.9128287736589868
 31
0.0
  0
LINE
  5
BF57
  8
0
 10
957.9746612239636079
 20
146.9128287736589868
 30
0.0
 11
957.9845037436524535
 21
146.915923420363896
 31
0.0
  0
LINE
  5
BF58
  8
0
 10
957.9845037436524535
 20
146.915923420363896
 30
0.0
 11
957.9451336670214232
 21
146.9176881289436949
 31
0.0
  0
LINE
  5
BF59
  8
0
 10
957.9451336648103279
 20
146.908737028086307
 30
0.0
 11
957.9549761846267302
 21
146.9063660286707034
 31
0.0
  0
LINE
  5
BF5A
  8
0
 10
957.9549761846267302
 20
146.9063660286707034
 30
0.0
 11
957.9746612239636079
 21
146.9054605914147089
 31
0.0
  0
LINE
  5
BF5B
  8
0
 10
957.9746612239636079
 20
146.9054605914147089
 30
0.0
 11
957.9845037434872665
 21
146.9069392917542132
 31
0.0
  0
LINE
  5
BF5C
  8
0
 10
957.9845037434872665
 20
146.9069392917542132
 30
0.0
 11
957.9746607311418529
 21
146.9093438228165951
 31
0.0
  0
LINE
  5
BF5D
  8
0
 10
957.9746607311418529
 20
146.9093438228165951
 30
0.0
 11
957.9549761846078582
 21
146.9102362454277113
 31
0.0
  0
LINE
  5
BF5E
  8
0
 10
957.9549761846078582
 20
146.9102362454277113
 30
0.0
 11
957.9451336648103279
 21
146.908737028086307
 31
0.0
  0
LINE
  5
BF5F
  8
0
 10
957.9172948152560139
 20
146.9153467814043097
 30
0.0
 11
957.9271373349647547
 21
146.9117272856576051
 31
0.0
  0
LINE
  5
BF60
  8
0
 10
957.9271373349647547
 20
146.9117272856576051
 30
0.0
 11
957.9468223743358521
 21
146.9099318816051891
 31
0.0
  0
LINE
  5
BF61
  8
0
 10
957.9468223743358521
 20
146.9099318816051891
 30
0.0
 11
957.9566648940178766
 21
146.9117764965320987
 31
0.0
  0
LINE
  5
BF62
  8
0
 10
957.9566648940178766
 20
146.9117764965320987
 30
0.0
 11
957.946822374263661
 21
146.9154194003079965
 31
0.0
  0
LINE
  5
BF63
  8
0
 10
957.946822374263661
 20
146.9154194003079965
 30
0.0
 11
957.9271373349635041
 21
146.9171944408089985
 31
0.0
  0
LINE
  5
BF64
  8
0
 10
957.9271373349635041
 20
146.9171944408089985
 30
0.0
 11
957.9172948152560139
 21
146.9153467814043097
 31
0.0
  0
LINE
  5
BF65
  8
0
 10
957.8894559654312388
 20
146.9244974194326971
 30
0.0
 11
957.9288260443636318
 21
146.9191543822147139
 31
0.0
  0
LINE
  5
BF66
  8
0
 10
957.9288260443636318
 20
146.9191543822147139
 30
0.0
 11
957.9189835246635312
 21
146.9169673752147958
 31
0.0
  0
LINE
  5
BF67
  8
0
 10
957.9189835246635312
 20
146.9169673752147958
 30
0.0
 11
957.8992984852635573
 21
146.9196503168147956
 31
0.0
  0
LINE
  5
BF68
  8
0
 10
957.8992984852635573
 20
146.9196503168147956
 30
0.0
 11
957.8894559654312388
 21
146.9244974194326971
 31
0.0
  0
LINE
  5
BF69
  8
0
 10
957.8616171158938641
 20
146.9248195913602899
 30
0.0
 11
957.8714596356636548
 21
146.9256928859159927
 31
0.0
  0
LINE
  5
BF6A
  8
0
 10
957.8714596356636548
 20
146.9256928859159927
 30
0.0
 11
957.8911446749990546
 21
146.9220927151567935
 31
0.0
  0
LINE
  5
BF6B
  8
0
 10
957.8911446749990546
 20
146.9220927151567935
 30
0.0
 11
957.9009871946543626
 21
146.917577002760197
 31
0.0
  0
LINE
  5
BF6C
  8
0
 10
957.9009871946543626
 20
146.917577002760197
 30
0.0
 11
957.8911446749463039
 21
146.9166824608736874
 31
0.0
  0
LINE
  5
BF6D
  8
0
 10
957.8911446749463039
 20
146.9166824608736874
 30
0.0
 11
957.8714596356020365
 21
146.9203251281477094
 31
0.0
  0
LINE
  5
BF6E
  8
0
 10
957.8714596356020365
 20
146.9203251281477094
 30
0.0
 11
957.8616171158938641
 21
146.9248195913602899
 31
0.0
  0
LINE
  5
BF6F
  8
0
 10
957.8337782662636073
 20
146.9365461715146921
 30
0.0
 11
957.8731483449797679
 21
146.9274710528073058
 31
0.0
  0
LINE
  5
BF70
  8
0
 10
957.8731483449797679
 20
146.9274710528073058
 30
0.0
 11
957.8633058253316221
 21
146.9262476435135909
 31
0.0
  0
LINE
  5
BF71
  8
0
 10
957.8633058253316221
 20
146.9262476435135909
 30
0.0
 11
957.8436207860023615
 21
146.9308052765209993
 31
0.0
  0
LINE
  5
BF72
  8
0
 10
957.8436207860023615
 20
146.9308052765209993
 30
0.0
 11
957.8337782662636073
 21
146.9365461715146921
 31
0.0
  0
LINE
  5
BF73
  8
0
 10
957.8337782663201097
 20
146.9279621774724092
 30
0.0
 11
957.8436207859637079
 21
146.9274538271147037
 31
0.0
  0
LINE
  5
BF74
  8
0
 10
957.8436207859637079
 20
146.9274538271147037
 30
0.0
 11
957.8633058253635681
 21
146.9228614816229026
 31
0.0
  0
LINE
  5
BF75
  8
0
 10
957.8633058253635681
 20
146.9228614816229026
 30
0.0
 11
957.8731483450656015
 21
146.9187070858905884
 31
0.0
  0
LINE
  5
BF76
  8
0
 10
957.8731483450656015
 20
146.9187070858905884
 30
0.0
 11
957.8633058253154786
 21
146.9191799670315106
 31
0.0
  0
LINE
  5
BF77
  8
0
 10
957.8633058253154786
 20
146.9191799670315106
 30
0.0
 11
957.8436207859874685
 21
146.9238432568947985
 31
0.0
  0
LINE
  5
BF78
  8
0
 10
957.8436207859874685
 20
146.9238432568947985
 30
0.0
 11
957.8337782663201097
 21
146.9279621774724092
 31
0.0
  0
LINE
  5
BF79
  8
0
 10
957.805939416760566
 20
146.939742878453302
 30
0.0
 11
957.8157819363636918
 21
146.939742878453302
 31
0.0
  0
LINE
  5
BF7A
  8
0
 10
957.8157819363636918
 20
146.939742878453302
 30
0.0
 11
957.8354669756636213
 21
146.9340134403147999
 31
0.0
  0
LINE
  5
BF7B
  8
0
 10
957.8354669756636213
 20
146.9340134403147999
 30
0.0
 11
957.8453094954180642
 21
146.9286086654323924
 31
0.0
  0
LINE
  5
BF7C
  8
0
 10
957.8453094954180642
 20
146.9286086654323924
 30
0.0
 11
957.8354669756636213
 21
146.9287461583147092
 31
0.0
  0
LINE
  5
BF7D
  8
0
 10
957.8354669756636213
 20
146.9287461583147092
 30
0.0
 11
957.8157819362968439
 21
146.9343476537200956
 31
0.0
  0
LINE
  5
BF7E
  8
0
 10
957.8157819362968439
 20
146.9343476537200956
 30
0.0
 11
957.805939416760566
 21
146.939742878453302
 31
0.0
  0
LINE
  5
BF7F
  8
0
 10
957.7779868379948311
 20
146.9460094635880125
 30
0.0
 11
957.7879430866270241
 21
146.9443020537590883
 31
0.0
  0
LINE
  5
BF80
  8
0
 10
957.7879430866270241
 20
146.9443020537590883
 30
0.0
 11
957.8076281259943698
 21
146.9376736097163132
 31
0.0
  0
LINE
  5
BF81
  8
0
 10
957.8076281259943698
 20
146.9376736097163132
 30
0.0
 11
957.8174706457081129
 21
146.9326245308758132
 31
0.0
  0
LINE
  5
BF82
  8
0
 10
957.8174706457081129
 20
146.9326245308758132
 30
0.0
 11
957.8076281260634914
 21
146.9342255747147021
 31
0.0
  0
LINE
  5
BF83
  8
0
 10
957.8076281260634914
 20
146.9342255747147021
 30
0.0
 11
957.7879430866635175
 21
146.940963022114687
 31
0.0
  0
LINE
  5
BF84
  8
0
 10
957.7879430866635175
 20
146.940963022114687
 30
0.0
 11
957.7779868379948311
 21
146.9460094635880125
 31
0.0
  0
LINE
  5
BF85
  8
0
 10
957.7781005669181695
 20
146.9542048545160071
 30
0.0
 11
957.8174706457551792
 21
146.9411154776202011
 31
0.0
  0
LINE
  5
BF86
  8
0
 10
957.8174706457551792
 20
146.9411154776202011
 30
0.0
 11
957.8076281261124905
 21
146.9409456112481109
 31
0.0
  0
LINE
  5
BF87
  8
0
 10
957.8076281261124905
 20
146.9409456112481109
 30
0.0
 11
957.7879430866635175
 21
146.9475208368351957
 31
0.0
  0
LINE
  5
BF88
  8
0
 10
957.7879430866635175
 20
146.9475208368351957
 30
0.0
 11
957.7781005669181695
 21
146.9542048545160071
 31
0.0
  0
LINE
  5
BF89
  8
0
 10
957.8047387955751901
 20
146.9342000230971905
 30
0.0
 11
957.8157819362771761
 21
146.9321376346879902
 31
0.0
  0
LINE
  5
BF8A
  8
0
 10
957.8157819362771761
 20
146.9321376346879902
 30
0.0
 11
957.8354669756636213
 21
146.9264799978629128
 31
0.0
  0
LINE
  5
BF8B
  8
0
 10
957.8354669756636213
 20
146.9264799978629128
 30
0.0
 11
957.8467840221006782
 21
146.9219077175220889
 31
0.0
  0
LINE
  5
BF8C
  8
0
 10
957.8662254035585875
 20
146.9173263221121886
 30
0.0
 11
957.8616171159420674
 21
146.9188276562614988
 31
0.0
  0
LINE
  5
BF8D
  8
0
 10
957.8616171159420674
 20
146.9188276562614988
 30
0.0
 11
957.8714596355910089
 21
146.9179768347052004
 31
0.0
  0
LINE
  5
BF8E
  8
0
 10
957.8714596355910089
 20
146.9179768347052004
 30
0.0
 11
957.891144674963698
 21
146.9142994548193997
 31
0.0
  0
LINE
  5
BF8F
  8
0
 10
957.891144674963698
 20
146.9142994548193997
 30
0.0
 11
957.9009871946409476
 21
146.9114050825708944
 31
0.0
  0
LINE
  5
BF90
  8
0
 10
957.9009871946409476
 20
146.9114050825708944
 30
0.0
 11
957.8943210643025168
 21
146.911884421049308
 31
0.0
  0
LINE
  5
BF91
  8
0
 10
957.8894559655946068
 20
146.9156758336121129
 30
0.0
 11
957.8992984852635573
 21
146.9162149575147112
 31
0.0
  0
LINE
  5
BF92
  8
0
 10
957.8992984852635573
 20
146.9162149575147112
 30
0.0
 11
957.9189835246816074
 21
146.9135123547821138
 31
0.0
  0
LINE
  5
BF93
  8
0
 10
957.9189835246816074
 20
146.9135123547821138
 30
0.0
 11
957.9288260443609033
 21
146.9102308885364039
 31
0.0
  0
LINE
  5
BF94
  8
0
 10
957.9288260443609033
 20
146.9102308885364039
 30
0.0
 11
957.9189835246805842
 21
146.9096902349876075
 31
0.0
  0
LINE
  5
BF95
  8
0
 10
957.9189835246805842
 20
146.9096902349876075
 30
0.0
 11
957.8992984853057351
 21
146.9124329676646994
 31
0.0
  0
LINE
  5
BF96
  8
0
 10
957.8992984853057351
 20
146.9124329676646994
 30
0.0
 11
957.8894559655946068
 21
146.9156758336121129
 31
0.0
  0
LINE
  5
BF97
  8
0
 10
957.9229359082746669
 20
146.9077486259741931
 30
0.0
 11
957.9172948152038316
 21
146.909120445734203
 31
0.0
  0
LINE
  5
BF98
  8
0
 10
957.9172948152038316
 20
146.909120445734203
 30
0.0
 11
957.9271373349635041
 21
146.909120445734203
 31
0.0
  0
LINE
  5
BF99
  8
0
 10
957.9271373349635041
 20
146.909120445734203
 30
0.0
 11
957.946822374263661
 21
146.9074858018134933
 31
0.0
  0
LINE
  5
BF9A
  8
0
 10
957.946822374263661
 20
146.9074858018134933
 30
0.0
 11
957.9578706766563982
 21
146.9045792873176026
 31
0.0
  0
LINE
  5
BF9B
  8
0
 10
957.7507373206922239
 20
146.955069721443607
 30
0.0
 11
957.760104237001201
 21
146.9522550258757008
 31
0.0
  0
LINE
  5
BF9C
  8
0
 10
957.760104237001201
 20
146.9522550258757008
 30
0.0
 11
957.7797892763250047
 21
146.944421021388905
 31
0.0
  0
LINE
  5
BF9D
  8
0
 10
957.7797892763250047
 20
146.944421021388905
 30
0.0
 11
957.7906892746651693
 21
146.9390608816424049
 31
0.0
  0
LINE
  5
BF9E
  8
0
 10
957.7224228676610664
 20
146.9704113881155934
 30
0.0
 11
957.7322653873173977
 21
146.9673442631709861
 31
0.0
  0
LINE
  5
BF9F
  8
0
 10
957.7322653873173977
 20
146.9673442631709861
 30
0.0
 11
957.7519504264697616
 21
146.9584403248049114
 31
0.0
  0
LINE
  5
BFA0
  8
0
 10
957.7519504264697616
 20
146.9584403248049114
 30
0.0
 11
957.7617929464422559
 21
146.9524431368847956
 31
0.0
  0
LINE
  5
BFA1
  8
0
 10
957.7617929464422559
 20
146.9524431368847956
 30
0.0
 11
957.7519504266987269
 21
146.955343830955286
 31
0.0
  0
LINE
  5
BFA2
  8
0
 10
957.7519504266987269
 20
146.955343830955286
 30
0.0
 11
957.7322653873289937
 21
146.964407972172495
 31
0.0
  0
LINE
  5
BFA3
  8
0
 10
957.7322653873289937
 20
146.964407972172495
 30
0.0
 11
957.7224228676610664
 21
146.9704113881155934
 31
0.0
  0
LINE
  5
BFA4
  8
0
 10
957.7502617173156523
 20
146.960609263471099
 30
0.0
 11
957.7601042369906281
 21
146.959197572701413
 31
0.0
  0
LINE
  5
BFA5
  8
0
 10
957.7601042369906281
 20
146.959197572701413
 30
0.0
 11
957.779789276452675
 21
146.9515494093541861
 31
0.0
  0
LINE
  5
BFA6
  8
0
 10
957.779789276452675
 20
146.9515494093541861
 30
0.0
 11
957.7896317958234249
 21
146.9452105025245885
 31
0.0
  0
LINE
  5
BFA7
  8
0
 10
957.7896317958234249
 20
146.9452105025245885
 30
0.0
 11
957.7797892763516074
 21
146.9465048278310064
 31
0.0
  0
LINE
  5
BFA8
  8
0
 10
957.7797892763516074
 20
146.9465048278310064
 30
0.0
 11
957.7601042369635707
 21
146.9542550868806927
 31
0.0
  0
LINE
  5
BFA9
  8
0
 10
957.7601042369635707
 20
146.9542550868806927
 30
0.0
 11
957.7502617173156523
 21
146.960609263471099
 31
0.0
  0
LINE
  5
BFAA
  8
0
 10
957.7224228676930124
 20
146.9780831543471038
 30
0.0
 11
957.7322653873635545
 21
146.9769132895310122
 31
0.0
  0
LINE
  5
BFAB
  8
0
 10
957.7322653873635545
 20
146.9769132895310122
 30
0.0
 11
957.7439719481208158
 21
146.9716169221694884
 31
0.0
  0
LINE
  5
BFAC
  8
0
 10
957.7439719481208158
 20
146.9716169221694884
 30
0.0
 11
957.7488807731580209
 21
146.9660733362663905
 31
0.0
  0
LINE
  5
BFAD
  8
0
 10
957.7488807731580209
 20
146.9660733362663905
 30
0.0
 11
957.7617929463840483
 21
146.9605195663060044
 31
0.0
  0
LINE
  5
BFAE
  8
0
 10
957.7617929463840483
 20
146.9605195663060044
 30
0.0
 11
957.7519504267659158
 21
146.9615408786372086
 31
0.0
  0
LINE
  5
BFAF
  8
0
 10
957.7519504267659158
 20
146.9615408786372086
 30
0.0
 11
957.7322653873635545
 21
146.9703668656148068
 31
0.0
  0
LINE
  5
BFB0
  8
0
 10
957.7322653873635545
 20
146.9703668656148068
 30
0.0
 11
957.7224228676930124
 21
146.9780831543471038
 31
0.0
  0
LINE
  5
BFB1
  8
0
 10
957.6945840179848801
 20
146.9985546256500868
 30
0.0
 11
957.7044265376637213
 21
146.9975927233402899
 31
0.0
  0
LINE
  5
BFB2
  8
0
 10
957.7044265376637213
 20
146.9975927233402899
 30
0.0
 11
957.7241115771030309
 21
146.9876755836596089
 31
0.0
  0
LINE
  5
BFB3
  8
0
 10
957.7241115771030309
 20
146.9876755836596089
 30
0.0
 11
957.7339540967767562
 21
146.9786470174095996
 31
0.0
  0
LINE
  5
BFB4
  8
0
 10
957.7339540967767562
 20
146.9786470174095996
 30
0.0
 11
957.7241115770490296
 21
146.9794268919580986
 31
0.0
  0
LINE
  5
BFB5
  8
0
 10
957.7241115770490296
 20
146.9794268919580986
 30
0.0
 11
957.7044265376637213
 21
146.9894146069113106
 31
0.0
  0
LINE
  5
BFB6
  8
0
 10
957.7044265376637213
 20
146.9894146069113106
 30
0.0
 11
957.6945840179848801
 21
146.9985546256500868
 31
0.0
  0
LINE
  5
BFB7
  8
0
 10
957.7224228675988797
 20
146.9915388822199134
 30
0.0
 11
957.7322653873635545
 21
146.9821521840146943
 31
0.0
  0
LINE
  5
BFB8
  8
0
 10
957.7322653873635545
 20
146.9821521840146943
 30
0.0
 11
957.735860713985744
 21
146.9805007072546061
 31
0.0
  0
LINE
  5
BFB9
  8
0
 10
957.735860713985744
 20
146.9805007072546061
 30
0.0
 11
957.7363661296882356
 21
146.9786541888506122
 31
0.0
  0
LINE
  5
BFBA
  8
0
 10
957.7224228676458324
 20
146.991538882173387
 30
0.0
 11
957.7322653873635545
 21
146.9921290203147066
 31
0.0
  0
LINE
  5
BFBB
  8
0
 10
957.7322653873635545
 20
146.9921290203147066
 30
0.0
 11
957.7342831362209381
 21
146.9912003747319034
 31
0.0
  0
LINE
  5
BFBC
  8
0
 10
957.7342831362209381
 20
146.9912003747319034
 30
0.0
 11
957.7519504266739432
 21
147.0015048179614894
 31
0.0
  0
LINE
  5
BFBD
  8
0
 10
957.7519504266739432
 20
147.0015048179614894
 30
0.0
 11
957.7617929464507824
 21
147.0009885111360859
 31
0.0
  0
LINE
  5
BFBE
  8
0
 10
957.7617929464507824
 20
147.0009885111360859
 30
0.0
 11
957.7519504267636421
 21
146.9898434741147071
 31
0.0
  0
LINE
  5
BFBF
  8
0
 10
957.7519504267636421
 20
146.9898434741147071
 30
0.0
 11
957.7358367400615862
 21
146.9805117194331956
 31
0.0
  0
LINE
  5
BFC0
  8
0
 10
957.6945840180377445
 20
147.0147319327012951
 30
0.0
 11
957.7044265376227941
 21
147.0038770661824969
 31
0.0
  0
LINE
  5
BFC1
  8
0
 10
957.7044265376227941
 20
147.0038770661824969
 30
0.0
 11
957.7241115770088982
 21
146.9939819535410948
 31
0.0
  0
LINE
  5
BFC2
  8
0
 10
957.7241115770088982
 20
146.9939819535410948
 30
0.0
 11
957.7339541192767456
 21
146.9949382863227925
 31
0.0
  0
LINE
  5
BFC3
  8
0
 10
957.7339541192767456
 20
146.9949382863227925
 30
0.0
 11
957.7241115771291788
 21
147.0056432973123037
 31
0.0
  0
LINE
  5
BFC4
  8
0
 10
957.7241115771291788
 20
147.0056432973123037
 30
0.0
 11
957.7044265376637213
 21
147.0155384098372906
 31
0.0
  0
LINE
  5
BFC5
  8
0
 10
957.7044265376637213
 20
147.0155384098372906
 30
0.0
 11
957.6945840180377445
 21
147.0147319327012951
 31
0.0
  0
LINE
  5
BFC6
  8
0
 10
957.6980799897286261
 20
147.0320638183752067
 30
0.0
 11
957.7044265376935073
 21
147.0240171687538009
 31
0.0
  0
LINE
  5
BFC7
  8
0
 10
957.7044265376935073
 20
147.0240171687538009
 30
0.0
 11
957.7241115770635815
 21
147.0141000292111073
 31
0.0
  0
LINE
  5
BFC8
  8
0
 10
957.7241115770635815
 20
147.0141000292111073
 30
0.0
 11
957.7339540967424227
 21
147.0167328067850008
 31
0.0
  0
LINE
  5
BFC9
  8
0
 10
957.7339540967424227
 20
147.0167328067850008
 30
0.0
 11
957.7241115770635815
 21
147.0291740251147132
 31
0.0
  0
LINE
  5
BFCA
  8
0
 10
957.7241115770635815
 20
147.0291740251147132
 30
0.0
 11
957.7057153807965051
 21
147.0384796565558077
 31
0.0
  0
LINE
  5
BFCB
  8
0
 10
957.7498908998558136
 20
147.007736321029995
 30
0.0
 11
957.7342831363140476
 21
146.9985819257111075
 31
0.0
  0
LINE
  5
BFCC
  8
0
 10
957.7342831363140476
 20
146.9985819257111075
 30
0.0
 11
957.7322653873346781
 21
146.9995091161553091
 31
0.0
  0
LINE
  5
BFCD
  8
0
 10
957.7322653873346781
 20
146.9995091161553091
 30
0.0
 11
957.7224228675954691
 21
147.0105817768589986
 31
0.0
  0
LINE
  5
BFCE
  8
0
 10
957.7224228675954691
 20
147.0105817768589986
 30
0.0
 11
957.7322653872977298
 21
147.0128564225051093
 31
0.0
  0
LINE
  5
BFCF
  8
0
 10
957.7322653872977298
 20
147.0128564225051093
 30
0.0
 11
957.7358607140629374
 21
147.0112049458282115
 31
0.0
  0
LINE
  5
BFD0
  8
0
 10
957.7358607140629374
 20
147.0112049458282115
 30
0.0
 11
957.7363661296826649
 21
147.0136641248060982
 31
0.0
  0
LINE
  5
BFD1
  8
0
 10
957.736366129769408
 20
146.9786541885534916
 30
0.0
 11
957.7528578287636947
 21
146.9881929853146971
 31
0.0
  0
LINE
  5
BFD2
  8
0
 10
957.7528578287636947
 20
146.9881929853146971
 30
0.0
 11
957.7601042369635707
 21
146.9964068104063131
 31
0.0
  0
LINE
  5
BFD3
  8
0
 10
957.7601042369635707
 20
146.9964068104063131
 30
0.0
 11
957.7678760976815511
 21
147.0004369005085891
 31
0.0
  0
LINE
  5
BFD4
  8
0
 10
957.752857825641172
 20
146.9881929835086964
 30
0.0
 11
957.752857825641172
 21
146.9768456242148034
 31
0.0
  0
LINE
  5
BFD5
  8
0
 10
957.752857825641172
 20
146.9768456242148034
 30
0.0
 11
957.7870356845636479
 21
146.9768456242148034
 31
0.0
  0
LINE
  5
BFD6
  8
0
 10
957.7870356845636479
 20
146.9768456242148034
 30
0.0
 11
957.7870356845636479
 21
146.9933678902449117
 31
0.0
  0
LINE
  5
BFD7
  8
0
 10
957.808535528063544
 20
146.9862723674407903
 30
0.0
 11
957.808535528063544
 21
146.9768456242148034
 31
0.0
  0
LINE
  5
BFD8
  8
0
 10
957.808535528063544
 20
146.9768456242148034
 30
0.0
 11
957.8422949561944506
 21
146.9768456242148034
 31
0.0
  0
LINE
  5
BFD9
  8
0
 10
957.9451336649012774
 20
147.0789583642043965
 30
0.0
 11
957.9549761845637477
 21
147.0918913895544904
 31
0.0
  0
LINE
  5
BFDA
  8
0
 10
957.9549761845637477
 20
147.0918913895544904
 30
0.0
 11
957.9746612239550814
 21
147.0909116596801027
 31
0.0
  0
LINE
  5
BFDB
  8
0
 10
957.9746612239550814
 20
147.0909116596801027
 30
0.0
 11
957.9845037435932227
 21
147.0770285111773035
 31
0.0
  0
LINE
  5
BFDC
  8
0
 10
957.9845037435932227
 20
147.0770285111773035
 30
0.0
 11
957.9746612239850947
 21
147.0642213940639067
 31
0.0
  0
LINE
  5
BFDD
  8
0
 10
957.9746612239850947
 20
147.0642213940639067
 30
0.0
 11
957.9549761844813247
 21
147.065172165946791
 31
0.0
  0
LINE
  5
BFDE
  8
0
 10
957.9549761844813247
 20
147.065172165946791
 30
0.0
 11
957.9451336649012774
 21
147.0789583642043965
 31
0.0
  0
LINE
  5
BFDF
  8
0
 10
957.9451336649084396
 20
147.038497815341799
 30
0.0
 11
957.9549761846052434
 21
147.049510996840894
 31
0.0
  0
LINE
  5
BFE0
  8
0
 10
957.9549761846052434
 20
147.049510996840894
 30
0.0
 11
957.9746612239636079
 21
147.0485754305146884
 31
0.0
  0
LINE
  5
BFE1
  8
0
 10
957.9746612239636079
 20
147.0485754305146884
 30
0.0
 11
957.9845037435809445
 21
147.0366468666290132
 31
0.0
  0
LINE
  5
BFE2
  8
0
 10
957.9845037435809445
 20
147.0366468666290132
 30
0.0
 11
957.9744772348099104
 21
147.0257083695674112
 31
0.0
  0
LINE
  5
BFE3
  8
0
 10
957.9744772348099104
 20
147.0257083695674112
 30
0.0
 11
957.9547921953061405
 21
147.0266591414502955
 31
0.0
  0
LINE
  5
BFE4
  8
0
 10
957.9547921953061405
 20
147.0266591414502955
 30
0.0
 11
957.9451336649084396
 21
147.038497815341799
 31
0.0
  0
LINE
  5
BFE5
  8
0
 10
957.9451336649249242
 20
147.0039515015789959
 30
0.0
 11
957.9549761846100182
 21
147.0132418460136989
 31
0.0
  0
LINE
  5
BFE6
  8
0
 10
957.9549761846100182
 20
147.0132418460136989
 30
0.0
 11
957.9743283527172935
 21
147.0123463893079077
 31
0.0
  0
LINE
  5
BFE7
  8
0
 10
957.9743283527172935
 20
147.0123463893079077
 30
0.0
 11
957.984503743651544
 21
147.0021537652604877
 31
0.0
  0
LINE
  5
BFE8
  8
0
 10
957.984503743651544
 20
147.0021537652604877
 30
0.0
 11
957.9745489787845827
 21
146.9929474775262008
 31
0.0
  0
LINE
  5
BFE9
  8
0
 10
957.9745489787845827
 20
146.9929474775262008
 30
0.0
 11
957.954863939280699
 21
146.9938982494089998
 31
0.0
  0
LINE
  5
BFEA
  8
0
 10
957.954863939280699
 20
146.9938982494089998
 30
0.0
 11
957.9451336649249242
 21
147.0039515015789959
 31
0.0
  0
LINE
  5
BFEB
  8
0
 10
957.9172948151616538
 20
147.0233778137850038
 30
0.0
 11
957.9271373349461101
 21
147.0330716619770044
 31
0.0
  0
LINE
  5
BFEC
  8
0
 10
957.9271373349461101
 20
147.0330716619770044
 30
0.0
 11
957.9468868779645163
 21
147.0311490907199925
 31
0.0
  0
LINE
  5
BFED
  8
0
 10
957.9468868779645163
 20
147.0311490907199925
 30
0.0
 11
957.9566648940531195
 21
147.0197213799353904
 31
0.0
  0
LINE
  5
BFEE
  8
0
 10
957.9566648940531195
 20
147.0197213799353904
 30
0.0
 11
957.9470555369192653
 21
147.010302476056296
 31
0.0
  0
LINE
  5
BFEF
  8
0
 10
957.9470555369192653
 20
147.010302476056296
 30
0.0
 11
957.9266650161534926
 21
147.0120722979218044
 31
0.0
  0
LINE
  5
BFF0
  8
0
 10
957.9266650161534926
 20
147.0120722979218044
 30
0.0
 11
957.9172948151616538
 21
147.0233778137850038
 31
0.0
  0
LINE
  5
BFF1
  8
0
 10
957.9172948152074696
 20
147.0609057081514095
 30
0.0
 11
957.9271373349635041
 21
147.0724031796798954
 31
0.0
  0
LINE
  5
BFF2
  8
0
 10
957.9271373349635041
 20
147.0724031796798954
 30
0.0
 11
957.946822374263661
 21
147.070484266014688
 31
0.0
  0
LINE
  5
BFF3
  8
0
 10
957.946822374263661
 20
147.070484266014688
 30
0.0
 11
957.9567770028479572
 21
147.0571928784667932
 31
0.0
  0
LINE
  5
BFF4
  8
0
 10
957.9567770028479572
 20
147.0571928784667932
 30
0.0
 11
957.9468223743018598
 21
147.0457233375572912
 31
0.0
  0
LINE
  5
BFF5
  8
0
 10
957.9468223743018598
 20
147.0457233375572912
 30
0.0
 11
957.9271373349318992
 21
147.0475935847763083
 31
0.0
  0
LINE
  5
BFF6
  8
0
 10
957.9271373349318992
 20
147.0475935847763083
 30
0.0
 11
957.9172948152074696
 21
147.0609057081514095
 31
0.0
  0
LINE
  5
BFF7
  8
0
 10
957.8894559655772127
 20
147.0108903070243969
 30
0.0
 11
957.8992984852635573
 21
147.0193087850146867
 31
0.0
  0
LINE
  5
BFF8
  8
0
 10
957.8992984852635573
 20
147.0193087850146867
 30
0.0
 11
957.9188949741776469
 21
147.0167765332946885
 31
0.0
  0
LINE
  5
BFF9
  8
0
 10
957.9188949741776469
 20
147.0167765332946885
 30
0.0
 11
957.9288260442549472
 21
147.0054453620772961
 31
0.0
  0
LINE
  5
BFFA
  8
0
 10
957.9288260442549472
 20
147.0054453620772961
 30
0.0
 11
957.9191156002449361
 21
146.9973776215128964
 31
0.0
  0
LINE
  5
BFFB
  8
0
 10
957.9191156002449361
 20
146.9973776215128964
 30
0.0
 11
957.899298485237523
 21
146.9997680871107946
 31
0.0
  0
LINE
  5
BFFC
  8
0
 10
957.899298485237523
 20
146.9997680871107946
 30
0.0
 11
957.8894559655772127
 21
147.0108903070243969
 31
0.0
  0
LINE
  5
BFFD
  8
0
 10
957.8894559655346939
 20
147.045645544376498
 30
0.0
 11
957.8992984852635573
 21
147.0557826202146998
 31
0.0
  0
LINE
  5
BFFE
  8
0
 10
957.8992984852635573
 20
147.0557826202146998
 30
0.0
 11
957.9189835245982749
 21
147.052946744802
 31
0.0
  0
LINE
  5
BFFF
  8
0
 10
957.9189835245982749
 20
147.052946744802
 30
0.0
 11
957.9288260443516947
 21
147.0400361774229907
 31
0.0
  0
LINE
  5
C000
  8
0
 10
957.9288260443516947
 20
147.0400361774229907
 30
0.0
 11
957.9189835246635312
 21
147.0299804881105956
 31
0.0
  0
LINE
  5
C001
  8
0
 10
957.9189835246635312
 20
147.0299804881105956
 30
0.0
 11
957.8992984852635573
 21
147.0327549268666019
 31
0.0
  0
LINE
  5
C002
  8
0
 10
957.8992984852635573
 20
147.0327549268666019
 30
0.0
 11
957.8894559655346939
 21
147.045645544376498
 31
0.0
  0
LINE
  5
C003
  8
0
 10
957.889455965604725
 20
147.0864164738094075
 30
0.0
 11
957.8981859033309547
 21
147.0970223720435968
 31
0.0
  0
LINE
  5
C004
  8
0
 10
957.9040919433984982
 20
147.0976514925596064
 30
0.0
 11
957.9189835246154416
 21
147.0954908045345917
 31
0.0
  0
LINE
  5
C005
  8
0
 10
957.9189835246154416
 20
147.0954908045345917
 30
0.0
 11
957.9288260442956471
 21
147.0805627603195944
 31
0.0
  0
LINE
  5
C006
  8
0
 10
957.9288260442956471
 20
147.0805627603195944
 30
0.0
 11
957.9189835246635312
 21
147.0686642418147017
 31
0.0
  0
LINE
  5
C007
  8
0
 10
957.9189835246635312
 20
147.0686642418147017
 30
0.0
 11
957.8992984852635573
 21
147.071547195814702
 31
0.0
  0
LINE
  5
C008
  8
0
 10
957.8992984852635573
 20
147.071547195814702
 30
0.0
 11
957.889455965604725
 21
147.0864164738094075
 31
0.0
  0
LINE
  5
C009
  8
0
 10
957.9171108148607345
 20
146.9918610293102859
 30
0.0
 11
957.9271373348892666
 21
146.9995602083104984
 31
0.0
  0
LINE
  5
C00A
  8
0
 10
957.9271373348892666
 20
146.9995602083104984
 30
0.0
 11
957.946549823461055
 21
146.997747255580606
 31
0.0
  0
LINE
  5
C00B
  8
0
 10
957.946549823461055
 20
146.997747255580606
 30
0.0
 11
957.9566648939968445
 21
146.9879480753388918
 31
0.0
  0
LINE
  5
C00C
  8
0
 10
957.9566648939968445
 20
146.9879480753388918
 30
0.0
 11
957.946822374263661
 21
146.9799296352148019
 31
0.0
  0
LINE
  5
C00D
  8
0
 10
957.946822374263661
 20
146.9799296352148019
 30
0.0
 11
957.9271373349299665
 21
146.9817046757873129
 31
0.0
  0
LINE
  5
C00E
  8
0
 10
957.9271373349299665
 20
146.9817046757873129
 30
0.0
 11
957.9171108148607345
 21
146.9918610293102859
 31
0.0
  0
LINE
  5
C00F
  8
0
 10
957.946822374263661
 20
146.9799296352148019
 30
0.0
 11
957.946549823461055
 21
146.997747255580606
 31
0.0
  0
LINE
  5
C010
  8
0
 10
957.9271373349299665
 20
146.9817046757873129
 30
0.0
 11
957.9271373348892666
 21
146.9995602083104984
 31
0.0
  0
LINE
  5
C011
  8
0
 10
957.862038571411972
 20
147.0329987840254944
 30
0.0
 11
957.8714596356636548
 21
147.04191107231469
 31
0.0
  0
LINE
  5
C012
  8
0
 10
957.8714596356636548
 20
147.04191107231469
 30
0.0
 11
957.8911446750040568
 21
147.0381650678650942
 31
0.0
  0
LINE
  5
C013
  8
0
 10
957.8911446750040568
 20
147.0381650678650942
 30
0.0
 11
957.9009871946750536
 21
147.0256624507277934
 31
0.0
  0
LINE
  5
C014
  8
0
 10
957.9009871946750536
 20
147.0256624507277934
 30
0.0
 11
957.8911446751149015
 21
147.0168954792499107
 31
0.0
  0
LINE
  5
C015
  8
0
 10
957.8911446751149015
 20
147.0168954792499107
 30
0.0
 11
957.871459635514384
 21
147.0205728591699881
 31
0.0
  0
LINE
  5
C016
  8
0
 10
957.871459635514384
 20
147.0205728591699881
 30
0.0
 11
957.862038571411972
 21
147.0329987840254944
 31
0.0
  0
LINE
  5
C017
  8
0
 10
957.8911446751149015
 20
147.0168954792499107
 30
0.0
 11
957.8911446750040568
 21
147.0381650678650942
 31
0.0
  0
LINE
  5
C018
  8
0
 10
957.871459635514384
 20
147.0205728591699881
 30
0.0
 11
957.8714596356636548
 21
147.04191107231469
 31
0.0
  0
LINE
  5
C019
  8
0
 10
957.8616171159733312
 20
147.0009911700799137
 30
0.0
 11
957.8714596356212496
 21
147.0081580507194019
 31
0.0
  0
LINE
  5
C01A
  8
0
 10
957.8714596356212496
 20
147.0081580507194019
 30
0.0
 11
957.8911446749924608
 21
147.0045153834981875
 31
0.0
  0
LINE
  5
C01B
  8
0
 10
957.8911446749924608
 20
147.0045153834981875
 30
0.0
 11
957.9009871946625481
 21
146.9937485815225955
 31
0.0
  0
LINE
  5
C01C
  8
0
 10
957.9009871946625481
 20
146.9937485815225955
 30
0.0
 11
957.891144674963698
 21
146.9866029502146887
 31
0.0
  0
LINE
  5
C01D
  8
0
 10
957.891144674963698
 20
146.9866029502146887
 30
0.0
 11
957.871459635633073
 21
146.9902031209462905
 31
0.0
  0
LINE
  5
C01E
  8
0
 10
957.871459635633073
 20
146.9902031209462905
 30
0.0
 11
957.8616171159733312
 21
147.0009911700799137
 31
0.0
  0
LINE
  5
C01F
  8
0
 10
957.891144674963698
 20
146.9866029502146887
 30
0.0
 11
957.8911446749924608
 21
147.0045153834981875
 31
0.0
  0
LINE
  5
C020
  8
0
 10
957.871459635633073
 20
146.9902031209462905
 30
0.0
 11
957.8714596356212496
 21
147.0081580507194019
 31
0.0
  0
LINE
  5
C021
  8
0
 10
957.8616171159259238
 20
147.0709723893064904
 30
0.0
 11
957.8714596355964659
 21
147.0816053521915876
 31
0.0
  0
LINE
  5
C022
  8
0
 10
957.8714596355964659
 20
147.0816053521915876
 30
0.0
 11
957.8912618616743657
 21
147.0775272614496885
 31
0.0
  0
LINE
  5
C023
  8
0
 10
957.8912618616743657
 20
147.0775272614496885
 30
0.0
 11
957.9009871946559542
 21
147.0632736857583041
 31
0.0
  0
LINE
  5
C024
  8
0
 10
957.9009871946559542
 20
147.0632736857583041
 30
0.0
 11
957.891144674963698
 21
147.0527581050812955
 31
0.0
  0
LINE
  5
C025
  8
0
 10
957.891144674963698
 20
147.0527581050812955
 30
0.0
 11
957.8714596355699769
 21
147.0565573288137955
 31
0.0
  0
LINE
  5
C026
  8
0
 10
957.8714596355699769
 20
147.0565573288137955
 30
0.0
 11
957.8616171159259238
 21
147.0709723893064904
 31
0.0
  0
LINE
  5
C027
  8
0
 10
957.891144674963698
 20
147.0527581050812955
 30
0.0
 11
957.8912618616743657
 21
147.0775272614496885
 31
0.0
  0
LINE
  5
C028
  8
0
 10
957.8714596355699769
 20
147.0565573288137955
 30
0.0
 11
957.8714596355964659
 21
147.0816053521915876
 31
0.0
  0
LINE
  5
C029
  8
0
 10
957.8337782662283644
 20
147.0583161998322907
 30
0.0
 11
957.8436207860042941
 21
147.0675915850636102
 31
0.0
  0
LINE
  5
C02A
  8
0
 10
957.8436207860042941
 20
147.0675915850636102
 30
0.0
 11
957.8633058252939918
 21
147.0627631383952973
 31
0.0
  0
LINE
  5
C02B
  8
0
 10
957.8633058252939918
 20
147.0627631383952973
 30
0.0
 11
957.8731483450721953
 21
147.0487698710118138
 31
0.0
  0
LINE
  5
C02C
  8
0
 10
957.8731483450721953
 20
147.0487698710118138
 30
0.0
 11
957.8633058252941055
 21
147.0395813671692054
 31
0.0
  0
LINE
  5
C02D
  8
0
 10
957.8633058252941055
 20
147.0395813671692054
 30
0.0
 11
957.843620785946996
 21
147.0443007988257875
 31
0.0
  0
LINE
  5
C02E
  8
0
 10
957.843620785946996
 20
147.0443007988257875
 30
0.0
 11
957.8337782662283644
 21
147.0583161998322907
 31
0.0
  0
LINE
  5
C02F
  8
0
 10
957.8633058252941055
 20
147.0395813671692054
 30
0.0
 11
957.8633058252939918
 21
147.0627631383952973
 31
0.0
  0
LINE
  5
C030
  8
0
 10
957.843620785946996
 20
147.0443007988257875
 30
0.0
 11
957.8436207860042941
 21
147.0675915850636102
 31
0.0
  0
LINE
  5
C031
  8
0
 10
957.8337782662671316
 20
147.0231766509853912
 30
0.0
 11
957.8434417145168709
 21
147.030575751185296
 31
0.0
  0
LINE
  5
C032
  8
0
 10
957.8434417145168709
 20
147.030575751185296
 30
0.0
 11
957.8633058253635681
 21
147.0260557843089089
 31
0.0
  0
LINE
  5
C033
  8
0
 10
957.8633058253635681
 20
147.0260557843089089
 30
0.0
 11
957.8731483450169435
 21
147.0139215593503081
 31
0.0
  0
LINE
  5
C034
  8
0
 10
957.8731483450169435
 20
147.0139215593503081
 30
0.0
 11
957.8633058253635681
 21
147.0064146112146943
 31
0.0
  0
LINE
  5
C035
  8
0
 10
957.8633058253635681
 20
147.0064146112146943
 30
0.0
 11
957.8436207859948581
 21
147.0110069567971038
 31
0.0
  0
LINE
  5
C036
  8
0
 10
957.8436207859948581
 20
147.0110069567971038
 30
0.0
 11
957.8337782662671316
 21
147.0231766509853912
 31
0.0
  0
LINE
  5
C037
  8
0
 10
957.8633058253635681
 20
147.0064146112146943
 30
0.0
 11
957.8633058253635681
 21
147.0260557843089089
 31
0.0
  0
LINE
  5
C038
  8
0
 10
957.8436207859948581
 20
147.0110069567971038
 30
0.0
 11
957.8434417145168709
 21
147.030575751185296
 31
0.0
  0
LINE
  5
C039
  8
0
 10
957.8059394166809852
 20
147.0159144572945138
 30
0.0
 11
957.8157819363636918
 21
147.0221805763173109
 31
0.0
  0
LINE
  5
C03A
  8
0
 10
957.8157819363636918
 20
147.0221805763173109
 30
0.0
 11
957.8354669756636213
 21
147.0165790809147097
 31
0.0
  0
LINE
  5
C03B
  8
0
 10
957.8354669756636213
 20
147.0165790809147097
 30
0.0
 11
957.8453094953565596
 21
147.0047802442591092
 31
0.0
  0
LINE
  5
C03C
  8
0
 10
957.8453094953565596
 20
147.0047802442591092
 30
0.0
 11
957.8354669756636213
 21
146.9985236753148001
 31
0.0
  0
LINE
  5
C03D
  8
0
 10
957.8354669756636213
 20
146.9985236753148001
 30
0.0
 11
957.8157819363656245
 21
147.0040565515380138
 31
0.0
  0
LINE
  5
C03E
  8
0
 10
957.8157819363656245
 20
147.0040565515380138
 30
0.0
 11
957.8059394166809852
 21
147.0159144572945138
 31
0.0
  0
LINE
  5
C03F
  8
0
 10
957.8354669756636213
 20
146.9985236753148001
 30
0.0
 11
957.8354669756636213
 21
147.0165790809147097
 31
0.0
  0
LINE
  5
C040
  8
0
 10
957.8157819363656245
 20
147.0040565515380138
 30
0.0
 11
957.8157819363636918
 21
147.0221805763173109
 31
0.0
  0
LINE
  5
C041
  8
0
 10
957.8059394166645006
 20
147.0483957303237901
 30
0.0
 11
957.8160993404437704
 21
147.0562466723436899
 31
0.0
  0
LINE
  5
C042
  8
0
 10
957.8160993404437704
 20
147.0562466723436899
 30
0.0
 11
957.8354669756472504
 21
147.0505767693553878
 31
0.0
  0
LINE
  5
C043
  8
0
 10
957.8354669756472504
 20
147.0505767693553878
 30
0.0
 11
957.845309495368042
 21
147.0369703068946023
 31
0.0
  0
LINE
  5
C044
  8
0
 10
957.845309495368042
 20
147.0369703068946023
 30
0.0
 11
957.8357320542754678
 21
147.0292798403760912
 31
0.0
  0
LINE
  5
C045
  8
0
 10
957.8357320542754678
 20
147.0292798403760912
 30
0.0
 11
957.8157819362965029
 21
147.0347336590590999
 31
0.0
  0
LINE
  5
C046
  8
0
 10
957.8157819362965029
 20
147.0347336590590999
 30
0.0
 11
957.8059394166645006
 21
147.0483957303237901
 31
0.0
  0
LINE
  5
C047
  8
0
 10
957.8357320542754678
 20
147.0292798403760912
 30
0.0
 11
957.8354669756472504
 21
147.0505767693553878
 31
0.0
  0
LINE
  5
C048
  8
0
 10
957.8157819362965029
 20
147.0347336590590999
 30
0.0
 11
957.8160993404437704
 21
147.0562466723436899
 31
0.0
  0
LINE
  5
C049
  8
0
 10
957.8094593999177278
 20
147.0811702945377135
 30
0.0
 11
957.8106896489654218
 21
147.0823486418686059
 31
0.0
  0
LINE
  5
C04A
  8
0
 10
957.8322338200388231
 20
147.087037165262501
 30
0.0
 11
957.8354669756636213
 21
147.0870814161390001
 31
0.0
  0
LINE
  5
C04B
  8
0
 10
957.8371009927373052
 20
147.0879620228047884
 30
0.0
 11
957.8453094953151776
 21
147.0750055730534882
 31
0.0
  0
LINE
  5
C04C
  8
0
 10
957.8453094953151776
 20
147.0750055730534882
 30
0.0
 11
957.8354669756636213
 21
147.0653492240687115
 31
0.0
  0
LINE
  5
C04D
  8
0
 10
957.8354669756636213
 20
147.0653492240687115
 30
0.0
 11
957.8157819362960481
 21
147.071204583266109
 31
0.0
  0
LINE
  5
C04E
  8
0
 10
957.8157819362960481
 20
147.071204583266109
 30
0.0
 11
957.8094593999177278
 21
147.0811702945377135
 31
0.0
  0
LINE
  5
C04F
  8
0
 10
957.8354669756636213
 20
147.0653492240687115
 30
0.0
 11
957.8354669756636213
 21
147.0876549116968874
 31
0.0
  0
LINE
  5
C050
  8
0
 10
957.8157819362960481
 20
147.071204583266109
 30
0.0
 11
957.8154368580803748
 21
147.0834791154262007
 31
0.0
  0
LINE
  5
C051
  8
0
 10
957.8707384627890633
 20
147.0935305845634105
 30
0.0
 11
957.8731483449646475
 21
147.0896793772324997
 31
0.0
  0
LINE
  5
C052
  8
0
 10
957.8731483449646475
 20
147.0896793772324997
 30
0.0
 11
957.8633058253635681
 21
147.078645915314695
 31
0.0
  0
LINE
  5
C053
  8
0
 10
957.8633058253635681
 20
147.078645915314695
 30
0.0
 11
957.8436207860248714
 21
147.0835581089712036
 31
0.0
  0
LINE
  5
C054
  8
0
 10
957.8436207860248714
 20
147.0835581089712036
 30
0.0
 11
957.840481224346604
 21
147.0885864966016072
 31
0.0
  0
LINE
  5
C055
  8
0
 10
957.8633058253635681
 20
147.078645915314695
 30
0.0
 11
957.8633058253635681
 21
147.0924231311153108
 31
0.0
  0
LINE
  5
C056
  8
0
 10
957.8436207860248714
 20
147.0835581089712036
 30
0.0
 11
957.8436207859508613
 21
147.0891534464894903
 31
0.0
  0
LINE
  5
C057
  8
0
 10
957.7781005686205162
 20
147.0412044313520994
 30
0.0
 11
957.7879430866635175
 21
147.0278551833164897
 31
0.0
  0
LINE
  5
C058
  8
0
 10
957.7879430866635175
 20
147.0278551833164897
 30
0.0
 11
957.8076281259582174
 21
147.0212267393287959
 31
0.0
  0
LINE
  5
C059
  8
0
 10
957.8076281259582174
 20
147.0212267393287959
 30
0.0
 11
957.817470645684466
 21
147.0278390043592935
 31
0.0
  0
LINE
  5
C05A
  8
0
 10
957.817470645684466
 20
147.0278390043592935
 30
0.0
 11
957.8076281259975531
 21
147.0411013919799075
 31
0.0
  0
LINE
  5
C05B
  8
0
 10
957.8076281259975531
 20
147.0411013919799075
 30
0.0
 11
957.7879430866188386
 21
147.0478388394832052
 31
0.0
  0
LINE
  5
C05C
  8
0
 10
957.7879430866188386
 20
147.0478388394832052
 30
0.0
 11
957.7781005686205162
 21
147.0412044313520994
 31
0.0
  0
LINE
  5
C05D
  8
0
 10
957.7500469408745403
 20
147.0357571392657121
 30
0.0
 11
957.7598894589176552
 21
147.0224078912301025
 31
0.0
  0
LINE
  5
C05E
  8
0
 10
957.7598894589176552
 20
147.0224078912301025
 30
0.0
 11
957.7795744982120141
 21
147.015779447242295
 31
0.0
  0
LINE
  5
C05F
  8
0
 10
957.7795744982120141
 20
147.015779447242295
 30
0.0
 11
957.7894170179384901
 21
147.0223917122727926
 31
0.0
  0
LINE
  5
C060
  8
0
 10
957.7894170179384901
 20
147.0223917122727926
 30
0.0
 11
957.7795744982513497
 21
147.0356540998934918
 31
0.0
  0
LINE
  5
C061
  8
0
 10
957.7795744982513497
 20
147.0356540998934918
 30
0.0
 11
957.7598894588727489
 21
147.0423915473967895
 31
0.0
  0
LINE
  5
C062
  8
0
 10
957.7598894588727489
 20
147.0423915473967895
 30
0.0
 11
957.7500469408745403
 21
147.0357571392657121
 31
0.0
  0
LINE
  5
C063
  8
0
 10
957.7788128373056225
 20
147.073282453750295
 30
0.0
 11
957.7875282626332591
 21
147.0614618633356088
 31
0.0
  0
LINE
  5
C064
  8
0
 10
957.7875282626332591
 20
147.0614618633356088
 30
0.0
 11
957.8072133019277317
 21
147.0548334193478013
 31
0.0
  0
LINE
  5
C065
  8
0
 10
957.8072133019277317
 20
147.0548334193478013
 30
0.0
 11
957.8170558216543213
 21
147.0614456843784126
 31
0.0
  0
LINE
  5
C066
  8
0
 10
957.8170558216543213
 20
147.0614456843784126
 30
0.0
 11
957.807213301967181
 21
147.0747080719989981
 31
0.0
  0
LINE
  5
C067
  8
0
 10
957.807213301967181
 20
147.0747080719989981
 30
0.0
 11
957.7960838491297864
 21
147.0785172644924046
 31
0.0
  0
LINE
  5
C068
  8
0
 10
957.7530810329340056
 20
147.0640056421489135
 30
0.0
 11
957.7604904484181816
 21
147.0539563717628084
 31
0.0
  0
LINE
  5
C069
  8
0
 10
957.7604904484181816
 20
147.0539563717628084
 30
0.0
 11
957.7801754877126541
 21
147.0473279277750009
 31
0.0
  0
LINE
  5
C06A
  8
0
 10
957.7801754877126541
 20
147.0473279277750009
 30
0.0
 11
957.7900180074392438
 21
147.0539401928054986
 31
0.0
  0
LINE
  5
C06B
  8
0
 10
957.7900180074392438
 20
147.0539401928054986
 30
0.0
 11
957.7801754877523308
 21
147.0672025804261978
 31
0.0
  0
LINE
  5
C06C
  8
0
 10
957.7801754877523308
 20
147.0672025804261978
 30
0.0
 11
957.7705452711009002
 21
147.0704986408447041
 31
0.0
  0
LINE
  5
C06D
  8
0
 10
957.7290460966790988
 20
147.053455602781213
 30
0.0
 11
957.7324447881262586
 21
147.0488460125395136
 31
0.0
  0
LINE
  5
C06E
  8
0
 10
957.7324447881262586
 20
147.0488460125395136
 30
0.0
 11
957.7521298274207311
 21
147.0422175685517061
 31
0.0
  0
LINE
  5
C06F
  8
0
 10
957.7521298274207311
 20
147.0422175685517061
 30
0.0
 11
957.7619723471473208
 21
147.048829833582289
 31
0.0
  0
LINE
  5
C070
  8
0
 10
957.7619723471473208
 20
147.048829833582289
 30
0.0
 11
957.7521298274601804
 21
147.0620922212029029
 31
0.0
  0
LINE
  5
C071
  8
0
 10
957.7521298274601804
 20
147.0620922212029029
 30
0.0
 11
957.750066340135163
 21
147.062798475188913
 31
0.0
  0
LINE
  5
C072
  8
0
 10
957.7324447881262586
 20
147.0488460125395136
 30
0.0
 11
957.7324447881262586
 21
147.0551541811354923
 31
0.0
  0
LINE
  5
C073
  8
0
 10
957.7521298274207311
 20
147.0422175685517061
 30
0.0
 11
957.7521298274601804
 21
147.0620922212029029
 31
0.0
  0
LINE
  5
C074
  8
0
 10
957.7604904484181816
 20
147.0539563717628084
 30
0.0
 11
957.7604904484181816
 21
147.0668635572100129
 31
0.0
  0
LINE
  5
C075
  8
0
 10
957.7801754877126541
 20
147.0473279277750009
 30
0.0
 11
957.7801754877523308
 21
147.0672025804261978
 31
0.0
  0
LINE
  5
C076
  8
0
 10
957.7795744982120141
 20
147.015779447242295
 30
0.0
 11
957.7795744982513497
 21
147.0356540998934918
 31
0.0
  0
LINE
  5
C077
  8
0
 10
957.7598894589176552
 20
147.0224078912301025
 30
0.0
 11
957.7598894588727489
 21
147.0423915473967895
 31
0.0
  0
LINE
  5
C078
  8
0
 10
957.8076281259582174
 20
147.0212267393287959
 30
0.0
 11
957.8076281259975531
 21
147.0411013919799075
 31
0.0
  0
LINE
  5
C079
  8
0
 10
957.7879430866635175
 20
147.0278551833164897
 30
0.0
 11
957.7879430866188386
 21
147.0478388394832052
 31
0.0
  0
LINE
  5
C07A
  8
0
 10
957.8072133019277317
 20
147.0548334193478013
 30
0.0
 11
957.807213301967181
 21
147.0747080719989981
 31
0.0
  0
LINE
  5
C07B
  8
0
 10
957.7875282626332591
 20
147.0614618633356088
 30
0.0
 11
957.7875282626332591
 21
147.0760209878635862
 31
0.0
  0
LINE
  5
C07C
  8
0
 10
957.899298485237523
 20
146.9997680871107946
 30
0.0
 11
957.8992984852635573
 21
147.0193087850146867
 31
0.0
  0
LINE
  5
C07D
  8
0
 10
957.9191156002449361
 20
146.9973776215128964
 30
0.0
 11
957.9188949741776469
 21
147.0167765332946885
 31
0.0
  0
LINE
  5
C07E
  8
0
 10
957.9266650161534926
 20
147.0120722979218044
 30
0.0
 11
957.9271373349461101
 21
147.0330716619770044
 31
0.0
  0
LINE
  5
C07F
  8
0
 10
957.9470555369192653
 20
147.010302476056296
 30
0.0
 11
957.9468868779645163
 21
147.0311490907199925
 31
0.0
  0
LINE
  5
C080
  8
0
 10
957.9547921953061405
 20
147.0266591414502955
 30
0.0
 11
957.9549761846052434
 21
147.049510996840894
 31
0.0
  0
LINE
  5
C081
  8
0
 10
957.9744772348099104
 20
147.0257083695674112
 30
0.0
 11
957.9746612239636079
 21
147.0485754305146884
 31
0.0
  0
LINE
  5
C082
  8
0
 10
957.9189835246635312
 20
147.0299804881105956
 30
0.0
 11
957.9189835245982749
 21
147.052946744802
 31
0.0
  0
LINE
  5
C083
  8
0
 10
957.8992984852635573
 20
147.0557826202146998
 30
0.0
 11
957.8992984852635573
 21
147.0327549268666019
 31
0.0
  0
LINE
  5
C084
  8
0
 10
957.9468223743018598
 20
147.0457233375572912
 30
0.0
 11
957.946822374263661
 21
147.070484266014688
 31
0.0
  0
LINE
  5
C085
  8
0
 10
957.9271373349318992
 20
147.0475935847763083
 30
0.0
 11
957.9271373349635041
 21
147.0724031796798954
 31
0.0
  0
LINE
  5
C086
  8
0
 10
957.9746612239850947
 20
147.0642213940639067
 30
0.0
 11
957.9746612239550814
 21
147.0909116596801027
 31
0.0
  0
LINE
  5
C087
  8
0
 10
957.9549761844813247
 20
147.065172165946791
 30
0.0
 11
957.9549761845637477
 21
147.0918913895544904
 31
0.0
  0
LINE
  5
C088
  8
0
 10
957.9189835246635312
 20
147.0686642418147017
 30
0.0
 11
957.9189835246154416
 21
147.0954908045345917
 31
0.0
  0
LINE
  5
C089
  8
0
 10
957.8992984852635573
 20
147.071547195814702
 30
0.0
 11
957.8992984852635573
 21
147.0971441817067955
 31
0.0
  0
LINE
  5
C08A
  8
0
 10
957.9745489787845827
 20
146.9929474775262008
 30
0.0
 11
957.9743283527172935
 21
147.0123463893079077
 31
0.0
  0
LINE
  5
C08B
  8
0
 10
957.954863939280699
 20
146.9938982494089998
 30
0.0
 11
957.9549761846100182
 21
147.0132418460136989
 31
0.0
  0
LINE
  5
C08C
  8
0
 10
957.7241115770635815
 20
147.0141000292111073
 30
0.0
 11
957.7241115770635815
 21
147.0291740251147132
 31
0.0
  0
LINE
  5
C08D
  8
0
 10
957.7044265376935073
 20
147.0240171687538009
 30
0.0
 11
957.7044265376935073
 21
147.0374574456293999
 31
0.0
  0
LINE
  5
C08E
  8
0
 10
957.7044265376227941
 20
147.0038770661824969
 30
0.0
 11
957.7044265376637213
 21
147.0155384098372906
 31
0.0
  0
LINE
  5
C08F
  8
0
 10
957.7241115770088982
 20
146.9939819535410948
 30
0.0
 11
957.7241115771291788
 21
147.0056432973123037
 31
0.0
  0
LINE
  5
C090
  8
0
 10
957.7322653872977298
 20
147.0128564225051093
 30
0.0
 11
957.7322653873346781
 21
146.9995091161553091
 31
0.0
  0
LINE
  5
C091
  8
0
 10
957.7044265376637213
 20
146.9894146069113106
 30
0.0
 11
957.7044265376637213
 21
146.9975927233402899
 31
0.0
  0
LINE
  5
C092
  8
0
 10
957.7241115770490296
 20
146.9794268919580986
 30
0.0
 11
957.7241115771030309
 21
146.9876755836596089
 31
0.0
  0
LINE
  5
C093
  8
0
 10
957.7322653873635545
 20
146.9821521840146943
 30
0.0
 11
957.7322653873635545
 21
146.9921290203147066
 31
0.0
  0
LINE
  5
C094
  8
0
 10
957.7519504266739432
 20
147.0015048179614894
 30
0.0
 11
957.7519504267636421
 21
146.9898434741147071
 31
0.0
  0
LINE
  5
C095
  8
0
 10
957.7322653873635545
 20
146.9703668656148068
 30
0.0
 11
957.7322653873635545
 21
146.9769132895310122
 31
0.0
  0
LINE
  5
C096
  8
0
 10
957.7519504267659158
 20
146.9615408786372086
 30
0.0
 11
957.7519504267659158
 21
146.9647530201818881
 31
0.0
  0
LINE
  5
C097
  8
0
 10
957.7322653873173977
 20
146.9673442631709861
 30
0.0
 11
957.7322653873289937
 21
146.964407972172495
 31
0.0
  0
LINE
  5
C098
  8
0
 10
957.7519504264697616
 20
146.9584403248049114
 30
0.0
 11
957.7519504266987269
 21
146.955343830955286
 31
0.0
  0
LINE
  5
C099
  8
0
 10
957.7601042369906281
 20
146.959197572701413
 30
0.0
 11
957.7601042369635707
 21
146.9542550868806927
 31
0.0
  0
LINE
  5
C09A
  8
0
 10
957.7797892763516074
 20
146.9465048278310064
 30
0.0
 11
957.779789276452675
 21
146.9515494093541861
 31
0.0
  0
LINE
  5
C09B
  8
0
 10
957.7879430866635175
 20
146.9475208368351957
 30
0.0
 11
957.7879430866635175
 21
146.9509325102800119
 31
0.0
  0
LINE
  5
C09C
  8
0
 10
957.8076281261124905
 20
146.9409456112481109
 30
0.0
 11
957.8076281261124905
 21
146.944387821822005
 31
0.0
  0
LINE
  5
C09D
  8
0
 10
957.7879430866635175
 20
146.940963022114687
 30
0.0
 11
957.7879430866270241
 21
146.9443020537590883
 31
0.0
  0
LINE
  5
C09E
  8
0
 10
957.8076281260634914
 20
146.9342255747147021
 30
0.0
 11
957.8076281259943698
 21
146.9376736097163132
 31
0.0
  0
LINE
  5
C09F
  8
0
 10
957.8157819362968439
 20
146.9343476537200956
 30
0.0
 11
957.8157819362968439
 21
146.939742878453302
 31
0.0
  0
LINE
  5
C0A0
  8
0
 10
957.8354669756636213
 20
146.9287461583147092
 30
0.0
 11
957.8354669756636213
 21
146.9340134403147999
 31
0.0
  0
LINE
  5
C0A1
  8
0
 10
957.8436207860023615
 20
146.9308052765209993
 30
0.0
 11
957.8436207860023615
 21
146.9342773918241107
 31
0.0
  0
LINE
  5
C0A2
  8
0
 10
957.8633058253316221
 20
146.9262476435135909
 30
0.0
 11
957.8633058253316221
 21
146.9297398324771109
 31
0.0
  0
LINE
  5
C0A3
  8
0
 10
957.8436207859637079
 20
146.9274538271147037
 30
0.0
 11
957.8436207859874685
 21
146.9238432568947985
 31
0.0
  0
LINE
  5
C0A4
  8
0
 10
957.8633058253154786
 20
146.9191799670315106
 30
0.0
 11
957.8633058253635681
 21
146.9228614816229026
 31
0.0
  0
LINE
  5
C0A5
  8
0
 10
957.8714596355910089
 20
146.9179768347052004
 30
0.0
 11
957.8714596355910089
 21
146.9162032052950906
 31
0.0
  0
LINE
  5
C0A6
  8
0
 10
957.891144674963698
 20
146.9142994548193997
 30
0.0
 11
957.891144674963698
 21
146.912430281315892
 31
0.0
  0
LINE
  5
C0A7
  8
0
 10
957.8911446749463039
 20
146.9166824608736874
 30
0.0
 11
957.8911446749990546
 21
146.9220927151567935
 31
0.0
  0
LINE
  5
C0A8
  8
0
 10
957.8714596356020365
 20
146.9203251281477094
 30
0.0
 11
957.8714596356636548
 21
146.9256928859159927
 31
0.0
  0
LINE
  5
C0A9
  8
0
 10
957.8354669756636213
 20
146.9264799978629128
 30
0.0
 11
957.8354669756636213
 21
146.9248917342330003
 31
0.0
  0
LINE
  5
C0AA
  8
0
 10
957.8157819362771761
 20
146.9321376346879902
 30
0.0
 11
957.8157819362771761
 21
146.9306486726881076
 31
0.0
  0
LINE
  5
C0AB
  8
0
 10
957.7797892763250047
 20
146.944421021388905
 30
0.0
 11
957.7797892763250047
 21
146.9431022608210071
 31
0.0
  0
LINE
  5
C0AC
  8
0
 10
957.760104237001201
 20
146.9522550258757008
 30
0.0
 11
957.760104237001201
 21
146.9510169957000016
 31
0.0
  0
LINE
  5
C0AD
  8
0
 10
957.8992984852635573
 20
146.9196503168147956
 30
0.0
 11
957.8992984852635573
 21
146.9231616601146868
 31
0.0
  0
LINE
  5
C0AE
  8
0
 10
957.9189835246635312
 20
146.9169673752147958
 30
0.0
 11
957.9189835246635312
 21
146.9204901415147049
 31
0.0
  0
LINE
  5
C0AF
  8
0
 10
957.8992984853057351
 20
146.9124329676646994
 30
0.0
 11
957.8992984852635573
 21
146.9162149575147112
 31
0.0
  0
LINE
  5
C0B0
  8
0
 10
957.9189835246805842
 20
146.9096902349876075
 30
0.0
 11
957.9189835246816074
 21
146.9135123547821138
 31
0.0
  0
LINE
  5
C0B1
  8
0
 10
957.9271373349635041
 20
146.909120445734203
 30
0.0
 11
957.9271373349635041
 21
146.9072588218811859
 31
0.0
  0
LINE
  5
C0B2
  8
0
 10
957.946822374263661
 20
146.9074858018134933
 30
0.0
 11
957.946822374263661
 21
146.9053602402017873
 31
0.0
  0
LINE
  5
C0B3
  8
0
 10
957.9271373349647547
 20
146.9117272856576051
 30
0.0
 11
957.9271373349635041
 21
146.9171944408089985
 31
0.0
  0
LINE
  5
C0B4
  8
0
 10
957.9468223743358521
 20
146.9099318816051891
 30
0.0
 11
957.946822374263661
 21
146.9154194003079965
 31
0.0
  0
LINE
  5
C0B5
  8
0
 10
957.9549761846267302
 20
146.9063660286707034
 30
0.0
 11
957.9551512856642148
 21
146.9102283070106125
 31
0.0
  0
LINE
  5
C0B6
  8
0
 10
957.9746612239636079
 20
146.9054605914147089
 30
0.0
 11
957.9746607311418529
 21
146.9093438228165951
 31
0.0
  0
LINE
  5
C0B7
  8
0
 10
957.9746612239636079
 20
146.9128287736589868
 30
0.0
 11
957.9746612239636079
 21
146.9163645975326062
 31
0.0
  0
LINE
  5
C0B8
  8
0
 10
957.9549761845637477
 20
146.913714839105694
 30
0.0
 11
957.9549761845637477
 21
146.9172469518711921
 31
0.0
  0
ARC
  5
C0B9
  8
0
 10
957.9926523546145063
 20
147.5946277728970983
 30
0.0
 40
0.6220282424525847
 50
265.663391818882701
 51
269.2047571898881984
  0
ARC
  5
C0BA
  8
0
 10
958.0114821449891451
 20
147.8018684045287046
 30
0.0
 40
0.829935078476769
 50
261.4332897315335913
 51
264.2506152936331887
  0
ARC
  5
C0BB
  8
0
 10
957.9435478828211217
 20
147.3633830924291033
 30
0.0
 40
0.3856598878384494
 50
253.4633841826423861
 51
259.4088420075057115
  0
ARC
  5
C0BC
  8
0
 10
957.8827647635453104
 20
147.2603881893051039
 30
0.0
 40
0.2701533140340567
 50
247.2056187764233925
 51
256.0135261358054777
  0
LINE
  5
C0BD
  8
0
 10
957.7224228676540179
 20
147.0352118384982987
 30
0.0
 11
957.7322653873635545
 21
147.0223806297626084
 31
0.0
  0
LINE
  5
C0BE
  8
0
 10
957.7322653873635545
 20
147.0223806297626084
 30
0.0
 11
957.743971948163562
 21
147.0170842623147109
 31
0.0
  0
LINE
  5
C0BF
  8
0
 10
957.743971948163562
 20
147.0170842623147109
 30
0.0
 11
957.7488807731635916
 21
147.0226278481146949
 31
0.0
  0
LINE
  5
C0C0
  8
0
 10
957.7488807731635916
 20
147.0226278481146949
 30
0.0
 11
957.7613083280909905
 21
147.0174350862484118
 31
0.0
  0
LINE
  5
C0C1
  8
0
 10
957.7613083280909905
 20
147.0174350862484118
 30
0.0
 11
957.7617929464636291
 21
147.0176482504147089
 31
0.0
  0
LINE
  5
C0C2
  8
0
 10
957.7617929464636291
 20
147.0176482504147089
 30
0.0
 11
957.7519504267801267
 21
147.0303309065002111
 31
0.0
  0
LINE
  5
C0C3
  8
0
 10
957.7519504267801267
 20
147.0303309065002111
 30
0.0
 11
957.7322653873413856
 21
147.0391568935527005
 31
0.0
  0
LINE
  5
C0C4
  8
0
 10
957.7322653873413856
 20
147.0391568935527005
 30
0.0
 11
957.7224228676540179
 21
147.0352118384982987
 31
0.0
  0
LINE
  5
C0C5
  8
0
 10
957.7322653873635545
 20
147.0223806297626084
 30
0.0
 11
957.7322653873413856
 21
147.0391568935527005
 31
0.0
  0
LINE
  5
C0C6
  8
0
 10
957.7519504267801267
 20
147.0303309065002111
 30
0.0
 11
957.7519504267801267
 21
147.0213452160656118
 31
0.0
  0
LINE
  5
C0C7
  8
0
 10
957.7879430866369148
 20
147.0163108647815022
 30
0.0
 11
957.8076281260275664
 21
147.009735639236311
 31
0.0
  0
LINE
  5
C0C8
  8
0
 10
957.8436207859502929
 20
146.999595304406796
 30
0.0
 11
957.8633058253237778
 21
146.9950376713881894
 31
0.0
  0
LINE
  5
C0C9
  8
0
 10
957.8992984852089876
 20
146.9884403447458965
 30
0.0
 11
957.9189835246296525
 21
146.9857574031294973
 31
0.0
  0
LINE
  5
C0CA
  8
0
 10
957.9549761846703859
 20
146.9825048669520129
 30
0.0
 11
957.9746612239912338
 21
146.9816188015246041
 31
0.0
  0
LINE
  5
C0CB
  8
0
 10
957.9549761846703859
 20
146.9825048669520129
 30
0.0
 11
957.9456171626635523
 21
146.9743803826351893
 31
0.0
  0
LINE
  5
C0CC
  8
0
 10
957.9840191252636714
 20
146.9726594443147007
 30
0.0
 11
957.9746612239912338
 21
146.9816188015246041
 31
0.0
  0
LINE
  5
C0CD
  8
0
 10
957.9283414259635947
 20
146.9761082363646949
 30
0.0
 11
957.9189835246296525
 21
146.9857574031294973
 31
0.0
  0
LINE
  5
C0CE
  8
0
 10
957.8878543222639337
 20
146.9811928316410103
 30
0.0
 11
957.8992984852089876
 21
146.9884403447458965
 31
0.0
  0
LINE
  5
C0CF
  8
0
 10
957.8726637266637454
 20
146.9842934124147007
 30
0.0
 11
957.8633058253237778
 21
146.9950376713881894
 31
0.0
  0
LINE
  5
C0D0
  8
0
 10
957.8337782662636073
 20
146.9936748556146995
 30
0.0
 11
957.8436207859502929
 21
146.999595304406796
 31
0.0
  0
LINE
  5
C0D1
  8
0
 10
957.8174706457016327
 20
146.9982441616054984
 30
0.0
 11
957.8076281260275664
 21
147.009735639236311
 31
0.0
  0
LINE
  5
C0D2
  8
0
 10
957.7781005669522756
 20
147.0113335386054132
 30
0.0
 11
957.7879430866369148
 21
147.0163108647815022
 31
0.0
  0
LINE
  5
C0D3
  8
0
 10
957.9207710987425344
 20
147.0991960062393105
 30
0.0
 11
957.9271373349635041
 21
147.0893611969744086
 31
0.0
  0
LINE
  5
C0D4
  8
0
 10
957.9271373349635041
 20
147.0893611969744086
 30
0.0
 11
957.9271373349635041
 21
147.0996953992965928
 31
0.0
  0
LINE
  5
C0D5
  8
0
 10
957.9571464574539732
 20
147.1013852163679019
 30
0.0
 11
957.9469695260137314
 21
147.0875991056834948
 31
0.0
  0
LINE
  5
C0D6
  8
0
 10
957.9469695260137314
 20
147.0875991056834948
 30
0.0
 11
957.9469695260137314
 21
147.1009332178421971
 31
0.0
  0
LINE
  5
C0D7
  8
0
 10
957.9271373349635041
 20
147.0893611969744086
 30
0.0
 11
957.9469695260137314
 21
147.0875991056834948
 31
0.0
  0
LINE
  5
C0D8
  8
0
 10
958.8784845822460738
 20
139.1964147923129076
 30
0.0
 11
958.8805519441636989
 21
139.0779757044147971
 31
0.0
  0
ARC
  5
C0D9
  8
0
 10
958.8587875826513027
 20
139.1960709799147082
 30
0.0
 40
0.0197
 50
0.99999997494435
 51
90.0
  0
LINE
  5
C0DA
  8
0
 10
958.6816346224655945
 20
139.2157709799147085
 30
0.0
 11
958.6816346224660492
 21
146.8801497975890129
 31
0.0
  0
ARC
  5
C0DB
  8
0
 10
990.359888468473855
 20
146.6663003557316074
 30
0.0
 40
31.6789756513038299
 50
178.7562380921723104
 51
179.6132209682401992
  0
ARC
  5
C0DC
  8
0
 10
958.5482078502569721
 20
147.352558768709514
 30
0.0
 40
0.1401753136043255
 50
0.5585813625233499
 51
15.5505106625479996
  0
ARC
  5
C0DD
  8
0
 10
961.3546918027672064
 20
148.0503387982288928
 30
0.0
 40
2.751809545037649
 50
183.6710213250092067
 51
193.881531219239406
  0
ARC
  5
C0DE
  8
0
 10
869.1790424719256407
 20
144.7653395207630069
 30
0.0
 40
89.4835050515416128
 50
1.990952456077911
 51
2.2330735158640018
  0
LINE
  5
C0DF
  8
0
 10
958.5945929340582552
 20
148.2520301957551112
 30
0.0
 11
958.5945929340582552
 21
148.4729540939146943
 31
0.0
  0
ARC
  5
C0E0
  8
0
 10
958.5748929340583118
 20
148.4729540939146943
 30
0.0
 40
0.0197
 50
359.9999999999869829
 51
90.0
  0
LINE
  5
C0E1
  8
0
 10
958.5941059933621773
 20
148.535961180514704
 30
0.0
 11
958.5941059933621773
 21
149.0366711385663052
 31
0.0
  0
LINE
  5
C0E2
  8
0
 10
958.5143110972638851
 20
148.4926540939146946
 30
0.0
 11
958.5143110972638851
 21
148.535961180514704
 31
0.0
  0
ARC
  5
C0E3
  8
0
 10
964.9014578997099534
 20
149.0393399165963046
 30
0.0
 40
6.307352470956773
 50
178.7414928461832915
 51
180.024243091362905
  0
ARC
  5
C0E4
  8
0
 10
962.983683868244043
 20
149.0814707782757864
 30
0.0
 40
4.3891157167286341
 50
177.6511511429376924
 51
178.7414928461832915
  0
ARC
  5
C0E5
  8
0
 10
958.5583546381742508
 20
149.2647194501668935
 30
0.0
 40
0.0400429513712445
 50
355.1771422803814744
 51
13.7666420770398297
  0
ARC
  5
C0E6
  8
0
 10
958.5470374894471206
 20
149.2581470490434015
 30
0.0
 40
0.0527283210338616
 50
17.7800778711940914
 51
40.6253049206924075
  0
ARC
  5
C0E7
  8
0
 10
958.486806175341826
 20
149.2103418195075903
 30
0.0
 40
0.1296025622181207
 50
39.3282022046071731
 51
44.2235827906183232
  0
ARC
  5
C0E8
  8
0
 10
958.2611505406348442
 20
149.0024464318078117
 30
0.0
 40
0.4363923682762247
 50
43.1202408701715285
 51
51.1039995134347578
  0
ARC
  5
C0E9
  8
0
 10
958.2032002366889856
 20
148.9246193386248933
 30
0.0
 40
0.5333649816588244
 50
51.508595667287743
 51
67.33467478540841
  0
ARC
  5
C0EA
  8
0
 10
958.1049407604468797
 20
148.6889290778206885
 30
0.0
 40
0.7887173032799791
 50
67.3456912765794868
 51
78.9022376284376179
  0
ARC
  5
C0EB
  8
0
 10
958.0195543003736702
 20
148.2800568560230943
 30
0.0
 40
1.2063899175658519
 50
78.6605641987483892
 51
87.1266238082522761
  0
ARC
  5
C0EC
  8
0
 10
957.9903077421854505
 20
147.7963266710920038
 30
0.0
 40
1.6909853105071531
 50
86.958531431038665
 51
89.4570019923767461
  0
ARC
  5
C0ED
  8
0
 10
958.3924866412072561
 20
149.424454647505911
 30
0.0
 40
0.2527759150607364
 50
268.6353365100923156
 51
295.9013334610597781
  0
ARC
  5
C0EE
  8
0
 10
958.3317711760106477
 20
149.4582696757647966
 30
0.0
 40
0.3122685869483785
 50
303.2322252327705883
 51
316.8995063532113932
  0
ARC
  5
C0EF
  8
0
 10
958.6035067384607373
 20
149.1943744915369052
 30
0.0
 40
0.0668242318740103
 50
106.1098989689084959
 51
130.8751694770417942
  0
ARC
  5
C0F0
  8
0
 10
958.5985639777366032
 20
149.2266947575683957
 30
0.0
 40
0.0346594362507287
 50
90.5094355967050461
 51
113.1026721022870021
  0
LINE
  5
C0F1
  8
0
 10
958.0714700062641214
 20
148.8562189856089901
 30
0.0
 11
958.0714700062641214
 21
148.806254556620388
 31
0.0
  0
ARC
  5
C0F2
  8
0
 10
957.9931618190147447
 20
147.7275814385575075
 30
0.0
 40
0.8562386610313087
 50
269.9662567667584767
 51
275.7303870743085099
  0
ARC
  5
C0F3
  8
0
 10
958.0045364257705387
 20
147.6142308920132962
 30
0.0
 40
0.7423188292164764
 50
275.7303870743085099
 51
286.7040104020730951
  0
ARC
  5
C0F4
  8
0
 10
958.0345592070598286
 20
147.5141851929506061
 30
0.0
 40
0.6378654458471923
 50
286.7040104020730951
 51
299.0357915180071018
  0
ARC
  5
C0F5
  8
0
 10
958.0208667431724052
 20
147.538850701429709
 30
0.0
 40
0.6660766293714518
 50
299.0357915180071018
 51
316.3042525556662099
  0
ARC
  5
C0F6
  8
0
 10
957.9233099273426433
 20
147.6320641674523984
 30
0.0
 40
0.8010065465980897
 50
316.3042525556662099
 51
325.9098705883220077
  0
ARC
  5
C0F7
  8
0
 10
957.799870252839014
 20
147.715608100219896
 30
0.0
 40
0.9500600334538413
 50
325.9098705883220077
 51
337.41725001503562
  0
ARC
  5
C0F8
  8
0
 10
958.6297981770578645
 20
147.3704355725546122
 30
0.0
 40
0.0512138657182121
 50
337.4172500150363021
 51
22.6272596364699012
  0
ARC
  5
C0F9
  8
0
 10
957.9709491117403104
 20
147.0958153286240133
 30
0.0
 40
0.7650054103907956
 50
22.627259636469141
 51
37.1617052798586229
  0
ARC
  5
C0FA
  8
0
 10
957.9511275316532419
 20
147.0807908008177947
 30
0.0
 40
0.7898777137210303
 50
37.1617052798586229
 51
56.9848726282925995
  0
ARC
  5
C0FB
  8
0
 10
958.0363955490366834
 20
147.1700377912283102
 30
0.0
 40
0.6689736756627469
 50
58.9442098681665598
 51
75.6245745260889208
  0
ARC
  5
C0FC
  8
0
 10
958.0045592554907898
 20
147.0473033320367904
 30
0.0
 40
0.795769509279467
 50
75.5981026467056978
 51
85.9729585109833891
  0
ARC
  5
C0FD
  8
0
 10
957.9680737194000812
 20
146.0605360849569934
 30
0.0
 40
1.782966338773887
 50
87.030344059547815
 51
89.2099712884845957
  0
ARC
  5
C0FE
  8
0
 10
957.9926906096012544
 20
147.852001563053193
 30
0.0
 40
0.9721065312085649
 50
269.9980517068295853
 51
272.9350236878623832
  0
ARC
  5
C0FF
  8
0
 10
957.9963725339839584
 20
147.7798858536816908
 30
0.0
 40
0.8998968930252011
 50
272.9360090858348258
 51
278.2765468206329729
  0
ARC
  5
C100
  8
0
 10
958.0308237836098897
 20
147.5430524909073995
 30
0.0
 40
0.6605709012822665
 50
278.2765468206329729
 51
284.8467314385055147
  0
ARC
  5
C101
  8
0
 10
958.0983685523071927
 20
147.2882474731887896
 30
0.0
 40
0.3969653383042049
 50
284.8467314385055147
 51
295.6259588096540938
  0
ARC
  5
C102
  8
0
 10
958.2030384275951747
 20
147.0700383569655969
 30
0.0
 40
0.1549508734560984
 50
295.6259588096540938
 51
312.7800840733236214
  0
ARC
  5
C103
  8
0
 10
958.2383288509404338
 20
147.0452020170484104
 30
0.0
 40
0.1131143651049457
 50
308.1994854129022201
 51
330.7486969431066086
  0
ARC
  5
C104
  8
0
 10
958.267338781372473
 20
147.0285129024790081
 30
0.0
 40
0.0796495851590575
 50
331.0260473715686089
 51
0.0925307757169476
  0
ARC
  5
C105
  8
0
 10
958.3001917450308156
 20
147.0824081097528904
 30
0.0
 40
0.0468022475863773
 50
0.896570086441025
 51
34.0200788355754611
  0
ARC
  5
C106
  8
0
 10
957.9924433643120665
 20
144.7197506708297112
 30
0.0
 40
2.4164189517778421
 50
88.65173845888485
 51
89.9949213429744646
  0
ARC
  5
C107
  8
0
 10
957.9944196541312067
 20
144.8037196642960964
 30
0.0
 40
2.3324267046046341
 50
83.9696117211722424
 51
88.65173845888485
  0
ARC
  5
C108
  8
0
 10
958.1100839370244557
 20
145.8986054626732027
 30
0.0
 40
1.231448440593444
 50
75.9205177390569048
 51
83.9696117211722424
  0
ARC
  5
C109
  8
0
 10
958.3560269963506926
 20
146.8792319405870046
 30
0.0
 40
0.2204507760974789
 50
61.6370972750808619
 51
75.9205177390569048
  0
ARC
  5
C10A
  8
0
 10
958.4491406786688685
 20
147.0517089177988908
 30
0.0
 40
0.0244444866498066
 50
31.6326799984444804
 51
61.6370972750804782
  0
ARC
  5
C10B
  8
0
 10
958.45903021469951
 20
147.059716351237995
 30
0.0
 40
0.0119365382773744
 50
332.2351099255478175
 51
23.7793961345950891
  0
ARC
  5
C10C
  8
0
 10
958.2946440580359422
 20
147.1794904886289999
 30
0.0
 40
0.2152109011281051
 50
313.6757242122787943
 51
324.3818260616992006
  0
ARC
  5
C10D
  8
0
 10
958.2270860697504986
 20
147.2911595658243868
 30
0.0
 40
0.3100331283129698
 50
291.9537994251488726
 51
316.4930207934477835
  0
LINE
  5
C10E
  8
0
 10
958.3469882626641265
 20
147.02864153385039
 30
0.0
 11
958.3469882626641265
 21
147.0831404461146974
 31
0.0
  0
ARC
  5
C10F
  8
0
 10
957.9926841964434061
 20
146.1865173409462102
 30
0.0
 40
0.915555774355896
 50
87.329705942537899
 51
90.0016672950818162
  0
ARC
  5
C110
  8
0
 10
957.9969911606614232
 20
146.2788637917585959
 30
0.0
 40
0.823108941427847
 50
78.9582256505007507
 51
87.329705942537899
  0
ARC
  5
C111
  8
0
 10
958.0705636181999125
 20
146.655893433485403
 30
0.0
 40
0.4389680073308954
 50
66.100704732524477
 51
78.9582256505007507
  0
ARC
  5
C112
  8
0
 10
958.1887541847027023
 20
146.922614463196112
 30
0.0
 40
0.1472333372963094
 50
43.8412194941001587
 51
66.100704732524477
  0
ARC
  5
C113
  8
0
 10
958.262115848343683
 20
146.9930671517855956
 30
0.0
 40
0.045520432403755
 50
1.6156583383019081
 51
43.8412194941007485
  0
ARC
  5
C114
  8
0
 10
958.2615426892587038
 20
146.9960430308451862
 30
0.0
 40
0.0461065674371603
 50
319.2830507907256106
 51
357.8963651917836728
  0
ARC
  5
C115
  8
0
 10
958.1738368074526306
 20
147.0862284219824119
 30
0.0
 40
0.1717742446949157
 50
295.2722571246761731
 51
315.5637576442007912
  0
ARC
  5
C116
  8
0
 10
958.0727208998017659
 20
147.3258891805942881
 30
0.0
 40
0.4318023702921977
 50
280.5393038343594867
 51
293.828712095811909
  0
ARC
  5
C117
  8
0
 10
958.0032851432305279
 20
147.6612432704600906
 30
0.0
 40
0.7742303855070503
 50
273.3325089639935754
 51
281.0517660962186142
  0
ARC
  5
C118
  8
0
 10
957.9927631599715596
 20
147.7975373584033889
 30
0.0
 40
0.9109093047638344
 50
269.9933574302967259
 51
273.4948750302149278
  0
ARC
  5
C119
  8
0
 10
957.9930212213710092
 20
147.5791914408841876
 30
0.0
 40
0.6207416225524695
 50
269.9664327185212755
 51
294.3489926380859174
  0
ARC
  5
C11A
  8
0
 10
957.9930872209214385
 20
147.543875326197707
 30
0.0
 40
0.6204354704252112
 50
269.9603241792264043
 51
294.3550974245324028
  0
ARC
  5
C11B
  8
0
 10
957.9904522571857797
 20
147.5064570337532075
 30
0.0
 40
0.6030134680070756
 50
270.2095384038806856
 51
293.9112682022134777
  0
ARC
  5
C11C
  8
0
 10
958.1288668979135537
 20
147.1948081268263024
 30
0.0
 40
0.262009735702341
 50
293.8637853612365234
 51
306.8440417807897802
  0
ARC
  5
C11D
  8
0
 10
958.252474933259009
 20
147.0298423736381039
 30
0.0
 40
0.0558722909551021
 50
306.8440417807893255
 51
338.7253061999111878
  0
LINE
  5
C11E
  8
0
 10
958.0401814409062808
 20
146.9176881289436949
 30
0.0
 11
958.0303389233639564
 21
146.913714839105694
 31
0.0
  0
LINE
  5
C11F
  8
0
 10
958.0303389233639564
 20
146.913714839105694
 30
0.0
 11
958.0106538839639825
 21
146.9128287736589868
 31
0.0
  0
LINE
  5
C120
  8
0
 10
958.0106538839639825
 20
146.9128287736589868
 30
0.0
 11
958.0008113642749095
 21
146.915923420363896
 31
0.0
  0
LINE
  5
C121
  8
0
 10
958.0008113642749095
 20
146.915923420363896
 30
0.0
 11
958.0401814409062808
 21
146.9176881289436949
 31
0.0
  0
LINE
  5
C122
  8
0
 10
958.0401814431172625
 20
146.908737028086307
 30
0.0
 11
958.0303389233008602
 21
146.9063660286707034
 31
0.0
  0
LINE
  5
C123
  8
0
 10
958.0303389233008602
 20
146.9063660286707034
 30
0.0
 11
958.0106538839639825
 21
146.9054605914147089
 31
0.0
  0
LINE
  5
C124
  8
0
 10
958.0106538839639825
 20
146.9054605914147089
 30
0.0
 11
958.0008113644403238
 21
146.9069392917542132
 31
0.0
  0
LINE
  5
C125
  8
0
 10
958.0008113644403238
 20
146.9069392917542132
 30
0.0
 11
958.0106543767858511
 21
146.9093438228165951
 31
0.0
  0
LINE
  5
C126
  8
0
 10
958.0106543767858511
 20
146.9093438228165951
 30
0.0
 11
958.0303389233197322
 21
146.9102362454277113
 31
0.0
  0
LINE
  5
C127
  8
0
 10
958.0303389233197322
 20
146.9102362454277113
 30
0.0
 11
958.0401814431172625
 21
146.908737028086307
 31
0.0
  0
LINE
  5
C128
  8
0
 10
958.0680202926715765
 20
146.9153467814043097
 30
0.0
 11
958.0581777729628357
 21
146.9117272856576051
 31
0.0
  0
LINE
  5
C129
  8
0
 10
958.0581777729628357
 20
146.9117272856576051
 30
0.0
 11
958.0384927335918519
 21
146.9099318816051891
 31
0.0
  0
LINE
  5
C12A
  8
0
 10
958.0384927335918519
 20
146.9099318816051891
 30
0.0
 11
958.0286502139094864
 21
146.9117764965320987
 31
0.0
  0
LINE
  5
C12B
  8
0
 10
958.0286502139094864
 20
146.9117764965320987
 30
0.0
 11
958.0384927336639294
 21
146.9154194003079965
 31
0.0
  0
LINE
  5
C12C
  8
0
 10
958.0384927336639294
 20
146.9154194003079965
 30
0.0
 11
958.0581777729638588
 21
146.9171944408089985
 31
0.0
  0
LINE
  5
C12D
  8
0
 10
958.0581777729638588
 20
146.9171944408089985
 30
0.0
 11
958.0680202926715765
 21
146.9153467814043097
 31
0.0
  0
LINE
  5
C12E
  8
0
 10
958.0958591424963515
 20
146.9244974194326971
 30
0.0
 11
958.0564890635639586
 21
146.9191543822147139
 31
0.0
  0
LINE
  5
C12F
  8
0
 10
958.0564890635639586
 20
146.9191543822147139
 30
0.0
 11
958.0663315832639455
 21
146.9169673752147958
 31
0.0
  0
LINE
  5
C130
  8
0
 10
958.0663315832639455
 20
146.9169673752147958
 30
0.0
 11
958.0860166226639194
 21
146.9196503168147956
 31
0.0
  0
LINE
  5
C131
  8
0
 10
958.0860166226639194
 20
146.9196503168147956
 30
0.0
 11
958.0958591424963515
 21
146.9244974194326971
 31
0.0
  0
LINE
  5
C132
  8
0
 10
958.1236979920334988
 20
146.9248195913602899
 30
0.0
 11
958.1138554722640492
 21
146.9256928859159927
 31
0.0
  0
LINE
  5
C133
  8
0
 10
958.1138554722640492
 20
146.9256928859159927
 30
0.0
 11
958.0941704329286495
 21
146.9220927151567935
 31
0.0
  0
LINE
  5
C134
  8
0
 10
958.0941704329286495
 20
146.9220927151567935
 30
0.0
 11
958.0843279132732278
 21
146.917577002760197
 31
0.0
  0
LINE
  5
C135
  8
0
 10
958.0843279132732278
 20
146.917577002760197
 30
0.0
 11
958.0941704329815138
 21
146.9166824608736874
 31
0.0
  0
LINE
  5
C136
  8
0
 10
958.0941704329815138
 20
146.9166824608736874
 30
0.0
 11
958.1138554723255538
 21
146.9203251281477094
 31
0.0
  0
LINE
  5
C137
  8
0
 10
958.1138554723255538
 20
146.9203251281477094
 30
0.0
 11
958.1236979920334988
 21
146.9248195913602899
 31
0.0
  0
LINE
  5
C138
  8
0
 10
958.1515368416639831
 20
146.9365461715146921
 30
0.0
 11
958.1121667629478225
 21
146.9274710528073058
 31
0.0
  0
LINE
  5
C139
  8
0
 10
958.1121667629478225
 20
146.9274710528073058
 30
0.0
 11
958.1220092825959682
 21
146.9262476435135909
 31
0.0
  0
LINE
  5
C13A
  8
0
 10
958.1220092825959682
 20
146.9262476435135909
 30
0.0
 11
958.1416943219252289
 21
146.9308052765209993
 31
0.0
  0
LINE
  5
C13B
  8
0
 10
958.1416943219252289
 20
146.9308052765209993
 30
0.0
 11
958.1515368416639831
 21
146.9365461715146921
 31
0.0
  0
LINE
  5
C13C
  8
0
 10
958.1515368416074807
 20
146.9279621774724092
 30
0.0
 11
958.1416943219639961
 21
146.9274538271147037
 31
0.0
  0
LINE
  5
C13D
  8
0
 10
958.1416943219639961
 20
146.9274538271147037
 30
0.0
 11
958.1220092825637948
 21
146.9228614816229026
 31
0.0
  0
LINE
  5
C13E
  8
0
 10
958.1220092825637948
 20
146.9228614816229026
 30
0.0
 11
958.1121667628619889
 21
146.9187070858905884
 31
0.0
  0
LINE
  5
C13F
  8
0
 10
958.1121667628619889
 20
146.9187070858905884
 30
0.0
 11
958.1220092826121117
 21
146.9191799670313969
 31
0.0
  0
LINE
  5
C140
  8
0
 10
958.1220092826121117
 20
146.9191799670313969
 30
0.0
 11
958.1416943219402356
 21
146.9238432568947985
 31
0.0
  0
LINE
  5
C141
  8
0
 10
958.1416943219402356
 20
146.9238432568947985
 30
0.0
 11
958.1515368416074807
 21
146.9279621774724092
 31
0.0
  0
LINE
  5
C142
  8
0
 10
958.1793756911670243
 20
146.939742878453302
 30
0.0
 11
958.1695331715638986
 21
146.939742878453302
 31
0.0
  0
LINE
  5
C143
  8
0
 10
958.1695331715638986
 20
146.939742878453302
 30
0.0
 11
958.1498481322639691
 21
146.9340134403146862
 31
0.0
  0
LINE
  5
C144
  8
0
 10
958.1498481322639691
 20
146.9340134403146862
 30
0.0
 11
958.1400056125096398
 21
146.9286086654323924
 31
0.0
  0
LINE
  5
C145
  8
0
 10
958.1400056125096398
 20
146.9286086654323924
 30
0.0
 11
958.1498481322639691
 21
146.9287461583147092
 31
0.0
  0
LINE
  5
C146
  8
0
 10
958.1498481322639691
 20
146.9287461583147092
 30
0.0
 11
958.1695331716307464
 21
146.9343476537200956
 31
0.0
  0
LINE
  5
C147
  8
0
 10
958.1695331716307464
 20
146.9343476537200956
 30
0.0
 11
958.1793756911670243
 21
146.939742878453302
 31
0.0
  0
LINE
  5
C148
  8
0
 10
958.2073282699327592
 20
146.9460094635878988
 30
0.0
 11
958.19737202130068
 21
146.9443020537590883
 31
0.0
  0
LINE
  5
C149
  8
0
 10
958.19737202130068
 20
146.9443020537590883
 30
0.0
 11
958.1776869819332205
 21
146.9376736097163132
 31
0.0
  0
LINE
  5
C14A
  8
0
 10
958.1776869819332205
 20
146.9376736097163132
 30
0.0
 11
958.1678444622194775
 21
146.9326245308758132
 31
0.0
  0
LINE
  5
C14B
  8
0
 10
958.1678444622194775
 20
146.9326245308758132
 30
0.0
 11
958.1776869818638716
 21
146.9342255747147021
 31
0.0
  0
LINE
  5
C14C
  8
0
 10
958.1776869818638716
 20
146.9342255747147021
 30
0.0
 11
958.1973720212638455
 21
146.940963022114687
 31
0.0
  0
LINE
  5
C14D
  8
0
 10
958.1973720212638455
 20
146.940963022114687
 30
0.0
 11
958.2073282699327592
 21
146.9460094635878988
 31
0.0
  0
LINE
  5
C14E
  8
0
 10
958.2072145410093071
 20
146.9542048545158934
 30
0.0
 11
958.1678444621724111
 21
146.9411154776202011
 31
0.0
  0
LINE
  5
C14F
  8
0
 10
958.1678444621724111
 20
146.9411154776202011
 30
0.0
 11
958.1776869818150999
 21
146.9409456112481109
 31
0.0
  0
LINE
  5
C150
  8
0
 10
958.1776869818150999
 20
146.9409456112481109
 30
0.0
 11
958.1973720212638455
 21
146.9475208368351957
 31
0.0
  0
LINE
  5
C151
  8
0
 10
958.1973720212638455
 20
146.9475208368351957
 30
0.0
 11
958.2072145410093071
 21
146.9542048545158934
 31
0.0
  0
LINE
  5
C152
  8
0
 10
958.1805763123524002
 20
146.9342000230971905
 30
0.0
 11
958.1695331716504143
 21
146.9321376346879902
 31
0.0
  0
LINE
  5
C153
  8
0
 10
958.1695331716504143
 20
146.9321376346879902
 30
0.0
 11
958.1498481322639691
 21
146.9264799978629128
 31
0.0
  0
LINE
  5
C154
  8
0
 10
958.1498481322639691
 20
146.9264799978629128
 30
0.0
 11
958.1385310858269122
 21
146.9219077175220889
 31
0.0
  0
LINE
  5
C155
  8
0
 10
958.1190687400273873
 20
146.9173194921388017
 30
0.0
 11
958.1236979919856367
 21
146.9188276562614988
 31
0.0
  0
LINE
  5
C156
  8
0
 10
958.1236979919856367
 20
146.9188276562614988
 30
0.0
 11
958.1138554723364678
 21
146.9179768347052004
 31
0.0
  0
LINE
  5
C157
  8
0
 10
958.1138554723364678
 20
146.9179768347052004
 30
0.0
 11
958.0941704329640061
 21
146.9142994548193997
 31
0.0
  0
LINE
  5
C158
  8
0
 10
958.0941704329640061
 20
146.9142994548193997
 30
0.0
 11
958.0843279132865291
 21
146.9114050825708944
 31
0.0
  0
LINE
  5
C159
  8
0
 10
958.0843279132865291
 20
146.9114050825708944
 30
0.0
 11
958.0909940436250736
 21
146.911884421049308
 31
0.0
  0
LINE
  5
C15A
  8
0
 10
958.0958591423329835
 20
146.9156758336121129
 30
0.0
 11
958.0860166226639194
 21
146.9162149575147112
 31
0.0
  0
LINE
  5
C15B
  8
0
 10
958.0860166226639194
 20
146.9162149575147112
 30
0.0
 11
958.066331583245983
 21
146.9135123547821138
 31
0.0
  0
LINE
  5
C15C
  8
0
 10
958.066331583245983
 20
146.9135123547821138
 30
0.0
 11
958.0564890635669144
 21
146.9102308885364039
 31
0.0
  0
LINE
  5
C15D
  8
0
 10
958.0564890635669144
 20
146.9102308885364039
 30
0.0
 11
958.0663315832470062
 21
146.9096902349876075
 31
0.0
  0
LINE
  5
C15E
  8
0
 10
958.0663315832470062
 20
146.9096902349876075
 30
0.0
 11
958.0860166226218553
 21
146.9124329676646141
 31
0.0
  0
LINE
  5
C15F
  8
0
 10
958.0860166226218553
 20
146.9124329676646141
 30
0.0
 11
958.0958591423329835
 21
146.9156758336121129
 31
0.0
  0
LINE
  5
C160
  8
0
 10
958.0623791996529235
 20
146.9077486259741931
 30
0.0
 11
958.0680202927237588
 21
146.909120445734203
 31
0.0
  0
LINE
  5
C161
  8
0
 10
958.0680202927237588
 20
146.909120445734203
 30
0.0
 11
958.0581777729638588
 21
146.909120445734203
 31
0.0
  0
LINE
  5
C162
  8
0
 10
958.0581777729638588
 20
146.909120445734203
 30
0.0
 11
958.0384927336639294
 21
146.9074858018134933
 31
0.0
  0
LINE
  5
C163
  8
0
 10
958.0384927336639294
 20
146.9074858018134933
 30
0.0
 11
958.0274444312709647
 21
146.9045792873176026
 31
0.0
  0
LINE
  5
C164
  8
0
 10
958.2345777872352528
 20
146.955069721443607
 30
0.0
 11
958.2252108709263894
 21
146.9522550258757008
 31
0.0
  0
LINE
  5
C165
  8
0
 10
958.2252108709263894
 20
146.9522550258757008
 30
0.0
 11
958.2055258316025856
 21
146.944421021388905
 31
0.0
  0
LINE
  5
C166
  8
0
 10
958.2055258316025856
 20
146.944421021388905
 30
0.0
 11
958.1946258332623074
 21
146.9390608816424049
 31
0.0
  0
LINE
  5
C167
  8
0
 10
958.2628922402665239
 20
146.9704113881155934
 30
0.0
 11
958.2530497206104201
 21
146.9673442631709861
 31
0.0
  0
LINE
  5
C168
  8
0
 10
958.2530497206104201
 20
146.9673442631709861
 30
0.0
 11
958.2333646814578287
 21
146.9584403248049114
 31
0.0
  0
LINE
  5
C169
  8
0
 10
958.2333646814578287
 20
146.9584403248049114
 30
0.0
 11
958.2235221614851071
 21
146.9524431368847956
 31
0.0
  0
LINE
  5
C16A
  8
0
 10
958.2235221614851071
 20
146.9524431368847956
 30
0.0
 11
958.2333646812288634
 21
146.955343830955286
 31
0.0
  0
LINE
  5
C16B
  8
0
 10
958.2333646812288634
 20
146.955343830955286
 30
0.0
 11
958.2530497205985967
 21
146.964407972172495
 31
0.0
  0
LINE
  5
C16C
  8
0
 10
958.2530497205985967
 20
146.964407972172495
 30
0.0
 11
958.2628922402665239
 21
146.9704113881155934
 31
0.0
  0
LINE
  5
C16D
  8
0
 10
958.2350533906119381
 20
146.960609263471099
 30
0.0
 11
958.2252108709368486
 21
146.959197572701413
 31
0.0
  0
LINE
  5
C16E
  8
0
 10
958.2252108709368486
 20
146.959197572701413
 30
0.0
 11
958.2055258314746879
 21
146.9515494093541861
 31
0.0
  0
LINE
  5
C16F
  8
0
 10
958.2055258314746879
 20
146.9515494093541861
 30
0.0
 11
958.1956833121040518
 21
146.9452105025245885
 31
0.0
  0
LINE
  5
C170
  8
0
 10
958.1956833121040518
 20
146.9452105025245885
 30
0.0
 11
958.2055258315757555
 21
146.9465048278310064
 31
0.0
  0
LINE
  5
C171
  8
0
 10
958.2055258315757555
 20
146.9465048278310064
 30
0.0
 11
958.2252108709640197
 21
146.9542550868806927
 31
0.0
  0
LINE
  5
C172
  8
0
 10
958.2252108709640197
 20
146.9542550868806927
 30
0.0
 11
958.2350533906119381
 21
146.960609263471099
 31
0.0
  0
LINE
  5
C173
  8
0
 10
958.2628922402345779
 20
146.9780831543471038
 30
0.0
 11
958.2530497205638085
 21
146.9769132895310122
 31
0.0
  0
LINE
  5
C174
  8
0
 10
958.2530497205638085
 20
146.9769132895310122
 30
0.0
 11
958.2413431598067746
 21
146.9716169221694884
 31
0.0
  0
LINE
  5
C175
  8
0
 10
958.2413431598067746
 20
146.9716169221694884
 30
0.0
 11
958.2364343347694557
 21
146.9660733362663052
 31
0.0
  0
LINE
  5
C176
  8
0
 10
958.2364343347694557
 20
146.9660733362663052
 30
0.0
 11
958.2235221615436558
 21
146.9605195663060044
 31
0.0
  0
LINE
  5
C177
  8
0
 10
958.2235221615436558
 20
146.9605195663060044
 30
0.0
 11
958.2333646811616745
 21
146.9615408786372086
 31
0.0
  0
LINE
  5
C178
  8
0
 10
958.2333646811616745
 20
146.9615408786372086
 30
0.0
 11
958.2530497205638085
 21
146.9703668656146931
 31
0.0
  0
LINE
  5
C179
  8
0
 10
958.2530497205638085
 20
146.9703668656146931
 30
0.0
 11
958.2628922402345779
 21
146.9780831543471038
 31
0.0
  0
LINE
  5
C17A
  8
0
 10
958.2907310899427102
 20
146.9985546256500868
 30
0.0
 11
958.2808885702639827
 21
146.9975927233402899
 31
0.0
  0
LINE
  5
C17B
  8
0
 10
958.2808885702639827
 20
146.9975927233402899
 30
0.0
 11
958.2612035308245595
 21
146.9876755836596089
 31
0.0
  0
LINE
  5
C17C
  8
0
 10
958.2612035308245595
 20
146.9876755836596089
 30
0.0
 11
958.2513610111506068
 21
146.9786470174095996
 31
0.0
  0
LINE
  5
C17D
  8
0
 10
958.2513610111506068
 20
146.9786470174095996
 30
0.0
 11
958.2612035308785607
 21
146.9794268919580986
 31
0.0
  0
LINE
  5
C17E
  8
0
 10
958.2612035308785607
 20
146.9794268919580986
 30
0.0
 11
958.2808885702639827
 21
146.9894146069113106
 31
0.0
  0
LINE
  5
C17F
  8
0
 10
958.2808885702639827
 20
146.9894146069113106
 30
0.0
 11
958.2907310899427102
 21
146.9985546256500868
 31
0.0
  0
LINE
  5
C180
  8
0
 10
958.2628922403287106
 20
146.9915388822199134
 30
0.0
 11
958.2530497205638085
 21
146.9821521840146943
 31
0.0
  0
LINE
  5
C181
  8
0
 10
958.2530497205638085
 20
146.9821521840146943
 30
0.0
 11
958.2494543939416189
 21
146.9805007072546061
 31
0.0
  0
LINE
  5
C182
  8
0
 10
958.2494543939416189
 20
146.9805007072546061
 30
0.0
 11
958.2489489782393548
 21
146.9786541888506122
 31
0.0
  0
LINE
  5
C183
  8
0
 10
958.2628922402816443
 20
146.991538882173387
 30
0.0
 11
958.2530497205638085
 21
146.9921290203147066
 31
0.0
  0
LINE
  5
C184
  8
0
 10
958.2530497205638085
 20
146.9921290203147066
 30
0.0
 11
958.2510319717066523
 21
146.9912003747319034
 31
0.0
  0
LINE
  5
C185
  8
0
 10
958.2510319717066523
 20
146.9912003747319034
 30
0.0
 11
958.2333646812536472
 21
147.0015048179614894
 31
0.0
  0
LINE
  5
C186
  8
0
 10
958.2333646812536472
 20
147.0015048179614894
 30
0.0
 11
958.2235221614765805
 21
147.0009885111360859
 31
0.0
  0
LINE
  5
C187
  8
0
 10
958.2235221614765805
 20
147.0009885111360859
 30
0.0
 11
958.2333646811639483
 21
146.9898434741147071
 31
0.0
  0
LINE
  5
C188
  8
0
 10
958.2333646811639483
 20
146.9898434741147071
 30
0.0
 11
958.2494783678662316
 21
146.9805117194331956
 31
0.0
  0
LINE
  5
C189
  8
0
 10
958.2907310898900732
 20
147.0147319327012951
 30
0.0
 11
958.2808885703047963
 21
147.0038770661824969
 31
0.0
  0
LINE
  5
C18A
  8
0
 10
958.2808885703047963
 20
147.0038770661824969
 30
0.0
 11
958.2612035309186922
 21
146.9939819535410948
 31
0.0
  0
LINE
  5
C18B
  8
0
 10
958.2612035309186922
 20
146.9939819535410948
 30
0.0
 11
958.2513609886510721
 21
146.9949382863227925
 31
0.0
  0
LINE
  5
C18C
  8
0
 10
958.2513609886510721
 20
146.9949382863227925
 30
0.0
 11
958.2612035307985252
 21
147.0056432973123037
 31
0.0
  0
LINE
  5
C18D
  8
0
 10
958.2612035307985252
 20
147.0056432973123037
 30
0.0
 11
958.2808885702639827
 21
147.0155384098372906
 31
0.0
  0
LINE
  5
C18E
  8
0
 10
958.2808885702639827
 20
147.0155384098372906
 30
0.0
 11
958.2907310898900732
 21
147.0147319327012951
 31
0.0
  0
LINE
  5
C18F
  8
0
 10
958.2872351181989643
 20
147.0320638183752067
 30
0.0
 11
958.2808885702340831
 21
147.0240171687538009
 31
0.0
  0
LINE
  5
C190
  8
0
 10
958.2808885702340831
 20
147.0240171687538009
 30
0.0
 11
958.2612035308640088
 21
147.0141000292111073
 31
0.0
  0
LINE
  5
C191
  8
0
 10
958.2612035308640088
 20
147.0141000292111073
 30
0.0
 11
958.251361011185395
 21
147.0167328067850008
 31
0.0
  0
LINE
  5
C192
  8
0
 10
958.251361011185395
 20
147.0167328067850008
 30
0.0
 11
958.2612035308640088
 21
147.0291740251147132
 31
0.0
  0
LINE
  5
C193
  8
0
 10
958.2612035308640088
 20
147.0291740251147132
 30
0.0
 11
958.2795997271310853
 21
147.0384796565558077
 31
0.0
  0
LINE
  5
C194
  8
0
 10
958.2354242080717768
 20
147.007736321029995
 30
0.0
 11
958.2510319716133154
 21
146.9985819257109938
 31
0.0
  0
LINE
  5
C195
  8
0
 10
958.2510319716133154
 20
146.9985819257109938
 30
0.0
 11
958.2530497205929123
 21
146.9995091161551954
 31
0.0
  0
LINE
  5
C196
  8
0
 10
958.2530497205929123
 20
146.9995091161551954
 30
0.0
 11
958.2628922403321212
 21
147.0105817768589986
 31
0.0
  0
LINE
  5
C197
  8
0
 10
958.2628922403321212
 20
147.0105817768589986
 30
0.0
 11
958.2530497206298605
 21
147.0128564225051093
 31
0.0
  0
LINE
  5
C198
  8
0
 10
958.2530497206298605
 20
147.0128564225051093
 30
0.0
 11
958.249454393864653
 21
147.0112049458282115
 31
0.0
  0
LINE
  5
C199
  8
0
 10
958.249454393864653
 20
147.0112049458282115
 30
0.0
 11
958.2489489782448118
 21
147.0136641248060982
 31
0.0
  0
LINE
  5
C19A
  8
0
 10
958.2489489781580687
 20
146.9786541885534916
 30
0.0
 11
958.2324572791638957
 21
146.9881929853146971
 31
0.0
  0
LINE
  5
C19B
  8
0
 10
958.2324572791638957
 20
146.9881929853146971
 30
0.0
 11
958.2252108709640197
 21
146.9964068104063131
 31
0.0
  0
LINE
  5
C19C
  8
0
 10
958.2252108709640197
 20
146.9964068104063131
 30
0.0
 11
958.2174390102460393
 21
147.0004369005085891
 31
0.0
  0
LINE
  5
C19D
  8
0
 10
958.2324572822864184
 20
146.9881929835086964
 30
0.0
 11
958.2324572822864184
 21
146.9768456242146897
 31
0.0
  0
LINE
  5
C19E
  8
0
 10
958.2324572822864184
 20
146.9768456242146897
 30
0.0
 11
958.1982794233638288
 21
146.9768456242146897
 31
0.0
  0
LINE
  5
C19F
  8
0
 10
958.1982794233638288
 20
146.9768456242146897
 30
0.0
 11
958.1982794233638288
 21
146.9933678902449117
 31
0.0
  0
LINE
  5
C1A0
  8
0
 10
958.176779579863819
 20
146.9862723674407903
 30
0.0
 11
958.176779579863819
 21
146.9768456242146897
 31
0.0
  0
LINE
  5
C1A1
  8
0
 10
958.176779579863819
 20
146.9768456242146897
 30
0.0
 11
958.1430201517331398
 21
146.9768456242148034
 31
0.0
  0
LINE
  5
C1A2
  8
0
 10
958.0401814430261993
 20
147.0789583642043965
 30
0.0
 11
958.0303389233639564
 21
147.0918913895544904
 31
0.0
  0
LINE
  5
C1A3
  8
0
 10
958.0303389233639564
 20
147.0918913895544904
 30
0.0
 11
958.0106538839722816
 21
147.0909116596801027
 31
0.0
  0
LINE
  5
C1A4
  8
0
 10
958.0106538839722816
 20
147.0909116596801027
 30
0.0
 11
958.000811364334254
 21
147.0770285111773035
 31
0.0
  0
LINE
  5
C1A5
  8
0
 10
958.000811364334254
 20
147.0770285111773035
 30
0.0
 11
958.0106538839424957
 21
147.0642213940639067
 31
0.0
  0
LINE
  5
C1A6
  8
0
 10
958.0106538839424957
 20
147.0642213940639067
 30
0.0
 11
958.0303389234463793
 21
147.065172165946791
 31
0.0
  0
LINE
  5
C1A7
  8
0
 10
958.0303389234463793
 20
147.065172165946791
 30
0.0
 11
958.0401814430261993
 21
147.0789583642043965
 31
0.0
  0
LINE
  5
C1A8
  8
0
 10
958.0401814430191507
 20
147.038497815341799
 30
0.0
 11
958.030338923322347
 21
147.049510996840894
 31
0.0
  0
LINE
  5
C1A9
  8
0
 10
958.030338923322347
 20
147.049510996840894
 30
0.0
 11
958.0106538839639825
 21
147.0485754305146884
 31
0.0
  0
LINE
  5
C1AA
  8
0
 10
958.0106538839639825
 20
147.0485754305146884
 30
0.0
 11
958.0008113643466459
 21
147.0366468666290132
 31
0.0
  0
LINE
  5
C1AB
  8
0
 10
958.0008113643466459
 20
147.0366468666290132
 30
0.0
 11
958.0108378731174525
 21
147.0257083695674112
 31
0.0
  0
LINE
  5
C1AC
  8
0
 10
958.0108378731174525
 20
147.0257083695674112
 30
0.0
 11
958.0305229126214499
 21
147.0266591414502955
 31
0.0
  0
LINE
  5
C1AD
  8
0
 10
958.0305229126214499
 20
147.0266591414502955
 30
0.0
 11
958.0401814430191507
 21
147.038497815341799
 31
0.0
  0
LINE
  5
C1AE
  8
0
 10
958.0401814430026661
 20
147.0039515015789959
 30
0.0
 11
958.0303389233175722
 21
147.0132418460136989
 31
0.0
  0
LINE
  5
C1AF
  8
0
 10
958.0303389233175722
 20
147.0132418460136989
 30
0.0
 11
958.0109867552102969
 21
147.0123463893079077
 31
0.0
  0
LINE
  5
C1B0
  8
0
 10
958.0109867552102969
 20
147.0123463893079077
 30
0.0
 11
958.0008113642760463
 21
147.0021537652604877
 31
0.0
  0
LINE
  5
C1B1
  8
0
 10
958.0008113642760463
 20
147.0021537652604877
 30
0.0
 11
958.0107661291427803
 21
146.9929474775262008
 31
0.0
  0
LINE
  5
C1B2
  8
0
 10
958.0107661291427803
 20
146.9929474775262008
 30
0.0
 11
958.030451168646664
 21
146.9938982494089998
 31
0.0
  0
LINE
  5
C1B3
  8
0
 10
958.030451168646664
 20
146.9938982494089998
 30
0.0
 11
958.0401814430026661
 21
147.0039515015789959
 31
0.0
  0
LINE
  5
C1B4
  8
0
 10
958.0680202927660503
 20
147.0233778137850038
 30
0.0
 11
958.0581777729812529
 21
147.0330716619770044
 31
0.0
  0
LINE
  5
C1B5
  8
0
 10
958.0581777729812529
 20
147.0330716619770044
 30
0.0
 11
958.0384282299628467
 21
147.0311490907199925
 31
0.0
  0
LINE
  5
C1B6
  8
0
 10
958.0384282299628467
 20
147.0311490907199925
 30
0.0
 11
958.0286502138744709
 21
147.0197213799353904
 31
0.0
  0
LINE
  5
C1B7
  8
0
 10
958.0286502138744709
 20
147.0197213799353904
 30
0.0
 11
958.0382595710084388
 21
147.010302476056296
 31
0.0
  0
LINE
  5
C1B8
  8
0
 10
958.0382595710084388
 20
147.010302476056296
 30
0.0
 11
958.0586500917738704
 21
147.0120722979218044
 31
0.0
  0
LINE
  5
C1B9
  8
0
 10
958.0586500917738704
 20
147.0120722979218044
 30
0.0
 11
958.0680202927660503
 21
147.0233778137850038
 31
0.0
  0
LINE
  5
C1BA
  8
0
 10
958.0680202927203482
 20
147.0609057081514095
 30
0.0
 11
958.0581777729638588
 21
147.0724031796798954
 31
0.0
  0
LINE
  5
C1BB
  8
0
 10
958.0581777729638588
 20
147.0724031796798954
 30
0.0
 11
958.0384927336639294
 21
147.070484266014688
 31
0.0
  0
LINE
  5
C1BC
  8
0
 10
958.0384927336639294
 20
147.070484266014688
 30
0.0
 11
958.0285381050796332
 21
147.0571928784667932
 31
0.0
  0
LINE
  5
C1BD
  8
0
 10
958.0285381050796332
 20
147.0571928784667932
 30
0.0
 11
958.0384927336258443
 21
147.0457233375572912
 31
0.0
  0
LINE
  5
C1BE
  8
0
 10
958.0384927336258443
 20
147.0457233375572912
 30
0.0
 11
958.0581777729959185
 21
147.0475935847763083
 31
0.0
  0
LINE
  5
C1BF
  8
0
 10
958.0581777729959185
 20
147.0475935847763083
 30
0.0
 11
958.0680202927203482
 21
147.0609057081514095
 31
0.0
  0
LINE
  5
C1C0
  8
0
 10
958.0958591423503776
 20
147.0108903070243969
 30
0.0
 11
958.0860166226639194
 21
147.0193087850146867
 31
0.0
  0
LINE
  5
C1C1
  8
0
 10
958.0860166226639194
 20
147.0193087850146867
 30
0.0
 11
958.0664201337499435
 21
147.0167765332946885
 31
0.0
  0
LINE
  5
C1C2
  8
0
 10
958.0664201337499435
 20
147.0167765332946885
 30
0.0
 11
958.0564890636726432
 21
147.0054453620772961
 31
0.0
  0
LINE
  5
C1C3
  8
0
 10
958.0564890636726432
 20
147.0054453620772961
 30
0.0
 11
958.0661995076825406
 21
146.9973776215128964
 31
0.0
  0
LINE
  5
C1C4
  8
0
 10
958.0661995076825406
 20
146.9973776215128964
 30
0.0
 11
958.0860166226899537
 21
146.9997680871107946
 31
0.0
  0
LINE
  5
C1C5
  8
0
 10
958.0860166226899537
 20
146.9997680871107946
 30
0.0
 11
958.0958591423503776
 21
147.0108903070243969
 31
0.0
  0
LINE
  5
C1C6
  8
0
 10
958.0958591423928965
 20
147.045645544376498
 30
0.0
 11
958.0860166226639194
 21
147.0557826202146998
 31
0.0
  0
LINE
  5
C1C7
  8
0
 10
958.0860166226639194
 20
147.0557826202146998
 30
0.0
 11
958.0663315833290881
 21
147.052946744802
 31
0.0
  0
LINE
  5
C1C8
  8
0
 10
958.0663315833290881
 20
147.052946744802
 30
0.0
 11
958.0564890635758957
 21
147.0400361774229907
 31
0.0
  0
LINE
  5
C1C9
  8
0
 10
958.0564890635758957
 20
147.0400361774229907
 30
0.0
 11
958.0663315832639455
 21
147.0299804881105956
 31
0.0
  0
LINE
  5
C1CA
  8
0
 10
958.0663315832639455
 20
147.0299804881105956
 30
0.0
 11
958.0860166226639194
 21
147.0327549268666019
 31
0.0
  0
LINE
  5
C1CB
  8
0
 10
958.0860166226639194
 20
147.0327549268666019
 30
0.0
 11
958.0958591423928965
 21
147.045645544376498
 31
0.0
  0
LINE
  5
C1CC
  8
0
 10
958.0958591423228654
 20
147.0864164738094075
 30
0.0
 11
958.0871292045967493
 21
147.0970223720435968
 31
0.0
  0
LINE
  5
C1CD
  8
0
 10
958.0812231645288648
 20
147.0976514925596064
 30
0.0
 11
958.066331583312035
 21
147.0954908045345917
 31
0.0
  0
LINE
  5
C1CE
  8
0
 10
958.066331583312035
 20
147.0954908045345917
 30
0.0
 11
958.0564890636319433
 21
147.0805627603195944
 31
0.0
  0
LINE
  5
C1CF
  8
0
 10
958.0564890636319433
 20
147.0805627603195944
 30
0.0
 11
958.0663315832639455
 21
147.0686642418147017
 31
0.0
  0
LINE
  5
C1D0
  8
0
 10
958.0663315832639455
 20
147.0686642418147017
 30
0.0
 11
958.0860166226639194
 21
147.071547195814702
 31
0.0
  0
LINE
  5
C1D1
  8
0
 10
958.0860166226639194
 20
147.071547195814702
 30
0.0
 11
958.0958591423228654
 21
147.0864164738094075
 31
0.0
  0
LINE
  5
C1D2
  8
0
 10
958.0682042930669695
 20
146.9918610293102859
 30
0.0
 11
958.0581777730380963
 21
146.9995602083104984
 31
0.0
  0
LINE
  5
C1D3
  8
0
 10
958.0581777730380963
 20
146.9995602083104984
 30
0.0
 11
958.038765284466308
 21
146.997747255580606
 31
0.0
  0
LINE
  5
C1D4
  8
0
 10
958.038765284466308
 20
146.997747255580606
 30
0.0
 11
958.0286502139307458
 21
146.9879480753388918
 31
0.0
  0
LINE
  5
C1D5
  8
0
 10
958.0286502139307458
 20
146.9879480753388918
 30
0.0
 11
958.0384927336639294
 21
146.9799296352148019
 31
0.0
  0
LINE
  5
C1D6
  8
0
 10
958.0384927336639294
 20
146.9799296352148019
 30
0.0
 11
958.0581777729975101
 21
146.9817046757873129
 31
0.0
  0
LINE
  5
C1D7
  8
0
 10
958.0581777729975101
 20
146.9817046757873129
 30
0.0
 11
958.0682042930669695
 21
146.9918610293102859
 31
0.0
  0
LINE
  5
C1D8
  8
0
 10
958.0384927336639294
 20
146.9799296352148019
 30
0.0
 11
958.038765284466308
 21
146.997747255580606
 31
0.0
  0
LINE
  5
C1D9
  8
0
 10
958.0581777729975101
 20
146.9817046757873129
 30
0.0
 11
958.0581777730380963
 21
146.9995602083104984
 31
0.0
  0
LINE
  5
C1DA
  8
0
 10
958.1232765365156183
 20
147.0329987840254944
 30
0.0
 11
958.1138554722640492
 21
147.04191107231469
 31
0.0
  0
LINE
  5
C1DB
  8
0
 10
958.1138554722640492
 20
147.04191107231469
 30
0.0
 11
958.0941704329235336
 21
147.0381650678650942
 31
0.0
  0
LINE
  5
C1DC
  8
0
 10
958.0941704329235336
 20
147.0381650678650942
 30
0.0
 11
958.0843279132526504
 21
147.0256624507277934
 31
0.0
  0
LINE
  5
C1DD
  8
0
 10
958.0843279132526504
 20
147.0256624507277934
 30
0.0
 11
958.0941704328126889
 21
147.0168954792499107
 31
0.0
  0
LINE
  5
C1DE
  8
0
 10
958.0941704328126889
 20
147.0168954792499107
 30
0.0
 11
958.113855472412979
 21
147.0205728591699881
 31
0.0
  0
LINE
  5
C1DF
  8
0
 10
958.113855472412979
 20
147.0205728591699881
 30
0.0
 11
958.1232765365156183
 21
147.0329987840254944
 31
0.0
  0
LINE
  5
C1E0
  8
0
 10
958.0941704328126889
 20
147.0168954792499107
 30
0.0
 11
958.0941704329235336
 21
147.0381650678650942
 31
0.0
  0
LINE
  5
C1E1
  8
0
 10
958.113855472412979
 20
147.0205728591699881
 30
0.0
 11
958.1138554722640492
 21
147.04191107231469
 31
0.0
  0
LINE
  5
C1E2
  8
0
 10
958.1236979919542591
 20
147.0009911700799137
 30
0.0
 11
958.1138554723063407
 21
147.0081580507194019
 31
0.0
  0
LINE
  5
C1E3
  8
0
 10
958.1138554723063407
 20
147.0081580507194019
 30
0.0
 11
958.0941704329349022
 21
147.0045153834981875
 31
0.0
  0
LINE
  5
C1E4
  8
0
 10
958.0941704329349022
 20
147.0045153834981875
 30
0.0
 11
958.0843279132650423
 21
146.9937485815225955
 31
0.0
  0
LINE
  5
C1E5
  8
0
 10
958.0843279132650423
 20
146.9937485815225955
 30
0.0
 11
958.0941704329640061
 21
146.9866029502146887
 31
0.0
  0
LINE
  5
C1E6
  8
0
 10
958.0941704329640061
 20
146.9866029502146887
 30
0.0
 11
958.1138554722945173
 21
146.9902031209462905
 31
0.0
  0
LINE
  5
C1E7
  8
0
 10
958.1138554722945173
 20
146.9902031209462905
 30
0.0
 11
958.1236979919542591
 21
147.0009911700799137
 31
0.0
  0
LINE
  5
C1E8
  8
0
 10
958.0941704329640061
 20
146.9866029502146887
 30
0.0
 11
958.0941704329349022
 21
147.0045153834981875
 31
0.0
  0
LINE
  5
C1E9
  8
0
 10
958.1138554722945173
 20
146.9902031209462905
 30
0.0
 11
958.1138554723063407
 21
147.0081580507194019
 31
0.0
  0
LINE
  5
C1EA
  8
0
 10
958.1236979920016665
 20
147.0709723893064904
 30
0.0
 11
958.1138554723310108
 21
147.0816053521915876
 31
0.0
  0
LINE
  5
C1EB
  8
0
 10
958.1138554723310108
 20
147.0816053521915876
 30
0.0
 11
958.0940532462532246
 21
147.0775272614496885
 31
0.0
  0
LINE
  5
C1EC
  8
0
 10
958.0940532462532246
 20
147.0775272614496885
 30
0.0
 11
958.0843279132714088
 21
147.0632736857583041
 31
0.0
  0
LINE
  5
C1ED
  8
0
 10
958.0843279132714088
 20
147.0632736857583041
 30
0.0
 11
958.0941704329640061
 21
147.0527581050812955
 31
0.0
  0
LINE
  5
C1EE
  8
0
 10
958.0941704329640061
 20
147.0527581050812955
 30
0.0
 11
958.1138554723578409
 21
147.0565573288137955
 31
0.0
  0
LINE
  5
C1EF
  8
0
 10
958.1138554723578409
 20
147.0565573288137955
 30
0.0
 11
958.1236979920016665
 21
147.0709723893064904
 31
0.0
  0
LINE
  5
C1F0
  8
0
 10
958.0941704329640061
 20
147.0527581050812955
 30
0.0
 11
958.0940532462532246
 21
147.0775272614496885
 31
0.0
  0
LINE
  5
C1F1
  8
0
 10
958.1138554723578409
 20
147.0565573288137955
 30
0.0
 11
958.1138554723310108
 21
147.0816053521915876
 31
0.0
  0
LINE
  5
C1F2
  8
0
 10
958.1515368416989986
 20
147.0583161998322907
 30
0.0
 11
958.1416943219230689
 21
147.0675915850636102
 31
0.0
  0
LINE
  5
C1F3
  8
0
 10
958.1416943219230689
 20
147.0675915850636102
 30
0.0
 11
958.1220092826335986
 21
147.0627631383952973
 31
0.0
  0
LINE
  5
C1F4
  8
0
 10
958.1220092826335986
 20
147.0627631383952973
 30
0.0
 11
958.1121667628553951
 21
147.0487698710118138
 31
0.0
  0
LINE
  5
C1F5
  8
0
 10
958.1121667628553951
 20
147.0487698710118138
 30
0.0
 11
958.1220092826334849
 21
147.0395813671690917
 31
0.0
  0
LINE
  5
C1F6
  8
0
 10
958.1220092826334849
 20
147.0395813671690917
 30
0.0
 11
958.1416943219804807
 21
147.0443007988257875
 31
0.0
  0
LINE
  5
C1F7
  8
0
 10
958.1416943219804807
 20
147.0443007988257875
 30
0.0
 11
958.1515368416989986
 21
147.0583161998322907
 31
0.0
  0
LINE
  5
C1F8
  8
0
 10
958.1220092826334849
 20
147.0395813671690917
 30
0.0
 11
958.1220092826335986
 21
147.0627631383952973
 31
0.0
  0
LINE
  5
C1F9
  8
0
 10
958.1416943219804807
 20
147.0443007988257875
 30
0.0
 11
958.1416943219230689
 21
147.0675915850636102
 31
0.0
  0
LINE
  5
C1FA
  8
0
 10
958.1515368416603451
 20
147.0231766509853912
 30
0.0
 11
958.1418733934104921
 21
147.030575751185296
 31
0.0
  0
LINE
  5
C1FB
  8
0
 10
958.1418733934104921
 20
147.030575751185296
 30
0.0
 11
958.1220092825640222
 21
147.0260557843089089
 31
0.0
  0
LINE
  5
C1FC
  8
0
 10
958.1220092825640222
 20
147.0260557843089089
 30
0.0
 11
958.1121667629106469
 21
147.0139215593503081
 31
0.0
  0
LINE
  5
C1FD
  8
0
 10
958.1121667629106469
 20
147.0139215593503081
 30
0.0
 11
958.1220092825640222
 21
147.0064146112146943
 31
0.0
  0
LINE
  5
C1FE
  8
0
 10
958.1220092825640222
 20
147.0064146112146943
 30
0.0
 11
958.1416943219327322
 21
147.0110069567971038
 31
0.0
  0
LINE
  5
C1FF
  8
0
 10
958.1416943219327322
 20
147.0110069567971038
 30
0.0
 11
958.1515368416603451
 21
147.0231766509853912
 31
0.0
  0
LINE
  5
C200
  8
0
 10
958.1220092825640222
 20
147.0064146112146943
 30
0.0
 11
958.1220092825640222
 21
147.0260557843089089
 31
0.0
  0
LINE
  5
C201
  8
0
 10
958.1416943219327322
 20
147.0110069567971038
 30
0.0
 11
958.1418733934104921
 21
147.030575751185296
 31
0.0
  0
LINE
  5
C202
  8
0
 10
958.1793756912466051
 20
147.0159144572945138
 30
0.0
 11
958.1695331715638986
 21
147.0221805763173109
 31
0.0
  0
LINE
  5
C203
  8
0
 10
958.1695331715638986
 20
147.0221805763173109
 30
0.0
 11
958.1498481322639691
 21
147.0165790809147097
 31
0.0
  0
LINE
  5
C204
  8
0
 10
958.1498481322639691
 20
147.0165790809147097
 30
0.0
 11
958.1400056125710307
 21
147.0047802442591092
 31
0.0
  0
LINE
  5
C205
  8
0
 10
958.1400056125710307
 20
147.0047802442591092
 30
0.0
 11
958.1498481322639691
 21
146.9985236753146864
 31
0.0
  0
LINE
  5
C206
  8
0
 10
958.1498481322639691
 20
146.9985236753146864
 30
0.0
 11
958.1695331715619659
 21
147.0040565515380138
 31
0.0
  0
LINE
  5
C207
  8
0
 10
958.1695331715619659
 20
147.0040565515380138
 30
0.0
 11
958.1793756912466051
 21
147.0159144572945138
 31
0.0
  0
LINE
  5
C208
  8
0
 10
958.1498481322639691
 20
146.9985236753146864
 30
0.0
 11
958.1498481322639691
 21
147.0165790809147097
 31
0.0
  0
LINE
  5
C209
  8
0
 10
958.1695331715619659
 20
147.0040565515380138
 30
0.0
 11
958.1695331715638986
 21
147.0221805763173109
 31
0.0
  0
LINE
  5
C20A
  8
0
 10
958.1793756912630897
 20
147.0483957303237901
 30
0.0
 11
958.1692157674838199
 21
147.0562466723436899
 31
0.0
  0
LINE
  5
C20B
  8
0
 10
958.1692157674838199
 20
147.0562466723436899
 30
0.0
 11
958.1498481322801126
 21
147.0505767693553878
 31
0.0
  0
LINE
  5
C20C
  8
0
 10
958.1498481322801126
 20
147.0505767693553878
 30
0.0
 11
958.1400056125595484
 21
147.0369703068946023
 31
0.0
  0
LINE
  5
C20D
  8
0
 10
958.1400056125595484
 20
147.0369703068946023
 30
0.0
 11
958.1495830536518952
 21
147.0292798403760912
 31
0.0
  0
LINE
  5
C20E
  8
0
 10
958.1495830536518952
 20
147.0292798403760912
 30
0.0
 11
958.1695331716308601
 21
147.0347336590590999
 31
0.0
  0
LINE
  5
C20F
  8
0
 10
958.1695331716308601
 20
147.0347336590590999
 30
0.0
 11
958.1793756912630897
 21
147.0483957303237901
 31
0.0
  0
LINE
  5
C210
  8
0
 10
958.1495830536518952
 20
147.0292798403760912
 30
0.0
 11
958.1498481322801126
 21
147.0505767693553878
 31
0.0
  0
LINE
  5
C211
  8
0
 10
958.1695331716308601
 20
147.0347336590590999
 30
0.0
 11
958.1692157674838199
 21
147.0562466723436899
 31
0.0
  0
LINE
  5
C212
  8
0
 10
958.1758557080099763
 20
147.0811702945377135
 30
0.0
 11
958.1746254589623959
 21
147.0823486418686059
 31
0.0
  0
LINE
  5
C213
  8
0
 10
958.1530812878887673
 20
147.087037165262501
 30
0.0
 11
958.1498481322639691
 21
147.0870814161390001
 31
0.0
  0
LINE
  5
C214
  8
0
 10
958.1482141151902852
 20
147.0879620228047884
 30
0.0
 11
958.1400056126124127
 21
147.0750055730534882
 31
0.0
  0
LINE
  5
C215
  8
0
 10
958.1400056126124127
 20
147.0750055730534882
 30
0.0
 11
958.1498481322639691
 21
147.0653492240685978
 31
0.0
  0
LINE
  5
C216
  8
0
 10
958.1498481322639691
 20
147.0653492240685978
 30
0.0
 11
958.1695331716316559
 21
147.071204583266109
 31
0.0
  0
LINE
  5
C217
  8
0
 10
958.1695331716316559
 20
147.071204583266109
 30
0.0
 11
958.1758557080099763
 21
147.0811702945377135
 31
0.0
  0
LINE
  5
C218
  8
0
 10
958.1498481322639691
 20
147.0653492240685978
 30
0.0
 11
958.1498481322639691
 21
147.0876549116968874
 31
0.0
  0
LINE
  5
C219
  8
0
 10
958.1695331716316559
 20
147.071204583266109
 30
0.0
 11
958.1698782498472156
 21
147.0834791154262007
 31
0.0
  0
LINE
  5
C21A
  8
0
 10
958.1145766451382997
 20
147.0935305845634105
 30
0.0
 11
958.1121667629629428
 21
147.0896793772324997
 31
0.0
  0
LINE
  5
C21B
  8
0
 10
958.1121667629629428
 20
147.0896793772324997
 30
0.0
 11
958.1220092825640222
 21
147.078645915314695
 31
0.0
  0
LINE
  5
C21C
  8
0
 10
958.1220092825640222
 20
147.078645915314695
 30
0.0
 11
958.1416943219024915
 21
147.0835581089712036
 31
0.0
  0
LINE
  5
C21D
  8
0
 10
958.1416943219024915
 20
147.0835581089712036
 30
0.0
 11
958.1448338835809864
 21
147.0885864966016072
 31
0.0
  0
LINE
  5
C21E
  8
0
 10
958.1220092825640222
 20
147.078645915314695
 30
0.0
 11
958.1220092825640222
 21
147.0924231311153108
 31
0.0
  0
LINE
  5
C21F
  8
0
 10
958.1416943219024915
 20
147.0835581089712036
 30
0.0
 11
958.1416943219768427
 21
147.089153446489405
 31
0.0
  0
LINE
  5
C220
  8
0
 10
958.2072145393070741
 20
147.0412044313520994
 30
0.0
 11
958.1973720212638455
 21
147.0278551833164897
 31
0.0
  0
LINE
  5
C221
  8
0
 10
958.1973720212638455
 20
147.0278551833164897
 30
0.0
 11
958.1776869819694866
 21
147.0212267393287959
 31
0.0
  0
LINE
  5
C222
  8
0
 10
958.1776869819694866
 20
147.0212267393287959
 30
0.0
 11
958.167844462242897
 21
147.0278390043592935
 31
0.0
  0
LINE
  5
C223
  8
0
 10
958.167844462242897
 20
147.0278390043592935
 30
0.0
 11
958.1776869819300373
 21
147.0411013919799075
 31
0.0
  0
LINE
  5
C224
  8
0
 10
958.1776869819300373
 20
147.0411013919799075
 30
0.0
 11
958.1973720213087518
 21
147.0478388394832052
 31
0.0
  0
LINE
  5
C225
  8
0
 10
958.1973720213087518
 20
147.0478388394832052
 30
0.0
 11
958.2072145393070741
 21
147.0412044313520994
 31
0.0
  0
LINE
  5
C226
  8
0
 10
958.2352681670532775
 20
147.0357571392657121
 30
0.0
 11
958.2254256490100488
 21
147.0224078912301025
 31
0.0
  0
LINE
  5
C227
  8
0
 10
958.2254256490100488
 20
147.0224078912301025
 30
0.0
 11
958.2057406097155763
 21
147.015779447242295
 31
0.0
  0
LINE
  5
C228
  8
0
 10
958.2057406097155763
 20
147.015779447242295
 30
0.0
 11
958.1958980899891003
 21
147.0223917122727926
 31
0.0
  0
LINE
  5
C229
  8
0
 10
958.1958980899891003
 20
147.0223917122727926
 30
0.0
 11
958.2057406096762406
 21
147.0356540998934918
 31
0.0
  0
LINE
  5
C22A
  8
0
 10
958.2057406096762406
 20
147.0356540998934918
 30
0.0
 11
958.2254256490549551
 21
147.0423915473967895
 31
0.0
  0
LINE
  5
C22B
  8
0
 10
958.2254256490549551
 20
147.0423915473967895
 30
0.0
 11
958.2352681670532775
 21
147.0357571392657121
 31
0.0
  0
LINE
  5
C22C
  8
0
 10
958.2065022706219679
 20
147.073282453750295
 30
0.0
 11
958.1977868452941038
 21
147.0614618633356088
 31
0.0
  0
LINE
  5
C22D
  8
0
 10
958.1977868452941038
 20
147.0614618633356088
 30
0.0
 11
958.1781018059998587
 21
147.0548334193478013
 31
0.0
  0
LINE
  5
C22E
  8
0
 10
958.1781018059998587
 20
147.0548334193478013
 30
0.0
 11
958.1682592862731553
 21
147.0614456843784126
 31
0.0
  0
LINE
  5
C22F
  8
0
 10
958.1682592862731553
 20
147.0614456843784126
 30
0.0
 11
958.1781018059602957
 21
147.0747080719989981
 31
0.0
  0
LINE
  5
C230
  8
0
 10
958.1781018059602957
 20
147.0747080719989981
 30
0.0
 11
958.189231258797804
 21
147.0785172644922909
 31
0.0
  0
LINE
  5
C231
  8
0
 10
958.2322340749933574
 20
147.0640056421489135
 30
0.0
 11
958.2248246595091814
 21
147.0539563717628084
 31
0.0
  0
LINE
  5
C232
  8
0
 10
958.2248246595091814
 20
147.0539563717628084
 30
0.0
 11
958.2051396202150499
 21
147.0473279277750009
 31
0.0
  0
LINE
  5
C233
  8
0
 10
958.2051396202150499
 20
147.0473279277750009
 30
0.0
 11
958.1952971004882329
 21
147.0539401928054986
 31
0.0
  0
LINE
  5
C234
  8
0
 10
958.1952971004882329
 20
147.0539401928054986
 30
0.0
 11
958.2051396201754869
 21
147.0672025804261978
 31
0.0
  0
LINE
  5
C235
  8
0
 10
958.2051396201754869
 20
147.0672025804261978
 30
0.0
 11
958.2147698368266902
 21
147.0704986408447041
 31
0.0
  0
LINE
  5
C236
  8
0
 10
958.2562690112482642
 20
147.053455602781213
 30
0.0
 11
958.2528703198011044
 21
147.0488460125395136
 31
0.0
  0
LINE
  5
C237
  8
0
 10
958.2528703198011044
 20
147.0488460125395136
 30
0.0
 11
958.2331852805067456
 21
147.0422175685517061
 31
0.0
  0
LINE
  5
C238
  8
0
 10
958.2331852805067456
 20
147.0422175685517061
 30
0.0
 11
958.2233427607801559
 21
147.048829833582289
 31
0.0
  0
LINE
  5
C239
  8
0
 10
958.2233427607801559
 20
147.048829833582289
 30
0.0
 11
958.2331852804672963
 21
147.0620922212029029
 31
0.0
  0
LINE
  5
C23A
  8
0
 10
958.2331852804672963
 20
147.0620922212029029
 30
0.0
 11
958.2352487677924273
 21
147.062798475188913
 31
0.0
  0
LINE
  5
C23B
  8
0
 10
958.2528703198011044
 20
147.0488460125395136
 30
0.0
 11
958.2528703198011044
 21
147.055154181135407
 31
0.0
  0
LINE
  5
C23C
  8
0
 10
958.2331852805067456
 20
147.0422175685517061
 30
0.0
 11
958.2331852804672963
 21
147.0620922212029029
 31
0.0
  0
LINE
  5
C23D
  8
0
 10
958.2248246595091814
 20
147.0539563717628084
 30
0.0
 11
958.2248246595091814
 21
147.0668635572100129
 31
0.0
  0
LINE
  5
C23E
  8
0
 10
958.2051396202150499
 20
147.0473279277750009
 30
0.0
 11
958.2051396201754869
 21
147.0672025804261978
 31
0.0
  0
LINE
  5
C23F
  8
0
 10
958.2057406097155763
 20
147.015779447242295
 30
0.0
 11
958.2057406096762406
 21
147.0356540998934918
 31
0.0
  0
LINE
  5
C240
  8
0
 10
958.2254256490100488
 20
147.0224078912301025
 30
0.0
 11
958.2254256490549551
 21
147.0423915473967895
 31
0.0
  0
LINE
  5
C241
  8
0
 10
958.1776869819694866
 20
147.0212267393287959
 30
0.0
 11
958.1776869819300373
 21
147.0411013919799075
 31
0.0
  0
LINE
  5
C242
  8
0
 10
958.1973720212638455
 20
147.0278551833164897
 30
0.0
 11
958.1973720213087518
 21
147.0478388394832052
 31
0.0
  0
LINE
  5
C243
  8
0
 10
958.1781018059998587
 20
147.0548334193478013
 30
0.0
 11
958.1781018059602957
 21
147.0747080719989981
 31
0.0
  0
LINE
  5
C244
  8
0
 10
958.1977868452941038
 20
147.0614618633356088
 30
0.0
 11
958.1977868452941038
 21
147.0760209878635862
 31
0.0
  0
LINE
  5
C245
  8
0
 10
958.0860166226899537
 20
146.9997680871107946
 30
0.0
 11
958.0860166226639194
 21
147.0193087850146867
 31
0.0
  0
LINE
  5
C246
  8
0
 10
958.0661995076825406
 20
146.9973776215128964
 30
0.0
 11
958.0664201337499435
 21
147.0167765332946885
 31
0.0
  0
LINE
  5
C247
  8
0
 10
958.0586500917738704
 20
147.0120722979218044
 30
0.0
 11
958.0581777729812529
 21
147.0330716619770044
 31
0.0
  0
LINE
  5
C248
  8
0
 10
958.0382595710084388
 20
147.010302476056296
 30
0.0
 11
958.0384282299628467
 21
147.0311490907199925
 31
0.0
  0
LINE
  5
C249
  8
0
 10
958.0305229126214499
 20
147.0266591414502955
 30
0.0
 11
958.030338923322347
 21
147.049510996840894
 31
0.0
  0
LINE
  5
C24A
  8
0
 10
958.0108378731174525
 20
147.0257083695674112
 30
0.0
 11
958.0106538839639825
 21
147.0485754305146884
 31
0.0
  0
LINE
  5
C24B
  8
0
 10
958.0663315832639455
 20
147.0299804881105956
 30
0.0
 11
958.0663315833290881
 21
147.052946744802
 31
0.0
  0
LINE
  5
C24C
  8
0
 10
958.0860166226639194
 20
147.0557826202146998
 30
0.0
 11
958.0860166226639194
 21
147.0327549268666019
 31
0.0
  0
LINE
  5
C24D
  8
0
 10
958.0384927336258443
 20
147.0457233375572912
 30
0.0
 11
958.0384927336639294
 21
147.070484266014688
 31
0.0
  0
LINE
  5
C24E
  8
0
 10
958.0581777729959185
 20
147.0475935847763083
 30
0.0
 11
958.0581777729638588
 21
147.0724031796798954
 31
0.0
  0
LINE
  5
C24F
  8
0
 10
958.0106538839424957
 20
147.0642213940639067
 30
0.0
 11
958.0106538839722816
 21
147.0909116596801027
 31
0.0
  0
LINE
  5
C250
  8
0
 10
958.0303389234463793
 20
147.065172165946791
 30
0.0
 11
958.0303389233639564
 21
147.0918913895544904
 31
0.0
  0
LINE
  5
C251
  8
0
 10
958.0663315832639455
 20
147.0686642418147017
 30
0.0
 11
958.066331583312035
 21
147.0954908045345917
 31
0.0
  0
LINE
  5
C252
  8
0
 10
958.0860166226639194
 20
147.071547195814702
 30
0.0
 11
958.0860166226639194
 21
147.0971441817067955
 31
0.0
  0
LINE
  5
C253
  8
0
 10
958.0107661291427803
 20
146.9929474775262008
 30
0.0
 11
958.0109867552102969
 21
147.0123463893079077
 31
0.0
  0
LINE
  5
C254
  8
0
 10
958.030451168646664
 20
146.9938982494089998
 30
0.0
 11
958.0303389233175722
 21
147.0132418460136989
 31
0.0
  0
LINE
  5
C255
  8
0
 10
958.2612035308640088
 20
147.0141000292111073
 30
0.0
 11
958.2612035308640088
 21
147.0291740251147132
 31
0.0
  0
LINE
  5
C256
  8
0
 10
958.2808885702340831
 20
147.0240171687538009
 30
0.0
 11
958.2808885702340831
 21
147.0374574456292862
 31
0.0
  0
LINE
  5
C257
  8
0
 10
958.2808885703047963
 20
147.0038770661824969
 30
0.0
 11
958.2808885702639827
 21
147.0155384098372906
 31
0.0
  0
LINE
  5
C258
  8
0
 10
958.2612035309186922
 20
146.9939819535410948
 30
0.0
 11
958.2612035307985252
 21
147.0056432973123037
 31
0.0
  0
LINE
  5
C259
  8
0
 10
958.2530497206298605
 20
147.0128564225051093
 30
0.0
 11
958.2530497205929123
 21
146.9995091161551954
 31
0.0
  0
LINE
  5
C25A
  8
0
 10
958.2808885702639827
 20
146.9894146069113106
 30
0.0
 11
958.2808885702639827
 21
146.9975927233402899
 31
0.0
  0
LINE
  5
C25B
  8
0
 10
958.2612035308785607
 20
146.9794268919580986
 30
0.0
 11
958.2612035308245595
 21
146.9876755836596089
 31
0.0
  0
LINE
  5
C25C
  8
0
 10
958.2530497205638085
 20
146.9821521840146943
 30
0.0
 11
958.2530497205638085
 21
146.9921290203147066
 31
0.0
  0
LINE
  5
C25D
  8
0
 10
958.2333646812536472
 20
147.0015048179614894
 30
0.0
 11
958.2333646811639483
 21
146.9898434741147071
 31
0.0
  0
LINE
  5
C25E
  8
0
 10
958.2530497205638085
 20
146.9703668656146931
 30
0.0
 11
958.2530497205638085
 21
146.9769132895310122
 31
0.0
  0
LINE
  5
C25F
  8
0
 10
958.2333646811616745
 20
146.9615408786372086
 30
0.0
 11
958.2333646811616745
 21
146.9647530201818881
 31
0.0
  0
LINE
  5
C260
  8
0
 10
958.2530497206104201
 20
146.9673442631709861
 30
0.0
 11
958.2530497205985967
 21
146.964407972172495
 31
0.0
  0
LINE
  5
C261
  8
0
 10
958.2333646814578287
 20
146.9584403248049114
 30
0.0
 11
958.2333646812288634
 21
146.955343830955286
 31
0.0
  0
LINE
  5
C262
  8
0
 10
958.2252108709368486
 20
146.959197572701413
 30
0.0
 11
958.2252108709640197
 21
146.9542550868806927
 31
0.0
  0
LINE
  5
C263
  8
0
 10
958.2055258315757555
 20
146.9465048278310064
 30
0.0
 11
958.2055258314746879
 21
146.9515494093541861
 31
0.0
  0
LINE
  5
C264
  8
0
 10
958.1973720212638455
 20
146.9475208368351957
 30
0.0
 11
958.1973720212638455
 21
146.9509325102800119
 31
0.0
  0
LINE
  5
C265
  8
0
 10
958.1776869818150999
 20
146.9409456112481109
 30
0.0
 11
958.1776869818150999
 21
146.944387821822005
 31
0.0
  0
LINE
  5
C266
  8
0
 10
958.1973720212638455
 20
146.940963022114687
 30
0.0
 11
958.19737202130068
 21
146.9443020537590883
 31
0.0
  0
LINE
  5
C267
  8
0
 10
958.1776869818638716
 20
146.9342255747147021
 30
0.0
 11
958.1776869819332205
 21
146.9376736097163132
 31
0.0
  0
LINE
  5
C268
  8
0
 10
958.1695331716307464
 20
146.9343476537200956
 30
0.0
 11
958.1695331716307464
 21
146.939742878453302
 31
0.0
  0
LINE
  5
C269
  8
0
 10
958.1498481322639691
 20
146.9287461583147092
 30
0.0
 11
958.1498481322639691
 21
146.9340134403146862
 31
0.0
  0
LINE
  5
C26A
  8
0
 10
958.1416943219252289
 20
146.9308052765209993
 30
0.0
 11
958.1416943219252289
 21
146.9342773918241107
 31
0.0
  0
LINE
  5
C26B
  8
0
 10
958.1220092825959682
 20
146.9262476435135909
 30
0.0
 11
958.1220092825959682
 21
146.9297398324771109
 31
0.0
  0
LINE
  5
C26C
  8
0
 10
958.1416943219639961
 20
146.9274538271147037
 30
0.0
 11
958.1416943219402356
 21
146.9238432568947985
 31
0.0
  0
LINE
  5
C26D
  8
0
 10
958.1220092826121117
 20
146.9191799670313969
 30
0.0
 11
958.1220092825637948
 21
146.9228614816229026
 31
0.0
  0
LINE
  5
C26E
  8
0
 10
958.1138554723364678
 20
146.9179768347052004
 30
0.0
 11
958.1138554723364678
 21
146.9162054864546008
 31
0.0
  0
LINE
  5
C26F
  8
0
 10
958.0941704329640061
 20
146.9142994548193997
 30
0.0
 11
958.0941704329640061
 21
146.912430281315892
 31
0.0
  0
LINE
  5
C270
  8
0
 10
958.0941704329815138
 20
146.9166824608736874
 30
0.0
 11
958.0941704329286495
 21
146.9220927151567935
 31
0.0
  0
LINE
  5
C271
  8
0
 10
958.1138554723255538
 20
146.9203251281477094
 30
0.0
 11
958.1138554722640492
 21
146.9256928859159927
 31
0.0
  0
LINE
  5
C272
  8
0
 10
958.1498481322639691
 20
146.9264799978629128
 30
0.0
 11
958.1498481322639691
 21
146.9248917342330003
 31
0.0
  0
LINE
  5
C273
  8
0
 10
958.1695331716504143
 20
146.9321376346879902
 30
0.0
 11
958.1695331716504143
 21
146.9306486726881076
 31
0.0
  0
LINE
  5
C274
  8
0
 10
958.2055258316025856
 20
146.944421021388905
 30
0.0
 11
958.2055258316025856
 21
146.9431022608208934
 31
0.0
  0
LINE
  5
C275
  8
0
 10
958.2252108709263894
 20
146.9522550258757008
 30
0.0
 11
958.2252108709263894
 21
146.9510169957000016
 31
0.0
  0
LINE
  5
C276
  8
0
 10
958.0860166226639194
 20
146.9196503168147956
 30
0.0
 11
958.0860166226639194
 21
146.9231616601146868
 31
0.0
  0
LINE
  5
C277
  8
0
 10
958.0663315832639455
 20
146.9169673752147958
 30
0.0
 11
958.0663315832639455
 21
146.9204901415147049
 31
0.0
  0
LINE
  5
C278
  8
0
 10
958.0860166226218553
 20
146.9124329676646141
 30
0.0
 11
958.0860166226639194
 21
146.9162149575147112
 31
0.0
  0
LINE
  5
C279
  8
0
 10
958.0663315832470062
 20
146.9096902349876075
 30
0.0
 11
958.066331583245983
 21
146.9135123547821138
 31
0.0
  0
LINE
  5
C27A
  8
0
 10
958.0581777729638588
 20
146.909120445734203
 30
0.0
 11
958.0581777729638588
 21
146.9072588218811859
 31
0.0
  0
LINE
  5
C27B
  8
0
 10
958.0384927336639294
 20
146.9074858018134933
 30
0.0
 11
958.0384927336639294
 21
146.9053602402017873
 31
0.0
  0
LINE
  5
C27C
  8
0
 10
958.0581777729628357
 20
146.9117272856576051
 30
0.0
 11
958.0581777729638588
 21
146.9171944408089985
 31
0.0
  0
LINE
  5
C27D
  8
0
 10
958.0384927335918519
 20
146.9099318816051891
 30
0.0
 11
958.0384927336639294
 21
146.9154194003079965
 31
0.0
  0
LINE
  5
C27E
  8
0
 10
958.0303389233008602
 20
146.9063660286707034
 30
0.0
 11
958.0301638222633756
 21
146.9102283070106125
 31
0.0
  0
LINE
  5
C27F
  8
0
 10
958.0106538839639825
 20
146.9054605914147089
 30
0.0
 11
958.0106543767858511
 21
146.9093438228165951
 31
0.0
  0
LINE
  5
C280
  8
0
 10
958.0106538839639825
 20
146.9128287736589868
 30
0.0
 11
958.0106538839639825
 21
146.9163645975326062
 31
0.0
  0
LINE
  5
C281
  8
0
 10
958.0303389233639564
 20
146.913714839105694
 30
0.0
 11
958.0303389233639564
 21
146.9172469518711921
 31
0.0
  0
ARC
  5
C282
  8
0
 10
957.9926627533130841
 20
147.5946277728970983
 30
0.0
 40
0.6220282424525847
 50
270.7952428101118016
 51
274.3366081811171853
  0
ARC
  5
C283
  8
0
 10
957.9738329629384452
 20
147.8018684045287046
 30
0.0
 40
0.829935078476769
 50
275.7493847063602743
 51
278.5667102684598717
  0
ARC
  5
C284
  8
0
 10
958.0417672251065824
 20
147.3633830924291033
 30
0.0
 40
0.3856598878384494
 50
280.5911579924942885
 51
286.5366158173573012
  0
ARC
  5
C285
  8
0
 10
958.1025503443822799
 20
147.2603881893051039
 30
0.0
 40
0.2701533140340567
 50
283.9864738641879853
 51
292.7943812235699852
  0
LINE
  5
C286
  8
0
 10
958.2628922402734588
 20
147.0352118384982987
 30
0.0
 11
958.2530497205638085
 21
147.0223806297624947
 31
0.0
  0
LINE
  5
C287
  8
0
 10
958.2530497205638085
 20
147.0223806297624947
 30
0.0
 11
958.2413431597640283
 21
147.0170842623147109
 31
0.0
  0
LINE
  5
C288
  8
0
 10
958.2413431597640283
 20
147.0170842623147109
 30
0.0
 11
958.2364343347639988
 21
147.0226278481146949
 31
0.0
  0
LINE
  5
C289
  8
0
 10
958.2364343347639988
 20
147.0226278481146949
 30
0.0
 11
958.2240067798365999
 21
147.0174350862484118
 31
0.0
  0
LINE
  5
C28A
  8
0
 10
958.2240067798365999
 20
147.0174350862484118
 30
0.0
 11
958.2235221614639613
 21
147.0176482504147089
 31
0.0
  0
LINE
  5
C28B
  8
0
 10
958.2235221614639613
 20
147.0176482504147089
 30
0.0
 11
958.2333646811474637
 21
147.0303309065002111
 31
0.0
  0
LINE
  5
C28C
  8
0
 10
958.2333646811474637
 20
147.0303309065002111
 30
0.0
 11
958.2530497205862048
 21
147.0391568935527005
 31
0.0
  0
LINE
  5
C28D
  8
0
 10
958.2530497205862048
 20
147.0391568935527005
 30
0.0
 11
958.2628922402734588
 21
147.0352118384982987
 31
0.0
  0
LINE
  5
C28E
  8
0
 10
958.2530497205638085
 20
147.0223806297624947
 30
0.0
 11
958.2530497205862048
 21
147.0391568935527005
 31
0.0
  0
LINE
  5
C28F
  8
0
 10
958.2333646811474637
 20
147.0303309065002111
 30
0.0
 11
958.2333646811474637
 21
147.0213452160656118
 31
0.0
  0
LINE
  5
C290
  8
0
 10
958.1973720212906755
 20
147.0163108647815022
 30
0.0
 11
958.177686981900024
 21
147.009735639236311
 31
0.0
  0
LINE
  5
C291
  8
0
 10
958.1416943219770701
 20
146.999595304406796
 30
0.0
 11
958.1220092826038126
 21
146.9950376713881894
 31
0.0
  0
LINE
  5
C292
  8
0
 10
958.0860166227186028
 20
146.9884403447458965
 30
0.0
 11
958.0663315832978242
 21
146.9857574031294973
 31
0.0
  0
LINE
  5
C293
  8
0
 10
958.0303389232572044
 20
146.9825048669520129
 30
0.0
 11
958.0106538839363566
 21
146.9816188015246041
 31
0.0
  0
LINE
  5
C294
  8
0
 10
958.0303389232572044
 20
146.9825048669520129
 30
0.0
 11
958.039697945264038
 21
146.9743803826351893
 31
0.0
  0
LINE
  5
C295
  8
0
 10
958.0012959826639189
 20
146.9726594443147007
 30
0.0
 11
958.0106538839363566
 21
146.9816188015246041
 31
0.0
  0
LINE
  5
C296
  8
0
 10
958.0569736819639957
 20
146.9761082363646949
 30
0.0
 11
958.0663315832978242
 21
146.9857574031294973
 31
0.0
  0
LINE
  5
C297
  8
0
 10
958.0974607856636567
 20
146.9811928316410103
 30
0.0
 11
958.0860166227186028
 21
146.9884403447458965
 31
0.0
  0
LINE
  5
C298
  8
0
 10
958.112651381263845
 20
146.9842934124147007
 30
0.0
 11
958.1220092826038126
 21
146.9950376713881894
 31
0.0
  0
LINE
  5
C299
  8
0
 10
958.1515368416639831
 20
146.9936748556146995
 30
0.0
 11
958.1416943219770701
 21
146.999595304406796
 31
0.0
  0
LINE
  5
C29A
  8
0
 10
958.167844462226185
 20
146.9982441616054984
 30
0.0
 11
958.177686981900024
 21
147.009735639236311
 31
0.0
  0
LINE
  5
C29B
  8
0
 10
958.2072145409750874
 20
147.0113335386054132
 30
0.0
 11
958.1973720212906755
 21
147.0163108647815022
 31
0.0
  0
LINE
  5
C29C
  8
0
 10
958.064544009185056
 20
147.0991960062393105
 30
0.0
 11
958.0581777729638588
 21
147.0893611969744086
 31
0.0
  0
LINE
  5
C29D
  8
0
 10
958.0581777729638588
 20
147.0893611969744086
 30
0.0
 11
958.0581777729638588
 21
147.0996953992965928
 31
0.0
  0
LINE
  5
C29E
  8
0
 10
958.0281686504736172
 20
147.1013852163679019
 30
0.0
 11
958.0383455819137453
 21
147.0875991056834948
 31
0.0
  0
LINE
  5
C29F
  8
0
 10
958.0383455819137453
 20
147.0875991056834948
 30
0.0
 11
958.0383455819137453
 21
147.1009332178421971
 31
0.0
  0
LINE
  5
C2A0
  8
0
 10
958.0581777729638588
 20
147.0893611969744086
 30
0.0
 11
958.0383455819137453
 21
147.0875991056834948
 31
0.0
  0
LINE
  5
C2A2
  8
0
 10
957.9743276085354182
 20
147.1018901420810892
 30
0.0
 11
957.9729725146106603
 21
147.099949628619413
 31
0.0
  0
LINE
  5
C2A3
  8
0
 10
957.9729725146106603
 20
147.099949628619413
 30
0.0
 11
957.9828150342788149
 21
147.0856237593606863
 31
0.0
  0
LINE
  5
C2A4
  8
0
 10
957.9828150342788149
 20
147.0856237593606863
 30
0.0
 11
958.0025000736425227
 21
147.0856237593121989
 31
0.0
  0
LINE
  5
C2A5
  8
0
 10
958.0025000736425227
 20
147.0856237593121989
 30
0.0
 11
958.0123425932916916
 21
147.0999496285926966
 31
0.0
  0
LINE
  5
C2A6
  8
0
 10
958.0123425932916916
 20
147.0999496285926966
 30
0.0
 11
958.010986203804805
 21
147.1018901679861131
 31
0.0
  0
LINE
  5
C2A7
  8
0
 10
957.9729725171101791
 20
147.0563363902184904
 30
0.0
 11
957.9828150342636945
 21
147.0687363234571023
 31
0.0
  0
LINE
  5
C2A8
  8
0
 10
957.9828150342636945
 20
147.0687363234571023
 30
0.0
 11
958.0025000736255834
 21
147.0687363233851954
 31
0.0
  0
LINE
  5
C2A9
  8
0
 10
958.0025000736255834
 20
147.0687363233851954
 30
0.0
 11
958.0123425933097678
 21
147.0563363870560067
 31
0.0
  0
LINE
  5
C2AA
  8
0
 10
958.0123425933097678
 20
147.0563363870560067
 30
0.0
 11
958.002500073563624
 21
147.04401941658179
 31
0.0
  0
LINE
  5
C2AB
  8
0
 10
958.002500073563624
 20
147.04401941658179
 30
0.0
 11
957.9828150342785875
 21
147.0440194165832111
 31
0.0
  0
LINE
  5
C2AC
  8
0
 10
957.9828150342785875
 20
147.0440194165832111
 30
0.0
 11
957.9729725171101791
 21
147.0563363902184904
 31
0.0
  0
LINE
  5
C2AD
  8
0
 10
957.9729725145482462
 20
147.018967249302591
 30
0.0
 11
957.9828150341951414
 21
147.029545899411886
 31
0.0
  0
LINE
  5
C2AE
  8
0
 10
957.9828150341951414
 20
147.029545899411886
 30
0.0
 11
958.002500073576698
 21
147.0295458993350053
 31
0.0
  0
LINE
  5
C2AF
  8
0
 10
958.002500073576698
 20
147.0295458993350053
 30
0.0
 11
958.0123425932625878
 21
147.018967249183703
 31
0.0
  0
LINE
  5
C2B0
  8
0
 10
958.0123425932625878
 20
147.018967249183703
 30
0.0
 11
958.0025000736314951
 21
147.0084306040608908
 31
0.0
  0
LINE
  5
C2B1
  8
0
 10
958.0025000736314951
 20
147.0084306040608908
 30
0.0
 11
957.982815034279497
 21
147.008430604016894
 31
0.0
  0
LINE
  5
C2B2
  8
0
 10
957.982815034279497
 20
147.008430604016894
 30
0.0
 11
957.9729725145482462
 21
147.018967249302591
 31
0.0
  0
LINE
  5
C2B3
  8
0
 10
957.9729725145502925
 20
146.9872115704341979
 30
0.0
 11
957.9828150342783601
 21
146.9961286295082914
 31
0.0
  0
LINE
  5
C2B4
  8
0
 10
957.9828150342783601
 20
146.9961286295082914
 30
0.0
 11
958.0025000736488892
 21
146.9961286295082914
 31
0.0
  0
LINE
  5
C2B5
  8
0
 10
958.0025000736488892
 20
146.9961286295082914
 30
0.0
 11
958.012342593289759
 21
146.9872115704287978
 31
0.0
  0
LINE
  5
C2B6
  8
0
 10
958.012342593289759
 20
146.9872115704287978
 30
0.0
 11
958.0025000736480933
 21
146.9783119024361042
 31
0.0
  0
LINE
  5
C2B7
  8
0
 10
958.0025000736480933
 20
146.9783119024361042
 30
0.0
 11
957.982815034279156
 21
146.9783119024361042
 31
0.0
  0
LINE
  5
C2B8
  8
0
 10
957.982815034279156
 20
146.9783119024361042
 30
0.0
 11
957.9729725145502925
 21
146.9872115704341979
 31
0.0
  0
LINE
  5
C2B9
  8
0
 10
957.982815034279156
 20
146.9783119024361042
 30
0.0
 11
957.982815034279156
 21
146.9961286295082914
 31
0.0
  0
LINE
  5
C2BA
  8
0
 10
958.0025000736480933
 20
146.9783119024361042
 30
0.0
 11
958.0025000736480933
 21
146.9961286295082914
 31
0.0
  0
LINE
  5
C2BB
  8
0
 10
957.982815034279497
 20
147.008430604016894
 30
0.0
 11
957.98281503436192
 21
147.029545899411886
 31
0.0
  0
LINE
  5
C2BC
  8
0
 10
958.0025000736314951
 20
147.0084306040608908
 30
0.0
 11
958.002500073576698
 21
147.0295458993350053
 31
0.0
  0
LINE
  5
C2BD
  8
0
 10
957.9828150342785875
 20
147.0440194165832111
 30
0.0
 11
957.9828150343686275
 21
147.0687363234571023
 31
0.0
  0
LINE
  5
C2BE
  8
0
 10
958.002500073563624
 20
147.04401941658179
 30
0.0
 11
958.0025000736537777
 21
147.0687363233851954
 31
0.0
  0
LINE
  5
C2BF
  8
0
 10
957.9828150342788149
 20
147.0856237593606863
 30
0.0
 11
957.9828150342788149
 21
147.1020204946879062
 31
0.0
  0
LINE
  5
C2C0
  8
0
 10
958.0025000736425227
 20
147.0856237593121989
 30
0.0
 11
958.0025000736425227
 21
147.1020204946879915
 31
0.0
  0
ENDSEC
  0
EOF
