  0
SECTION
  2
HEADER
  9
$ACADVER
  1
AC1009
  9
$INSBASE
 10
4245.1609119521390312
 20
211.8723705829031871
 30
0.0
  9
$EXTMIN
 10
4244.2270897477001199
 20
211.8676607480815903
 30
0.0
  9
$EXTMAX
 10
4246.094734156578852
 20
225.1849797557030968
 30
0.0
  9
$LIMMIN
 10
0.0
 20
0.0
  9
$LIMMAX
 10
11.6929133858000007
 20
8.2677165353999982
  9
$ORTHOMODE
 70
     0
  9
$REGENMODE
 70
     1
  9
$FILLMODE
 70
     1
  9
$QTEXTMODE
 70
     0
  9
$MIRRTEXT
 70
     0
  9
$DRAGMODE
 70
     2
  9
$LTSCALE
 40
0.6431102362
  9
$OSMODE
 70
  3839
  9
$ATTMODE
 70
     1
  9
$TEXTSIZE
 40
0.2
  9
$TRACEWID
 40
0.05
  9
$TEXTSTYLE
  7
STANDARD
  9
$CLAYER
  8
0
  9
$CELTYPE
  6
BYLAYER
  9
$CECOLOR
 62
   256
  9
$DIMSCALE
 40
1.0
  9
$DIMASZ
 40
0.1875
  9
$DIMEXO
 40
0.0625
  9
$DIMDLI
 40
0.4443307087
  9
$DIMRND
 40
0.0
  9
$DIMDLE
 40
0.0
  9
$DIMEXE
 40
0.125
  9
$DIMTP
 40
0.01
  9
$DIMTM
 40
0.01
  9
$DIMTXT
 40
2.0
  9
$DIMCEN
 40
0.1052362205
  9
$DIMTSZ
 40
0.0
  9
$DIMTOL
 70
     1
  9
$DIMLIM
 70
     0
  9
$DIMTIH
 70
     1
  9
$DIMTOH
 70
     1
  9
$DIMSE1
 70
     0
  9
$DIMSE2
 70
     0
  9
$DIMTAD
 70
     0
  9
$DIMZIN
 70
     0
  9
$DIMBLK
  1

  9
$DIMASO
 70
     1
  9
$DIMSHO
 70
     1
  9
$DIMPOST
  1
\X
  9
$DIMAPOST
  1

  9
$DIMALT
 70
     1
  9
$DIMALTD
 70
     2
  9
$DIMALTF
 40
25.3999999999999986
  9
$DIMLFAC
 40
1.0
  9
$DIMTOFL
 70
     0
  9
$DIMTVP
 40
0.0
  9
$DIMTIX
 70
     0
  9
$DIMSOXD
 70
     0
  9
$DIMSAH
 70
     0
  9
$DIMBLK1
  1

  9
$DIMBLK2
  1

  9
$DIMSTYLE
  2
STANDARD
  9
$DIMCLRD
 70
     0
  9
$DIMCLRE
 70
     0
  9
$DIMCLRT
 70
     0
  9
$DIMTFAC
 40
1.0
  9
$DIMGAP
 40
0.09
  9
$LUNITS
 70
     2
  9
$LUPREC
 70
     4
  9
$SKETCHINC
 40
0.1
  9
$FILLETRAD
 40
0.0
  9
$AUNITS
 70
     0
  9
$AUPREC
 70
     0
  9
$MENU
  1
.
  9
$ELEVATION
 40
0.0
  9
$PELEVATION
 40
0.0
  9
$THICKNESS
 40
0.0
  9
$LIMCHECK
 70
     0
  9
$BLIPMODE
 70
     0
  9
$CHAMFERA
 40
0.0
  9
$CHAMFERB
 40
0.0
  9
$SKPOLY
 70
     0
  9
$TDCREATE
 40
2458060.468368056230247
  9
$TDUPDATE
 40
2459030.938611111138016
  9
$TDINDWG
 40
0.5447755787
  9
$TDUSRTIMER
 40
0.5447755787
  9
$USRTIMER
 70
     1
  9
$ANGBASE
 50
0.0
  9
$ANGDIR
 70
     0
  9
$PDMODE
 70
     0
  9
$PDSIZE
 40
0.3125
  9
$PLINEWID
 40
0.0
  9
$COORDS
 70
     1
  9
$SPLFRAME
 70
     0
  9
$SPLINETYPE
 70
     6
  9
$SPLINESEGS
 70
     8
  9
$ATTDIA
 70
     1
  9
$ATTREQ
 70
     1
  9
$HANDLING
 70
     1
  9
$HANDSEED
  5
9AB8
  9
$SURFTAB1
 70
     6
  9
$SURFTAB2
 70
     6
  9
$SURFTYPE
 70
     6
  9
$SURFU
 70
     6
  9
$SURFV
 70
     6
  9
$UCSNAME
  2

  9
$UCSORG
 10
0.0
 20
0.0
 30
0.0
  9
$UCSXDIR
 10
1.0
 20
0.0
 30
0.0
  9
$UCSYDIR
 10
0.0
 20
1.0
 30
0.0
  9
$PUCSNAME
  2

  9
$PUCSORG
 10
0.0
 20
0.0
 30
0.0
  9
$PUCSXDIR
 10
1.0
 20
0.0
 30
0.0
  9
$PUCSYDIR
 10
0.0
 20
1.0
 30
0.0
  9
$USERI1
 70
     0
  9
$USERI2
 70
     0
  9
$USERI3
 70
     0
  9
$USERI4
 70
     0
  9
$USERI5
 70
     0
  9
$USERR1
 40
0.0
  9
$USERR2
 40
0.0
  9
$USERR3
 40
0.0
  9
$USERR4
 40
0.0
  9
$USERR5
 40
0.0
  9
$WORLDVIEW
 70
     1
  9
$SHADEDGE
 70
     3
  9
$SHADEDIF
 70
    70
  9
$TILEMODE
 70
     1
  9
$MAXACTVP
 70
    64
  9
$PLIMCHECK
 70
     0
  9
$PEXTMIN
 10
1.0000000000000000E+20
 20
1.0000000000000000E+20
 30
1.0000000000000000E+20
  9
$PEXTMAX
 10
-1.0000000000000000E+20
 20
-1.0000000000000000E+20
 30
-1.0000000000000000E+20
  9
$PLIMMIN
 10
0.0
 20
0.0
  9
$PLIMMAX
 10
12.0
 20
9.0
  9
$UNITMODE
 70
     0
  9
$VISRETAIN
 70
     1
  9
$PLINEGEN
 70
     0
  9
$PSLTSCALE
 70
     1
  0
ENDSEC
  0
SECTION
  2
TABLES
  0
TABLE
  2
VPORT
 70
     1
  0
VPORT
  2
*ACTIVE
 70
     0
 10
0.0
 20
0.0
 11
1.0
 21
1.0
 12
0.0
 22
0.0
 13
0.0
 23
0.0
 14
1.0
 24
1.0
 15
0.0
 25
0.0
 16
0.0
 26
0.0
 36
51.5025085069770014
 17
4245.160888671875
 27
218.52632152394321
 37
0.0
 40
13.4476490932748103
 41
3.0287253141831241
 42
50.0
 43
0.0
 44
0.0
 50
0.0
 51
0.0
 71
     0
 72
   100
 73
     1
 74
     1
 75
     0
 76
     0
 77
     0
 78
     0
  0
ENDTAB
  0
TABLE
  2
LTYPE
 70
     2
  0
LTYPE
  2
CONTINUOUS
 70
     0
  3
Solid line
 72
    65
 73
     0
 40
0.0
  0
LTYPE
  2
PHANTOM2
 70
     0
  3
___ _ _ ___ _ _ ___ _ _ ___ _ _
 72
    65
 73
     6
 40
1.25
 49
0.625
 49
-0.125
 49
0.125
 49
-0.125
 49
0.125
 49
-0.125
  0
ENDTAB
  0
TABLE
  2
LAYER
 70
     2
  0
LAYER
  2
0
 70
     0
 62
   255
  6
CONTINUOUS
  0
LAYER
  2
DEFPOINTS
 70
     0
 62
     7
  6
CONTINUOUS
  0
ENDTAB
  0
TABLE
  2
STYLE
 70
     1
  0
STYLE
  2
STANDARD
 70
     0
 40
0.0
 41
0.8
 50
0.0
 71
     0
 42
0.2
  3
txt
  4

  0
ENDTAB
  0
TABLE
  2
VIEW
 70
     0
  0
ENDTAB
  0
TABLE
  2
UCS
 70
     0
  0
ENDTAB
  0
TABLE
  2
APPID
 70
     9
  0
APPID
  2
ACAD
 70
     0
  0
APPID
  2
ACAD_MLEADERVER
 70
     0
  0
APPID
  2
ACAD_EXEMPT_FROM_CAD_STANDARDS
 70
     0
  0
APPID
  2
ACAD_NAV_VCDISPLAY
 70
     0
  0
APPID
  2
ACAECLAYERSTANDARD
 70
     0
  0
APPID
  2
ACCMTRANSPARENCY
 70
     0
  0
APPID
  2
ACAD_DSTYLE_DIMJAG
 70
     0
  0
APPID
  2
ACAD_DSTYLE_DIMTALN
 70
     0
  0
APPID
  2
ACDBATTR
 70
     0
  0
ENDTAB
  0
TABLE
  2
DIMSTYLE
 70
     1
  0
DIMSTYLE
  2
STANDARD
 70
     0
  3

  4

  5

  6

  7

 40
1.0
 41
0.1875
 42
0.0625
 43
0.38
 44
0.125
 45
0.0
 46
0.0
 47
0.01
 48
0.01
140
0.15625
141
0.09
142
0.0
143
25.3999999999999986
144
1.0
145
0.0
146
1.0
147
0.09
 71
     1
 72
     0
 73
     1
 74
     1
 75
     0
 76
     0
 77
     0
 78
     4
170
     0
171
     2
172
     0
173
     0
174
     0
175
     0
176
     0
177
     0
178
     0
  0
ENDTAB
  0
ENDSEC
  0
SECTION
  2
BLOCKS
  0
BLOCK
  8
0
  2
$MODEL_SPACE
 70
     0
 10
0.0
 20
0.0
 30
0.0
  3
$MODEL_SPACE
  1

  0
ENDBLK
  5
21
  8
0
  0
BLOCK
 67
     1
  8
0
  2
$PAPER_SPACE
 70
     0
 10
0.0
 20
0.0
 30
0.0
  3
$PAPER_SPACE
  1

  0
ENDBLK
  5
1D
 67
     1
  8
0
  0
BLOCK
  8
0
  2
_FILLED
 70
     0
 10
0.0
 20
0.0
 30
0.0
  3
_FILLED
  1

  0
SOLID
  5
6F59
  8
0
  6
BYBLOCK
 62
     0
 10
0.0
 20
0.0
 30
0.0
 11
-1.0
 21
0.1666666667
 31
0.0
 12
-1.0
 22
-0.1666666667
 32
0.0
 13
-1.0
 23
-0.1666666667
 33
0.0
  0
ENDBLK
  5
6F5A
  8
0
  6
BYBLOCK
 62
     0
  0
ENDSEC
  0
SECTION
  2
ENTITIES
  0
ATTDEF
  5
3930
  8
DEFPOINTS
 10
4245.1611315263562574
 20
211.8709940814150059
 30
0.0
 40
0.001
  1
K-99448T-4
  3

  2
MODELNUMBER
 70
     0
1001
ACDBATTR
1070
     0
1070
     1
  0
ATTDEF
  5
3931
  8
DEFPOINTS
 10
4245.1611315263562574
 20
211.8693274147483123
 30
0.0
 40
0.001
  1
KUMIN
  3

  2
TRADENAME
 70
     0
1001
ACDBATTR
1070
     0
1070
     1
  0
ATTDEF
  5
3932
  8
DEFPOINTS
 10
4245.1611315263562574
 20
211.8676607480815903
 30
0.0
 40
0.001
  1
BATHROOM SINK FAUCET
  3

  2
PRODUCT
 70
     0
1001
ACDBATTR
1070
     0
1070
     1
  0
LINE
  5
97F9
  8
0
 10
4244.2349893221389721
 20
211.8723705829031871
 30
0.0
 11
4246.0868345821390903
 21
211.8723705829031871
 31
0.0
  0
LINE
  5
97FA
  8
0
 10
4244.2349893221389721
 20
211.8723705829031871
 30
0.0
 11
4244.234859094452986
 21
218.5455855802877068
 31
0.0
  0
LINE
  5
97FB
  8
0
 10
4244.2348583261491513
 20
218.584955580373105
 30
0.0
 11
4244.2347812312391397
 21
222.5355049974226915
 31
0.0
  0
ARC
  5
97FC
  8
0
 10
4240.9260075655429318
 20
223.913026898565704
 30
0.0
 40
3.4329049977150281
 50
344.3899185349770278
 51
3.6459314862230658
  0
ARC
  5
97FD
  8
0
 10
4244.3716384020717669
 20
224.1313375508368892
 30
0.0
 40
0.0196737962099374
 50
89.9871621450197949
 51
180.0298691567734863
  0
LINE
  5
97FE
  8
0
 10
4244.3716428102388818
 20
224.1510113465529912
 30
0.0
 11
4245.9501810940391806
 21
224.1510113465529912
 31
0.0
  0
LINE
  5
97FF
  8
0
 10
4244.3850861653399988
 20
224.2336885906227053
 30
0.0
 11
4245.9367377389389731
 21
224.2336885906227053
 31
0.0
  0
ARC
  5
9800
  8
0
 10
4244.3839398019808868
 20
224.2650404448220058
 30
0.0
 40
0.0313728052727497
 50
176.2143143590710963
 51
272.0940558718501734
  0
ARC
  5
9801
  8
0
 10
4223.2256758404273569
 20
224.4423772230958889
 30
0.0
 40
21.1276865842949313
 50
359.5246955740536237
 51
1.401304034505034
  0
ARC
  5
9802
  8
0
 10
4245.2901549784592135
 20
221.7585925162289868
 30
0.0
 40
3.4288236553067031
 50
92.160063316443285
 51
101.0583388838265932
  0
ARC
  5
9803
  8
0
 10
4244.7929686354800651
 20
224.4635364919392941
 30
0.0
 40
0.6794414281828838
 50
103.6629552116138058
 51
129.9972896839855991
  0
ARC
  5
9804
  8
0
 10
4244.3900780377489355
 20
224.9573773366261946
 30
0.0
 40
0.0430668216820748
 50
141.7504474849654059
 51
177.7696920777167122
  0
LINE
  5
9805
  8
0
 10
4244.4125701507173289
 20
224.2336885906227053
 30
0.0
 11
4244.3998766634258573
 21
224.1510113465226937
 31
0.0
  0
ARC
  5
9806
  8
0
 10
4245.1614241660690823
 20
224.6677561395241867
 30
0.0
 40
0.1494193025666982
 50
13.1482385863738394
 51
90.186293456199877
  0
ARC
  5
9807
  8
0
 10
4245.1635636539340339
 20
224.6843433958918865
 30
0.0
 40
0.1444149813586691
 50
268.9479202876181034
 51
6.9206929728855346
  0
ARC
  5
9808
  8
0
 10
4245.155817841852695
 20
224.6714420499498033
 30
0.0
 40
0.1458225321426456
 50
87.9876686550380924
 51
167.2559746031386965
  0
ARC
  5
9809
  8
0
 10
4245.1591395556415591
 20
224.6864965923757893
 30
0.0
 40
0.1465545508190888
 50
173.2942300862181071
 51
270.6929645069312755
  0
ARC
  5
980A
  8
0
 10
4244.339146517942936
 20
224.8479760348303103
 30
0.0
 40
0.1113576930810399
 50
45.8173506037733276
 51
85.9332544784399346
  0
ARC
  5
980B
  8
0
 10
4244.6352486574141949
 20
225.3081152114964141
 30
0.0
 40
0.4385807896679547
 50
240.1204212381389027
 51
269.4734202561613756
  0
LINE
  5
980C
  8
0
 10
4244.6312179153483157
 20
224.8695529443276087
 30
0.0
 11
4245.6906059889297467
 21
224.8695529443276087
 31
0.0
  0
ARC
  5
980D
  8
0
 10
4245.0189521741640419
 20
222.556064753391496
 30
0.0
 40
0.8902473572578532
 50
113.9269486193166045
 51
150.8815136773513075
  0
ARC
  5
980E
  8
0
 10
4245.1996002863070316
 20
221.9071864133387066
 30
0.0
 40
1.5597134785690341
 50
91.4213544149989445
 51
110.3229893140248947
  0
ARC
  5
980F
  8
0
 10
4244.2698932085022534
 20
222.9695334962536037
 30
0.0
 40
0.0348130188571588
 50
145.4546759261546924
 51
214.3099004604378024
  0
ARC
  5
9810
  8
0
 10
4245.0904462735870766
 20
223.3506390950695959
 30
0.0
 40
0.9390998897839395
 50
205.2593062701637052
 51
240.4469603120589909
  0
ARC
  5
9811
  8
0
 10
4245.2151210112469926
 20
223.8186610285256961
 30
0.0
 40
1.4130352942446149
 50
245.4157575902787016
 51
267.588298511979076
  0
ARC
  5
9812
  8
0
 10
4245.0552245990465963
 20
221.6424469275692957
 30
0.0
 40
1.141252246655611
 50
94.9083018561386353
 51
107.0837899223129028
  0
ARC
  5
9813
  8
0
 10
4244.8147892931001479
 20
222.4256562918976101
 30
0.0
 40
0.3219685285981819
 50
107.1295169880635996
 51
124.7356017715837027
  0
ARC
  5
9814
  8
0
 10
4244.6534642831284145
 20
222.6394674587261875
 30
0.0
 40
0.055391905215082
 50
113.5474415205469967
 51
237.9810651281588036
  0
ARC
  5
9815
  8
0
 10
4245.0736380487505812
 20
223.2884926252619948
 30
0.0
 40
0.8285476493234646
 50
237.1414498808769054
 51
258.7578037392373176
  0
LINE
  5
9816
  8
0
 10
4244.806581243439723
 20
222.6303005731161875
 30
0.0
 11
4244.806581243439723
 21
222.5746698657162028
 31
0.0
  0
ARC
  5
9817
  8
0
 10
4244.896861392811843
 20
222.6028937269009873
 30
0.0
 40
0.0943485060314404
 50
102.3568371974374998
 51
163.112992536266205
  0
ARC
  5
9818
  8
0
 10
4244.8909577082067699
 20
222.5780152340832103
 30
0.0
 40
0.0844427575125837
 50
182.2704808411779993
 51
233.5860857785947076
  0
ARC
  5
9819
  8
0
 10
4245.1006986860284087
 20
222.9600379897987921
 30
0.0
 40
0.5196261190456223
 50
239.9930798732127073
 51
262.9707035709226943
  0
ARC
  5
981A
  8
0
 10
4245.1609119521390312
 20
223.4874482414219869
 30
0.0
 40
1.0504517952199039
 50
263.2315396952974993
 51
270.0
  0
ARC
  5
981B
  8
0
 10
4245.0564183726382907
 20
222.2577440768855013
 30
0.0
 40
0.37092502931103
 50
98.1675960090852726
 51
119.1865436103667975
  0
ARC
  5
981C
  8
0
 10
4244.8868075266373125
 20
222.5423029231245948
 30
0.0
 40
0.0408580630790069
 50
106.0152517982536011
 51
231.7352524214626044
  0
ARC
  5
981D
  8
0
 10
4245.1571229447381484
 20
223.1273374055409988
 30
0.0
 40
0.684266537864982
 50
244.4040075752050996
 51
270.3172667844673924
  0
LINE
  5
981E
  8
0
 10
4244.9283586352394195
 20
222.6058619894191963
 30
0.0
 11
4244.9283586351893973
 21
222.596115964748293
 31
0.0
  0
LINE
  5
981F
  8
0
 10
4244.9283586351893973
 20
222.596115964748293
 30
0.0
 11
4244.9480436745561747
 21
222.5881874851372118
 31
0.0
  0
LINE
  5
9820
  8
0
 10
4244.9480436745561747
 20
222.5881874851372118
 30
0.0
 11
4244.9480436746380292
 21
222.609051006547503
 31
0.0
  0
LINE
  5
9821
  8
0
 10
4244.9480436746380292
 20
222.609051006547503
 30
0.0
 11
4244.9431938707839436
 21
222.6109658054772922
 31
0.0
  0
LINE
  5
9822
  8
0
 10
4244.956197484841141
 20
222.6148731166157972
 30
0.0
 11
4244.9561974847902093
 21
222.6019516783516963
 31
0.0
  0
LINE
  5
9823
  8
0
 10
4244.9561974847902093
 20
222.6019516783516963
 30
0.0
 11
4244.9758825242388411
 21
222.5950454475162132
 31
0.0
  0
LINE
  5
9824
  8
0
 10
4244.9758825242388411
 20
222.5950454475162132
 30
0.0
 11
4244.9758825242388411
 21
222.6176080184282
 31
0.0
  0
LINE
  5
9825
  8
0
 10
4244.9758825242388411
 20
222.6176080184282
 30
0.0
 11
4244.9719998843902431
 21
222.6189350183711042
 31
0.0
  0
LINE
  5
9826
  8
0
 10
4244.9840363345401784
 20
222.6215382741044948
 30
0.0
 11
4244.9840363345274454
 21
222.6106049342247104
 31
0.0
  0
LINE
  5
9827
  8
0
 10
4244.9840363345274454
 20
222.6106049342247104
 30
0.0
 11
4245.0037213738996797
 21
222.6046789615139971
 31
0.0
  0
LINE
  5
9828
  8
0
 10
4245.0037213738996797
 20
222.6046789615139971
 30
0.0
 11
4245.003721373938788
 21
222.624906716185393
 31
0.0
  0
LINE
  5
9829
  8
0
 10
4245.0118751841391713
 20
222.6262185325363987
 30
0.0
 11
4245.0118751841391713
 21
222.6220765482161994
 31
0.0
  0
LINE
  5
982A
  8
0
 10
4245.0118751841391713
 20
222.6220765482161994
 30
0.0
 11
4245.0315602235368715
 21
222.6171051154533131
 31
0.0
  0
LINE
  5
982B
  8
0
 10
4245.0315602235368715
 20
222.6171051154533131
 30
0.0
 11
4245.0315602235396
 21
222.629091053049109
 31
0.0
  0
LINE
  5
982C
  8
0
 10
4245.0675528834390207
 20
222.6332762889551873
 30
0.0
 11
4245.0675528834390207
 21
222.6099207882161863
 31
0.0
  0
LINE
  5
982D
  8
0
 10
4245.0675528834390207
 20
222.6099207882161863
 30
0.0
 11
4245.0872379228421778
 21
222.6070030667941069
 31
0.0
  0
LINE
  5
982E
  8
0
 10
4245.0872379228421778
 20
222.6070030667941069
 30
0.0
 11
4245.0872379228394493
 21
222.6328905696389029
 31
0.0
  0
LINE
  5
982F
  8
0
 10
4245.0872379228394493
 20
222.6328905696389029
 30
0.0
 11
4245.0779034567585768
 21
222.6342265540328924
 31
0.0
  0
LINE
  5
9830
  8
0
 10
4245.0953917331389675
 20
222.6355766776214864
 30
0.0
 11
4245.0953917331389675
 21
222.6269187289016998
 31
0.0
  0
LINE
  5
9831
  8
0
 10
4245.0953917331389675
 20
222.6269187289016998
 30
0.0
 11
4245.115076772480279
 21
222.6249391592471909
 31
0.0
  0
LINE
  5
9832
  8
0
 10
4245.115076772480279
 20
222.6249391592471909
 30
0.0
 11
4245.1150767725393962
 21
222.6367138780530865
 31
0.0
  0
LINE
  5
9833
  8
0
 10
4245.1232305828389144
 20
222.6292477472258895
 30
0.0
 11
4245.123230582817996
 21
222.6034688779120927
 31
0.0
  0
LINE
  5
9834
  8
0
 10
4245.123230582817996
 20
222.6034688779120927
 30
0.0
 11
4245.1429156221392986
 21
222.6025066400162018
 31
0.0
  0
LINE
  5
9835
  8
0
 10
4245.1429156221392986
 20
222.6025066400162018
 30
0.0
 11
4245.1429156173708179
 21
222.6282562088254053
 31
0.0
  0
LINE
  5
9836
  8
0
 10
4245.1429156173708179
 20
222.6282562088254053
 30
0.0
 11
4245.1232305828389144
 21
222.6292477472258895
 31
0.0
  0
LINE
  5
9837
  8
0
 10
4245.1510694324397264
 20
222.6377498206041139
 30
0.0
 11
4245.1510694324397264
 21
222.6231362191693961
 31
0.0
  0
LINE
  5
9838
  8
0
 10
4244.9005197855385632
 20
222.5943165176915102
 30
0.0
 11
4244.9005197855385632
 21
222.593145518216204
 31
0.0
  0
LINE
  5
9839
  8
0
 10
4244.9005197855385632
 20
222.593145518216204
 30
0.0
 11
4244.9202048249380823
 21
222.5841342016362887
 31
0.0
  0
LINE
  5
983A
  8
0
 10
4244.9202048249380823
 20
222.5841342016362887
 30
0.0
 11
4244.9202048249380823
 21
222.6027531300896101
 31
0.0
  0
LINE
  5
983B
  8
0
 10
4244.8726809359477556
 20
222.5806411645301921
 30
0.0
 11
4244.8726809358458922
 21
222.5690338002106898
 31
0.0
  0
LINE
  5
983C
  8
0
 10
4244.8726809358458922
 20
222.5690338002106898
 30
0.0
 11
4244.8923659752381354
 21
222.5589970638162072
 31
0.0
  0
LINE
  5
983D
  8
0
 10
4244.8923659752381354
 20
222.5589970638162072
 30
0.0
 11
4244.8923659752990716
 21
222.572990268451008
 31
0.0
  0
LINE
  5
983E
  8
0
 10
4244.8923659752990716
 20
222.572990268451008
 30
0.0
 11
4244.8755350637147785
 21
222.5815752148610045
 31
0.0
  0
LINE
  5
983F
  8
0
 10
4244.900519785657707
 20
222.5820626360022914
 30
0.0
 11
4244.9005197855385632
 21
222.5663466346946961
 31
0.0
  0
LINE
  5
9840
  8
0
 10
4244.9005197855385632
 20
222.5663466346946961
 30
0.0
 11
4244.912226346325042
 21
222.5609863952113017
 31
0.0
  0
LINE
  5
9841
  8
0
 10
4244.912226346325042
 20
222.5609863952113017
 30
0.0
 11
4244.917135171339396
 21
222.5659966285161886
 31
0.0
  0
LINE
  5
9842
  8
0
 10
4244.917135171339396
 20
222.5659966285161886
 30
0.0
 11
4244.9202048249380823
 21
222.5659966285161886
 31
0.0
  0
LINE
  5
9843
  8
0
 10
4244.9202048249380823
 20
222.5659966285161886
 30
0.0
 11
4244.9202048248889696
 21
222.5731302110719128
 31
0.0
  0
LINE
  5
9844
  8
0
 10
4244.9202048248889696
 20
222.5731302110719128
 30
0.0
 11
4244.900519785657707
 21
222.5820626360022914
 31
0.0
  0
LINE
  5
9845
  8
0
 10
4244.9283586352394195
 20
222.5839982096775884
 30
0.0
 11
4244.9283586352394195
 21
222.5666589274497085
 31
0.0
  0
LINE
  5
9846
  8
0
 10
4244.9283586352394195
 20
222.5666589274497085
 30
0.0
 11
4244.9480436745952829
 21
222.5589185302117983
 31
0.0
  0
LINE
  5
9847
  8
0
 10
4244.9480436745952829
 20
222.5589185302117983
 30
0.0
 11
4244.9480436746380292
 21
222.5761544854532872
 31
0.0
  0
LINE
  5
9848
  8
0
 10
4244.9480436746380292
 20
222.5761544854532872
 30
0.0
 11
4244.9283586352394195
 21
222.5839982096775884
 31
0.0
  0
LINE
  5
9849
  8
0
 10
4244.956197484929362
 20
222.5887875021082039
 30
0.0
 11
4244.956197484839322
 21
222.5698254286562019
 31
0.0
  0
LINE
  5
984A
  8
0
 10
4244.956197484839322
 20
222.5698254286562019
 30
0.0
 11
4244.9758825241187878
 21
222.5631170481350125
 31
0.0
  0
LINE
  5
984B
  8
0
 10
4244.9758825241187878
 20
222.5631170481350125
 30
0.0
 11
4244.9758825242779494
 21
222.5819688036226864
 31
0.0
  0
LINE
  5
984C
  8
0
 10
4244.9758825242779494
 20
222.5819688036226864
 30
0.0
 11
4244.956197484929362
 21
222.5887875021082039
 31
0.0
  0
LINE
  5
984D
  8
0
 10
4244.9840363345392689
 20
222.5963659996893114
 30
0.0
 11
4244.9840363345392689
 21
222.5757559656161959
 31
0.0
  0
LINE
  5
984E
  8
0
 10
4244.9840363345392689
 20
222.5757559656161959
 30
0.0
 11
4245.003721373938788
 21
222.5700300999044998
 31
0.0
  0
LINE
  5
984F
  8
0
 10
4245.003721373938788
 20
222.5700300999044998
 30
0.0
 11
4245.003721373938788
 21
222.5905275599471906
 31
0.0
  0
LINE
  5
9850
  8
0
 10
4245.003721373938788
 20
222.5905275599471906
 30
0.0
 11
4244.984036334515622
 21
222.5963659997460127
 31
0.0
  0
LINE
  5
9851
  8
0
 10
4245.0118751842574056
 20
222.606716677209107
 30
0.0
 11
4245.0118751840964251
 21
222.5844075910526954
 31
0.0
  0
LINE
  5
9852
  8
0
 10
4245.0118751840964251
 20
222.5844075910526954
 30
0.0
 11
4245.0315602236014456
 21
222.5796312448813978
 31
0.0
  0
LINE
  5
9853
  8
0
 10
4245.0315602236014456
 20
222.5796312448813978
 30
0.0
 11
4245.0315602235396
 21
222.6018300013157898
 31
0.0
  0
LINE
  5
9854
  8
0
 10
4245.0315602235396
 20
222.6018300013157898
 30
0.0
 11
4245.0118751842574056
 21
222.6067166771667019
 31
0.0
  0
LINE
  5
9855
  8
0
 10
4245.0397140338673125
 20
222.6198685547136051
 30
0.0
 11
4245.0397140338391182
 21
222.5957810396029117
 31
0.0
  0
LINE
  5
9856
  8
0
 10
4245.0397140338391182
 20
222.5957810396029117
 30
0.0
 11
4245.0593990732795646
 21
222.5919359987547921
 31
0.0
  0
LINE
  5
9857
  8
0
 10
4245.0593990732795646
 20
222.5919359987547921
 30
0.0
 11
4245.0593990732386374
 21
222.6159201640788012
 31
0.0
  0
LINE
  5
9858
  8
0
 10
4245.0593990732386374
 20
222.6159201640788012
 30
0.0
 11
4245.0397140338673125
 21
222.6198685547136051
 31
0.0
  0
LINE
  5
9859
  8
0
 10
4244.9840363345392689
 20
222.5638507005797919
 30
0.0
 11
4244.9840363345392689
 21
222.5467706847699958
 31
0.0
  0
LINE
  5
985A
  8
0
 10
4244.9840363345392689
 20
222.5467706847699958
 30
0.0
 11
4245.0037213738096398
 21
222.5411710842485036
 31
0.0
  0
LINE
  5
985B
  8
0
 10
4245.0037213738096398
 20
222.5411710842485036
 30
0.0
 11
4245.003721373938788
 21
222.5581816533106121
 31
0.0
  0
LINE
  5
985C
  8
0
 10
4245.003721373938788
 20
222.5581816533106121
 30
0.0
 11
4244.9840363346065715
 21
222.5638507006216003
 31
0.0
  0
LINE
  5
985D
  8
0
 10
4245.0118751841391713
 20
222.5714612790179103
 30
0.0
 11
4245.0118751841391713
 21
222.5527740190021007
 31
0.0
  0
LINE
  5
985E
  8
0
 10
4245.0118751841391713
 20
222.5527740190021007
 30
0.0
 11
4245.0315602235259576
 21
222.5481262915168941
 31
0.0
  0
LINE
  5
985F
  8
0
 10
4245.0315602235259576
 20
222.5481262915168941
 30
0.0
 11
4245.0315602235396
 21
222.5667417517605031
 31
0.0
  0
LINE
  5
9860
  8
0
 10
4245.0315602235396
 20
222.5667417517605031
 30
0.0
 11
4245.0118751841391713
 21
222.5714612790179103
 31
0.0
  0
LINE
  5
9861
  8
0
 10
4245.0397140337718156
 20
222.5817573579282111
 30
0.0
 11
4245.0397140338391182
 21
222.561424391916205
 31
0.0
  0
LINE
  5
9862
  8
0
 10
4245.0397140338391182
 20
222.561424391916205
 30
0.0
 11
4245.0593990732386374
 21
222.5577026643099998
 31
0.0
  0
LINE
  5
9863
  8
0
 10
4245.0593990732386374
 20
222.5577026643099998
 30
0.0
 11
4245.0593990732031671
 21
222.5779661780916001
 31
0.0
  0
LINE
  5
9864
  8
0
 10
4245.0593990732031671
 20
222.5779661780916001
 30
0.0
 11
4245.0397140338391182
 21
222.5817573580162048
 31
0.0
  0
LINE
  5
9865
  8
0
 10
4245.0675528834390207
 20
222.5947653010161957
 30
0.0
 11
4245.0675528834390207
 21
222.5727224803652859
 31
0.0
  0
LINE
  5
9866
  8
0
 10
4245.0675528834390207
 20
222.5727224803652859
 30
0.0
 11
4245.0872379227439524
 21
222.5699145827933023
 31
0.0
  0
LINE
  5
9867
  8
0
 10
4245.0872379227439524
 20
222.5699145827933023
 30
0.0
 11
4245.0872379228585487
 21
222.5918952259960122
 31
0.0
  0
LINE
  5
9868
  8
0
 10
4245.0872379228585487
 20
222.5918952259960122
 30
0.0
 11
4245.0675528835099612
 21
222.5947653009903888
 31
0.0
  0
LINE
  5
9869
  8
0
 10
4245.0953917331180492
 20
222.6105554074098052
 30
0.0
 11
4245.0953917330862168
 21
222.586709196206499
 31
0.0
  0
LINE
  5
986A
  8
0
 10
4245.0953917330862168
 20
222.586709196206499
 30
0.0
 11
4245.1150767725393962
 21
222.5848163946749878
 31
0.0
  0
LINE
  5
986B
  8
0
 10
4245.1150767725393962
 20
222.5848163946749878
 30
0.0
 11
4245.1150767725011974
 21
222.608613352601509
 31
0.0
  0
LINE
  5
986C
  8
0
 10
4245.1150767725011974
 20
222.608613352601509
 30
0.0
 11
4245.0953917331180492
 21
222.6105554074098052
 31
0.0
  0
LINE
  5
986D
  8
0
 10
4245.0397140337772726
 20
222.5496590687912999
 30
0.0
 11
4245.0397140338391182
 21
222.5327501873233871
 31
0.0
  0
LINE
  5
986E
  8
0
 10
4245.0397140338391182
 20
222.5327501873233871
 30
0.0
 11
4245.059399073120403
 21
222.5291065999273883
 31
0.0
  0
LINE
  5
986F
  8
0
 10
4245.059399073120403
 20
222.5291065999273883
 30
0.0
 11
4245.0593990732386374
 21
222.5459724723559987
 31
0.0
  0
LINE
  5
9870
  8
0
 10
4245.0593990732386374
 20
222.5459724723559987
 30
0.0
 11
4245.0397140338509416
 21
222.5496590687758953
 31
0.0
  0
LINE
  5
9871
  8
0
 10
4245.0675528835281511
 20
222.559913386248013
 30
0.0
 11
4245.0675528834390207
 21
222.5413996129794043
 31
0.0
  0
LINE
  5
9872
  8
0
 10
4245.0675528834390207
 20
222.5413996129794043
 30
0.0
 11
4245.0872379228158024
 21
222.5386644178718996
 31
0.0
  0
LINE
  5
9873
  8
0
 10
4245.0872379228158024
 20
222.5386644178718996
 30
0.0
 11
4245.0872379228394493
 21
222.5571375772161957
 31
0.0
  0
LINE
  5
9874
  8
0
 10
4245.0872379228394493
 20
222.5571375772161957
 30
0.0
 11
4245.0675528835281511
 21
222.559913386248013
 31
0.0
  0
LINE
  5
9875
  8
0
 10
4245.0953917331007688
 20
222.5728113478191119
 30
0.0
 11
4245.0953917330843979
 21
222.5526407162107034
 31
0.0
  0
LINE
  5
9876
  8
0
 10
4245.0953917330843979
 20
222.5526407162107034
 30
0.0
 11
4245.1150767725393962
 21
222.5508068412781029
 31
0.0
  0
LINE
  5
9877
  8
0
 10
4245.1150767725393962
 20
222.5508068412781029
 30
0.0
 11
4245.1150767725393962
 21
222.5709442631759032
 31
0.0
  0
LINE
  5
9878
  8
0
 10
4245.1150767725393962
 20
222.5709442631759032
 30
0.0
 11
4245.0953917332044512
 21
222.5728113479187869
 31
0.0
  0
LINE
  5
9879
  8
0
 10
4245.1232305828389144
 20
222.5884180442110107
 30
0.0
 11
4245.1232305828389144
 21
222.5665118459652092
 31
0.0
  0
LINE
  5
987A
  8
0
 10
4245.1232305828389144
 20
222.5665118459652092
 30
0.0
 11
4245.1429156221256562
 21
222.5655851029655992
 31
0.0
  0
LINE
  5
987B
  8
0
 10
4245.1429156221256562
 20
222.5655851029655992
 30
0.0
 11
4245.1429156221392986
 21
222.5874711953161977
 31
0.0
  0
LINE
  5
987C
  8
0
 10
4245.1429156221392986
 20
222.5874711953161977
 30
0.0
 11
4245.1232305828389144
 21
222.5884180442110107
 31
0.0
  0
LINE
  5
987D
  8
0
 10
4245.1510694324397264
 20
222.6068443304187952
 30
0.0
 11
4245.1510694324397264
 21
222.5830919250161912
 31
0.0
  0
LINE
  5
987E
  8
0
 10
4245.1232305827670643
 20
222.5247274080253987
 30
0.0
 11
4245.1429156221365702
 21
222.523830656983904
 31
0.0
  0
LINE
  5
987F
  8
0
 10
4245.1429156221365702
 20
222.523830656983904
 30
0.0
 11
4245.1527581418404225
 21
222.5157919377161875
 31
0.0
  0
LINE
  5
9880
  8
0
 10
4245.1527581418404225
 20
222.5157919377161875
 30
0.0
 11
4245.1133880631387001
 21
222.5175779289162108
 31
0.0
  0
LINE
  5
9881
  8
0
 10
4245.1133880631387001
 20
222.5175779289162108
 30
0.0
 11
4245.1232305828007156
 21
222.5247274080408886
 31
0.0
  0
LINE
  5
9882
  8
0
 10
4245.067552883463577
 20
222.5307344653589894
 30
0.0
 11
4245.0872379229331273
 21
222.5280191684765043
 31
0.0
  0
LINE
  5
9883
  8
0
 10
4245.0872379229331273
 20
222.5280191684765043
 30
0.0
 11
4245.0970804425778624
 21
222.5190618637338105
 31
0.0
  0
LINE
  5
9884
  8
0
 10
4245.0970804425778624
 20
222.5190618637338105
 30
0.0
 11
4245.0577103638397602
 21
222.5244693359161943
 31
0.0
  0
LINE
  5
9885
  8
0
 10
4245.0577103638397602
 20
222.5244693359161943
 30
0.0
 11
4245.067552883463577
 21
222.5307344653589894
 31
0.0
  0
LINE
  5
9886
  8
0
 10
4245.0118751841391713
 20
222.5420239495302894
 30
0.0
 11
4245.031560223528686
 21
222.537411353200298
 31
0.0
  0
LINE
  5
9887
  8
0
 10
4245.031560223528686
 20
222.537411353200298
 30
0.0
 11
4245.0414027432989315
 21
222.5274788302542959
 31
0.0
  0
LINE
  5
9888
  8
0
 10
4245.0414027432989315
 20
222.5274788302542959
 30
0.0
 11
4245.0020326645390014
 21
222.5366633913162104
 31
0.0
  0
LINE
  5
9889
  8
0
 10
4245.0020326645390014
 20
222.5366633913162104
 30
0.0
 11
4245.0118751841046105
 21
222.5420239495107921
 31
0.0
  0
LINE
  5
988A
  8
0
 10
4244.9561974848693353
 20
222.5589410930984116
 30
0.0
 11
4244.9758825242388411
 21
222.5522865728360955
 31
0.0
  0
LINE
  5
988B
  8
0
 10
4244.9758825242388411
 20
222.5522865728360955
 30
0.0
 11
4244.9857250439017662
 21
222.5412878012809017
 31
0.0
  0
LINE
  5
988C
  8
0
 10
4244.9857250439017662
 20
222.5412878012809017
 30
0.0
 11
4244.9463549651391077
 21
222.5545350311161883
 31
0.0
  0
LINE
  5
988D
  8
0
 10
4244.9463549651391077
 20
222.5545350311161883
 30
0.0
 11
4244.9561974848693353
 21
222.5589410930984116
 31
0.0
  0
LINE
  5
988E
  8
0
 10
4245.0953917331389675
 20
222.5409575396141122
 30
0.0
 11
4245.0953917331671619
 21
222.5241492542818946
 31
0.0
  0
LINE
  5
988F
  8
0
 10
4245.0953917331671619
 20
222.5241492542818946
 30
0.0
 11
4245.1150767725039259
 21
222.5223528073753982
 31
0.0
  0
LINE
  5
9890
  8
0
 10
4245.1150767725039259
 20
222.5223528073753982
 30
0.0
 11
4245.1150767725393962
 21
222.5391404838161975
 31
0.0
  0
LINE
  5
9891
  8
0
 10
4245.1150767725393962
 20
222.5391404838161975
 30
0.0
 11
4245.0953917331389675
 21
222.5409575396141122
 31
0.0
  0
LINE
  5
9892
  8
0
 10
4245.1232305828389144
 20
222.5537732823266026
 30
0.0
 11
4245.1232305828389144
 21
222.5353487999161928
 31
0.0
  0
LINE
  5
9893
  8
0
 10
4245.1232305828389144
 20
222.5353487999161928
 30
0.0
 11
4245.1429156221392986
 21
222.5344455993162001
 31
0.0
  0
LINE
  5
9894
  8
0
 10
4245.1429156221392986
 20
222.5344455993162001
 30
0.0
 11
4245.1429156221392986
 21
222.5528569257540994
 31
0.0
  0
LINE
  5
9895
  8
0
 10
4245.1429156221392986
 20
222.5528569257540994
 30
0.0
 11
4245.1232305828389144
 21
222.5537732822687076
 31
0.0
  0
LINE
  5
9896
  8
0
 10
4245.1510694324397264
 20
222.5692430658162095
 30
0.0
 11
4245.1510694324397264
 21
222.5491357060161874
 31
0.0
  0
LINE
  5
9897
  8
0
 10
4245.1510694323997086
 20
222.5374845774838946
 30
0.0
 11
4245.1510694324397264
 21
222.5207155652896063
 31
0.0
  0
LINE
  5
9898
  8
0
 10
4244.8726809359577601
 20
222.5507125963769113
 30
0.0
 11
4244.872680935804965
 21
222.5612519937776881
 31
0.0
  0
LINE
  5
9899
  8
0
 10
4244.872680935804965
 20
222.5612519937776881
 30
0.0
 11
4244.8923659752599633
 21
222.5512375499866096
 31
0.0
  0
LINE
  5
989A
  8
0
 10
4244.8923659752599633
 20
222.5512375499866096
 30
0.0
 11
4244.8923659752381354
 21
222.5406981527162031
 31
0.0
  0
LINE
  5
989B
  8
0
 10
4244.8923659752381354
 20
222.5406981527162031
 30
0.0
 11
4244.8726809359577601
 21
222.5507125963769113
 31
0.0
  0
LINE
  5
989C
  8
0
 10
4244.8726809359341132
 20
222.5381375063560085
 30
0.0
 11
4244.8726809359395702
 21
222.5451516699162084
 31
0.0
  0
LINE
  5
989D
  8
0
 10
4244.8726809359395702
 20
222.5451516699162084
 30
0.0
 11
4244.8923659752417734
 21
222.535114933569389
 31
0.0
  0
LINE
  5
989E
  8
0
 10
4244.8923659752417734
 20
222.535114933569389
 30
0.0
 11
4244.8923659753081665
 21
222.5280293434412044
 31
0.0
  0
LINE
  5
989F
  8
0
 10
4244.8923659753081665
 20
222.5280293434412044
 30
0.0
 11
4244.8726809359341132
 21
222.5381375063560085
 31
0.0
  0
ARC
  5
98A0
  8
0
 10
4245.1609119522236142
 20
223.1178857192172984
 30
0.0
 40
0.6156746553877319
 50
245.4002158520511898
 51
269.9999999921312792
  0
ARC
  5
98A1
  8
0
 10
4244.9605160087476179
 20
222.5422703233494133
 30
0.0
 40
0.0580913295562382
 50
164.1962272099218012
 51
195.803772724965313
  0
ARC
  5
98A2
  8
0
 10
4245.1609119521081084
 20
223.0862441580217137
 30
0.0
 40
0.6156746946638825
 50
245.4002175378861068
 51
270.0000000028659883
  0
ARC
  5
98A3
  8
0
 10
4245.0268942696593513
 20
222.7702257684784115
 30
0.0
 40
0.2843960861996889
 50
230.6880184638125115
 51
248.3089705193411021
  0
ARC
  5
98A4
  8
0
 10
4245.1610919810727864
 20
223.0464490041167096
 30
0.0
 40
0.591092036788684
 50
246.1175028082342067
 51
269.9859719296521234
  0
ARC
  5
98A5
  8
0
 10
4213.8468943484067495
 20
222.1922372027289896
 30
0.0
 40
30.3898256326468186
 50
0.6471973340510722
 51
1.4424587444735311
  0
ARC
  5
98A6
  8
0
 10
4244.3284841043850975
 20
222.957212125725988
 30
0.0
 40
0.1013943605528101
 50
161.5691646526155978
 51
179.9841736443617037
  0
LINE
  5
98A7
  8
0
 10
4244.2411242979169401
 20
222.9499300254969967
 30
0.0
 11
4246.0806772677860863
 21
222.9498913821346946
 31
0.0
  0
ARC
  5
98A8
  8
0
 10
4245.1609119521390312
 20
221.808183844155792
 30
0.0
 40
0.9313088457992401
 50
90.0
 51
107.7705607245009958
  0
ARC
  5
98A9
  8
0
 10
4244.8313849230826236
 20
222.6480827785784982
 30
0.0
 40
0.0440008172387279
 50
152.4527052500509114
 51
235.6872738920870916
  0
ARC
  5
98AA
  8
0
 10
4244.8998472836101428
 20
222.5909273423507102
 30
0.0
 40
0.1325060264896774
 50
107.7950594297490028
 51
144.2029081173866132
  0
ARC
  5
98AB
  8
0
 10
4245.1609119521390312
 20
221.7774294328411884
 30
0.0
 40
0.9868675481533934
 50
90.0
 51
107.792651389566899
  0
LINE
  5
98AC
  8
0
 10
4246.0868345821390903
 20
211.8723705829031871
 30
0.0
 11
4246.0869648197767674
 21
218.5460955695826897
 31
0.0
  0
LINE
  5
98AD
  8
0
 10
4246.0869780780822111
 20
218.584955580373105
 30
0.0
 11
4246.0870426730380132
 21
222.5355049974226915
 31
0.0
  0
ARC
  5
98AE
  8
0
 10
4249.3958163387351306
 20
223.913026898565704
 30
0.0
 40
3.4329049977150281
 50
176.3540685137768946
 51
195.6100814650230006
  0
ARC
  5
98AF
  8
0
 10
4245.9501855022062955
 20
224.1313375508368892
 30
0.0
 40
0.0196737962099374
 50
359.9701308432264
 51
90.0128378549802193
  0
ARC
  5
98B0
  8
0
 10
4245.9378841022971756
 20
224.2650404448220058
 30
0.0
 40
0.0313728052727497
 50
267.9059441281498266
 51
3.7856856409288229
  0
ARC
  5
98B1
  8
0
 10
4267.0964833489006196
 20
224.4423772590982935
 30
0.0
 40
21.1280218581068802
 50
178.5987183044375968
 51
180.4752969809539991
  0
ARC
  5
98B2
  8
0
 10
4245.0316569101596542
 20
221.7585152014667926
 30
0.0
 40
3.4289018392243422
 50
78.9417118644425955
 51
87.8395760206380061
  0
LINE
  5
98B3
  8
0
 10
4245.909253753561643
 20
224.2336885906227053
 30
0.0
 11
4245.9219472408522051
 21
224.1510113465226937
 31
0.0
  0
ARC
  5
98B4
  8
0
 10
4245.9962029378011721
 20
224.8177742810900952
 30
0.0
 40
0.1428940738974646
 50
98.6224057938577943
 51
129.627044272124806
  0
ARC
  5
98B5
  8
0
 10
4245.6868657251206969
 20
225.3070463009445916
 30
0.0
 40
0.4375093446514366
 50
270.4898271170329167
 51
299.9163313886696756
  0
ARC
  5
98B6
  8
0
 10
4245.30287173011493
 20
222.556064753391496
 30
0.0
 40
0.8902473572578532
 50
29.1184863226486286
 51
66.0730513806833955
  0
ARC
  5
98B7
  8
0
 10
4245.1314242850830851
 20
221.9550900899436101
 30
0.0
 40
1.511617541149088
 50
69.3734165486312691
 51
88.8822397223530061
  0
ARC
  5
98B8
  8
0
 10
4246.051930695775809
 20
222.9695334962536037
 30
0.0
 40
0.0348130188571588
 50
325.6900995395620839
 51
34.5453240738453076
  0
ARC
  5
98B9
  8
0
 10
4245.2313776306918953
 20
223.3506390950695959
 30
0.0
 40
0.9390998897839395
 50
299.5530396879410091
 51
334.7406937298363232
  0
ARC
  5
98BA
  8
0
 10
4245.1362037753624463
 20
223.6978076446197008
 30
0.0
 40
1.291076946570316
 50
270.8635067350526242
 51
295.6250625453841963
  0
ARC
  5
98BB
  8
0
 10
4245.2665993052305566
 20
221.6424469275692957
 30
0.0
 40
1.141252246655611
 50
72.916210077687083
 51
85.0916981438613647
  0
ARC
  5
98BC
  8
0
 10
4245.5070346111779145
 20
222.4256562918976101
 30
0.0
 40
0.3219685285981819
 50
55.2643982284162689
 51
72.8704830119364004
  0
ARC
  5
98BD
  8
0
 10
4245.6683596211487384
 20
222.6394674587261875
 30
0.0
 40
0.055391905215082
 50
302.0189348718412248
 51
66.4525584794529323
  0
ARC
  5
98BE
  8
0
 10
4245.2481858555256622
 20
223.2884926252619948
 30
0.0
 40
0.8285476493234646
 50
280.7074977928280077
 51
302.858550119122981
  0
LINE
  5
98BF
  8
0
 10
4245.5152426608392489
 20
222.6303005731161875
 30
0.0
 11
4245.5152426608392489
 21
222.5746698657162028
 31
0.0
  0
ARC
  5
98C0
  8
0
 10
4245.4249625114662194
 20
222.6028937269009873
 30
0.0
 40
0.0943485060314404
 50
16.8870074637337702
 51
77.6431628025624434
  0
ARC
  5
98C1
  8
0
 10
4245.430866196072202
 20
222.5780152340832103
 30
0.0
 40
0.0844427575125837
 50
306.4139142214053209
 51
357.7295191588203238
  0
ARC
  5
98C2
  8
0
 10
4245.1962403102543249
 20
223.0343330982574059
 30
0.0
 40
0.5966122799188101
 50
278.5281798000264075
 51
298.5080367558554144
  0
ARC
  5
98C3
  8
0
 10
4245.1609119521390312
 20
223.4874482414219869
 30
0.0
 40
1.0504517952199039
 50
270.0
 51
276.7684603047026144
  0
ARC
  5
98C4
  8
0
 10
4245.2654055316406811
 20
222.2577440768855013
 30
0.0
 40
0.37092502931103
 50
60.8134563896331599
 51
81.8324039909147132
  0
ARC
  5
98C5
  8
0
 10
4245.4350163776407499
 20
222.5423029231245948
 30
0.0
 40
0.0408580630790069
 50
308.264747578537424
 51
73.9847482017463705
  0
ARC
  5
98C6
  8
0
 10
4245.164700959291622
 20
223.127337406255009
 30
0.0
 40
0.6842665386157897
 50
269.6827326584660227
 51
295.5959924176818845
  0
LINE
  5
98C7
  8
0
 10
4245.3934652690395524
 20
222.6058619894191963
 30
0.0
 11
4245.3934652690886651
 21
222.596115964748293
 31
0.0
  0
LINE
  5
98C8
  8
0
 10
4245.3934652690886651
 20
222.596115964748293
 30
0.0
 11
4245.3737802297218877
 21
222.5881874851372118
 31
0.0
  0
LINE
  5
98C9
  8
0
 10
4245.3737802297218877
 20
222.5881874851372118
 30
0.0
 11
4245.3737802296391237
 21
222.609051006547503
 31
0.0
  0
LINE
  5
98CA
  8
0
 10
4245.3737802296391237
 20
222.609051006547503
 30
0.0
 11
4245.3786300334941188
 21
222.6109658054772922
 31
0.0
  0
LINE
  5
98CB
  8
0
 10
4245.3656264194369214
 20
222.6148731166157972
 30
0.0
 11
4245.3656264194887626
 21
222.6019516783516963
 31
0.0
  0
LINE
  5
98CC
  8
0
 10
4245.3656264194887626
 20
222.6019516783516963
 30
0.0
 11
4245.3459413800401308
 21
222.5950454475162132
 31
0.0
  0
LINE
  5
98CD
  8
0
 10
4245.3459413800401308
 20
222.5950454475162132
 30
0.0
 11
4245.3459413800401308
 21
222.6176080184282
 31
0.0
  0
LINE
  5
98CE
  8
0
 10
4245.3459413800401308
 20
222.6176080184282
 30
0.0
 11
4245.3498240198887288
 21
222.6189350183711042
 31
0.0
  0
LINE
  5
98CF
  8
0
 10
4245.3377875697387935
 20
222.6215382741044948
 30
0.0
 11
4245.337787569750617
 21
222.6106049342247104
 31
0.0
  0
LINE
  5
98D0
  8
0
 10
4245.337787569750617
 20
222.6106049342247104
 30
0.0
 11
4245.3181025303792921
 21
222.6046789615139971
 31
0.0
  0
LINE
  5
98D1
  8
0
 10
4245.3181025303792921
 20
222.6046789615139971
 30
0.0
 11
4245.3181025303392744
 21
222.624906716185393
 31
0.0
  0
LINE
  5
98D2
  8
0
 10
4245.3099487201398006
 20
222.6262185325363987
 30
0.0
 11
4245.3099487201398006
 21
222.6220765482161994
 31
0.0
  0
LINE
  5
98D3
  8
0
 10
4245.3099487201398006
 20
222.6220765482161994
 30
0.0
 11
4245.2902636807411909
 21
222.6171051154533131
 31
0.0
  0
LINE
  5
98D4
  8
0
 10
4245.2902636807411909
 20
222.6171051154533131
 30
0.0
 11
4245.2902636807393719
 21
222.629091053049109
 31
0.0
  0
LINE
  5
98D5
  8
0
 10
4245.2542710208390417
 20
222.6332762889551873
 30
0.0
 11
4245.2542710208390417
 21
222.6099207882161863
 31
0.0
  0
LINE
  5
98D6
  8
0
 10
4245.2542710208390417
 20
222.6099207882161863
 30
0.0
 11
4245.2345859814349751
 21
222.6070030667941069
 31
0.0
  0
LINE
  5
98D7
  8
0
 10
4245.2345859814349751
 20
222.6070030667941069
 30
0.0
 11
4245.2345859814386131
 21
222.6328905696389029
 31
0.0
  0
LINE
  5
98D8
  8
0
 10
4245.2345859814386131
 20
222.6328905696389029
 30
0.0
 11
4245.2439204475203951
 21
222.6342265540328924
 31
0.0
  0
LINE
  5
98D9
  8
0
 10
4245.2264321711390949
 20
222.6355766776214864
 30
0.0
 11
4245.2264321711390949
 21
222.6269187289016998
 31
0.0
  0
LINE
  5
98DA
  8
0
 10
4245.2264321711390949
 20
222.6269187289016998
 30
0.0
 11
4245.2067471317977834
 21
222.6249391592471909
 31
0.0
  0
LINE
  5
98DB
  8
0
 10
4245.2067471317977834
 20
222.6249391592471909
 30
0.0
 11
4245.2067471317395757
 21
222.6367138780530865
 31
0.0
  0
LINE
  5
98DC
  8
0
 10
4245.198593321439148
 20
222.6292477472258895
 30
0.0
 11
4245.1985933214600664
 21
222.6034688779120927
 31
0.0
  0
LINE
  5
98DD
  8
0
 10
4245.1985933214600664
 20
222.6034688779120927
 30
0.0
 11
4245.1789082821396732
 21
222.6025066400162018
 31
0.0
  0
LINE
  5
98DE
  8
0
 10
4245.1789082821396732
 20
222.6025066400162018
 30
0.0
 11
4245.178908286908154
 21
222.6282562088254053
 31
0.0
  0
LINE
  5
98DF
  8
0
 10
4245.178908286908154
 20
222.6282562088254053
 30
0.0
 11
4245.198593321439148
 21
222.6292477472258895
 31
0.0
  0
LINE
  5
98E0
  8
0
 10
4245.1707544718392455
 20
222.6377498206041139
 30
0.0
 11
4245.1707544718392455
 21
222.6231362191693961
 31
0.0
  0
LINE
  5
98E1
  8
0
 10
4245.4213041187385898
 20
222.5943165176915102
 30
0.0
 11
4245.4213041187385898
 21
222.593145518216204
 31
0.0
  0
LINE
  5
98E2
  8
0
 10
4245.4213041187385898
 20
222.593145518216204
 30
0.0
 11
4245.4016190793390706
 21
222.5841342016362887
 31
0.0
  0
LINE
  5
98E3
  8
0
 10
4245.4016190793390706
 20
222.5841342016362887
 30
0.0
 11
4245.4016190793390706
 21
222.6027531300896101
 31
0.0
  0
LINE
  5
98E4
  8
0
 10
4245.4491429683303068
 20
222.5806411645301921
 30
0.0
 11
4245.4491429684330797
 21
222.5690338002106898
 31
0.0
  0
LINE
  5
98E5
  8
0
 10
4245.4491429684330797
 20
222.5690338002106898
 30
0.0
 11
4245.4294579290390175
 21
222.5589970638162072
 31
0.0
  0
LINE
  5
98E6
  8
0
 10
4245.4294579290390175
 20
222.5589970638162072
 30
0.0
 11
4245.4294579289789908
 21
222.572990268451008
 31
0.0
  0
LINE
  5
98E7
  8
0
 10
4245.4294579289789908
 20
222.572990268451008
 30
0.0
 11
4245.4462888405641934
 21
222.5815752148610045
 31
0.0
  0
LINE
  5
98E8
  8
0
 10
4245.4213041186212649
 20
222.5820626360022914
 30
0.0
 11
4245.4213041187385898
 21
222.5663466346946961
 31
0.0
  0
LINE
  5
98E9
  8
0
 10
4245.4213041187385898
 20
222.5663466346946961
 30
0.0
 11
4245.4095975579539299
 21
222.5609863952113017
 31
0.0
  0
LINE
  5
98EA
  8
0
 10
4245.4095975579539299
 20
222.5609863952113017
 30
0.0
 11
4245.4046887329386664
 21
222.5659966285161886
 31
0.0
  0
LINE
  5
98EB
  8
0
 10
4245.4046887329386664
 20
222.5659966285161886
 30
0.0
 11
4245.4016190793390706
 21
222.5659966285161886
 31
0.0
  0
LINE
  5
98EC
  8
0
 10
4245.4016190793390706
 20
222.5659966285161886
 30
0.0
 11
4245.4016190793890928
 21
222.5731302110719128
 31
0.0
  0
LINE
  5
98ED
  8
0
 10
4245.4016190793890928
 20
222.5731302110719128
 30
0.0
 11
4245.4213041186212649
 21
222.5820626360022914
 31
0.0
  0
LINE
  5
98EE
  8
0
 10
4245.3934652690395524
 20
222.5839982096775884
 30
0.0
 11
4245.3934652690395524
 21
222.5666589274497085
 31
0.0
  0
LINE
  5
98EF
  8
0
 10
4245.3934652690395524
 20
222.5666589274497085
 30
0.0
 11
4245.3737802296827795
 21
222.5589185302117983
 31
0.0
  0
LINE
  5
98F0
  8
0
 10
4245.3737802296827795
 20
222.5589185302117983
 30
0.0
 11
4245.3737802296391237
 21
222.5761544854532872
 31
0.0
  0
LINE
  5
98F1
  8
0
 10
4245.3737802296391237
 20
222.5761544854532872
 30
0.0
 11
4245.3934652690395524
 21
222.5839982096775884
 31
0.0
  0
LINE
  5
98F2
  8
0
 10
4245.3656264193487004
 20
222.5887875021082039
 30
0.0
 11
4245.3656264194396499
 21
222.5698254286562019
 31
0.0
  0
LINE
  5
98F3
  8
0
 10
4245.3656264194396499
 20
222.5698254286562019
 30
0.0
 11
4245.3459413801592746
 21
222.5631170481350125
 31
0.0
  0
LINE
  5
98F4
  8
0
 10
4245.3459413801592746
 20
222.5631170481350125
 30
0.0
 11
4245.345941380000113
 21
222.5819688036226864
 31
0.0
  0
LINE
  5
98F5
  8
0
 10
4245.345941380000113
 20
222.5819688036226864
 30
0.0
 11
4245.3656264193487004
 21
222.5887875021082039
 31
0.0
  0
LINE
  5
98F6
  8
0
 10
4245.337787569739703
 20
222.5963659996893114
 30
0.0
 11
4245.337787569739703
 21
222.5757559656161959
 31
0.0
  0
LINE
  5
98F7
  8
0
 10
4245.337787569739703
 20
222.5757559656161959
 30
0.0
 11
4245.3181025303392744
 21
222.5700300999044998
 31
0.0
  0
LINE
  5
98F8
  8
0
 10
4245.3181025303392744
 20
222.5700300999044998
 30
0.0
 11
4245.3181025303392744
 21
222.5905275599471906
 31
0.0
  0
LINE
  5
98F9
  8
0
 10
4245.3181025303392744
 20
222.5905275599471906
 30
0.0
 11
4245.3377875697624404
 21
222.5963659997460127
 31
0.0
  0
LINE
  5
98FA
  8
0
 10
4245.3099487200215663
 20
222.606716677209107
 30
0.0
 11
4245.3099487201816373
 21
222.5844075910526954
 31
0.0
  0
LINE
  5
98FB
  8
0
 10
4245.3099487201816373
 20
222.5844075910526954
 30
0.0
 11
4245.2902636806766168
 21
222.5796312448813978
 31
0.0
  0
LINE
  5
98FC
  8
0
 10
4245.2902636806766168
 20
222.5796312448813978
 30
0.0
 11
4245.2902636807393719
 21
222.6018300013157898
 31
0.0
  0
LINE
  5
98FD
  8
0
 10
4245.2902636807393719
 20
222.6018300013157898
 30
0.0
 11
4245.3099487200215663
 21
222.6067166771667019
 31
0.0
  0
LINE
  5
98FE
  8
0
 10
4245.2821098704098404
 20
222.6198685547136051
 30
0.0
 11
4245.2821098704389442
 21
222.5957810396029117
 31
0.0
  0
LINE
  5
98FF
  8
0
 10
4245.2821098704389442
 20
222.5957810396029117
 30
0.0
 11
4245.2624248309994073
 21
222.5919359987547921
 31
0.0
  0
LINE
  5
9900
  8
0
 10
4245.2624248309994073
 20
222.5919359987547921
 30
0.0
 11
4245.262424831039425
 21
222.6159201640788012
 31
0.0
  0
LINE
  5
9901
  8
0
 10
4245.262424831039425
 20
222.6159201640788012
 30
0.0
 11
4245.2821098704098404
 21
222.6198685547136051
 31
0.0
  0
LINE
  5
9902
  8
0
 10
4245.337787569739703
 20
222.5638507005797919
 30
0.0
 11
4245.337787569739703
 21
222.5467706847699958
 31
0.0
  0
LINE
  5
9903
  8
0
 10
4245.337787569739703
 20
222.5467706847699958
 30
0.0
 11
4245.3181025304684226
 21
222.5411710842485036
 31
0.0
  0
LINE
  5
9904
  8
0
 10
4245.3181025304684226
 20
222.5411710842485036
 30
0.0
 11
4245.3181025303392744
 21
222.5581816533106121
 31
0.0
  0
LINE
  5
9905
  8
0
 10
4245.3181025303392744
 20
222.5581816533106121
 30
0.0
 11
4245.3377875696705814
 21
222.5638507006216003
 31
0.0
  0
LINE
  5
9906
  8
0
 10
4245.3099487201398006
 20
222.5714612790179103
 30
0.0
 11
4245.3099487201398006
 21
222.5527740190021007
 31
0.0
  0
LINE
  5
9907
  8
0
 10
4245.3099487201398006
 20
222.5527740190021007
 30
0.0
 11
4245.2902636807521048
 21
222.5481262915168941
 31
0.0
  0
LINE
  5
9908
  8
0
 10
4245.2902636807521048
 20
222.5481262915168941
 30
0.0
 11
4245.2902636807393719
 21
222.5667417517605031
 31
0.0
  0
LINE
  5
9909
  8
0
 10
4245.2902636807393719
 20
222.5667417517605031
 30
0.0
 11
4245.3099487201398006
 21
222.5714612790179103
 31
0.0
  0
LINE
  5
990A
  8
0
 10
4245.2821098705053373
 20
222.5817573579282111
 30
0.0
 11
4245.2821098704389442
 21
222.561424391916205
 31
0.0
  0
LINE
  5
990B
  8
0
 10
4245.2821098704389442
 20
222.561424391916205
 30
0.0
 11
4245.262424831039425
 21
222.5577026643099998
 31
0.0
  0
LINE
  5
990C
  8
0
 10
4245.262424831039425
 20
222.5577026643099998
 30
0.0
 11
4245.2624248310758048
 21
222.5779661780916001
 31
0.0
  0
LINE
  5
990D
  8
0
 10
4245.2624248310758048
 20
222.5779661780916001
 30
0.0
 11
4245.2821098704389442
 21
222.5817573580162048
 31
0.0
  0
LINE
  5
990E
  8
0
 10
4245.2542710208390417
 20
222.5947653010161957
 30
0.0
 11
4245.2542710208390417
 21
222.5727224803652859
 31
0.0
  0
LINE
  5
990F
  8
0
 10
4245.2542710208390417
 20
222.5727224803652859
 30
0.0
 11
4245.2345859815350195
 21
222.5699145827933023
 31
0.0
  0
LINE
  5
9910
  8
0
 10
4245.2345859815350195
 20
222.5699145827933023
 30
0.0
 11
4245.2345859814186042
 21
222.5918952259960122
 31
0.0
  0
LINE
  5
9911
  8
0
 10
4245.2345859814186042
 20
222.5918952259960122
 30
0.0
 11
4245.2542710207681012
 21
222.5947653009903888
 31
0.0
  0
LINE
  5
9912
  8
0
 10
4245.2264321711600132
 20
222.6105554074098052
 30
0.0
 11
4245.2264321711909361
 21
222.586709196206499
 31
0.0
  0
LINE
  5
9913
  8
0
 10
4245.2264321711909361
 20
222.586709196206499
 30
0.0
 11
4245.2067471317395757
 21
222.5848163946749878
 31
0.0
  0
LINE
  5
9914
  8
0
 10
4245.2067471317395757
 20
222.5848163946749878
 30
0.0
 11
4245.206747131776865
 21
222.608613352601509
 31
0.0
  0
LINE
  5
9915
  8
0
 10
4245.206747131776865
 20
222.608613352601509
 30
0.0
 11
4245.2264321711600132
 21
222.6105554074098052
 31
0.0
  0
LINE
  5
9916
  8
0
 10
4245.2821098705007898
 20
222.5496590687912999
 30
0.0
 11
4245.2821098704389442
 21
222.5327501873233871
 31
0.0
  0
LINE
  5
9917
  8
0
 10
4245.2821098704389442
 20
222.5327501873233871
 30
0.0
 11
4245.2624248311585688
 21
222.5291065999273883
 31
0.0
  0
LINE
  5
9918
  8
0
 10
4245.2624248311585688
 20
222.5291065999273883
 30
0.0
 11
4245.262424831039425
 21
222.5459724723559987
 31
0.0
  0
LINE
  5
9919
  8
0
 10
4245.262424831039425
 20
222.5459724723559987
 30
0.0
 11
4245.2821098704262113
 21
222.5496590687758953
 31
0.0
  0
LINE
  5
991A
  8
0
 10
4245.2542710207490018
 20
222.559913386248013
 30
0.0
 11
4245.2542710208390417
 21
222.5413996129794043
 31
0.0
  0
LINE
  5
991B
  8
0
 10
4245.2542710208390417
 20
222.5413996129794043
 30
0.0
 11
4245.2345859814631694
 21
222.5386644178718996
 31
0.0
  0
LINE
  5
991C
  8
0
 10
4245.2345859814631694
 20
222.5386644178718996
 30
0.0
 11
4245.2345859814386131
 21
222.5571375772161957
 31
0.0
  0
LINE
  5
991D
  8
0
 10
4245.2345859814386131
 20
222.5571375772161957
 30
0.0
 11
4245.2542710207490018
 21
222.559913386248013
 31
0.0
  0
LINE
  5
991E
  8
0
 10
4245.2264321711782031
 20
222.5728113478191119
 30
0.0
 11
4245.226432171192755
 21
222.5526407162107034
 31
0.0
  0
LINE
  5
991F
  8
0
 10
4245.226432171192755
 20
222.5526407162107034
 30
0.0
 11
4245.2067471317395757
 21
222.5508068412781029
 31
0.0
  0
LINE
  5
9920
  8
0
 10
4245.2067471317395757
 20
222.5508068412781029
 30
0.0
 11
4245.2067471317395757
 21
222.5709442631759032
 31
0.0
  0
LINE
  5
9921
  8
0
 10
4245.2067471317395757
 20
222.5709442631759032
 30
0.0
 11
4245.2264321710736112
 21
222.5728113479187869
 31
0.0
  0
LINE
  5
9922
  8
0
 10
4245.198593321439148
 20
222.5884180442110107
 30
0.0
 11
4245.198593321439148
 21
222.5665118459652092
 31
0.0
  0
LINE
  5
9923
  8
0
 10
4245.198593321439148
 20
222.5665118459652092
 30
0.0
 11
4245.1789082821533157
 21
222.5655851029655992
 31
0.0
  0
LINE
  5
9924
  8
0
 10
4245.1789082821533157
 20
222.5655851029655992
 30
0.0
 11
4245.1789082821396732
 21
222.5874711953161977
 31
0.0
  0
LINE
  5
9925
  8
0
 10
4245.1789082821396732
 20
222.5874711953161977
 30
0.0
 11
4245.198593321439148
 21
222.5884180442110107
 31
0.0
  0
LINE
  5
9926
  8
0
 10
4245.1707544718392455
 20
222.6068443304187952
 30
0.0
 11
4245.1707544718392455
 21
222.5830919250161912
 31
0.0
  0
LINE
  5
9927
  8
0
 10
4245.1985933215119076
 20
222.5247274080253987
 30
0.0
 11
4245.1789082821405827
 21
222.523830656983904
 31
0.0
  0
LINE
  5
9928
  8
0
 10
4245.1789082821405827
 20
222.523830656983904
 30
0.0
 11
4245.1690657624385494
 21
222.5157919377161875
 31
0.0
  0
LINE
  5
9929
  8
0
 10
4245.1690657624385494
 20
222.5157919377161875
 30
0.0
 11
4245.2084358411393623
 21
222.5175779289162108
 31
0.0
  0
LINE
  5
992A
  8
0
 10
4245.2084358411393623
 20
222.5175779289162108
 30
0.0
 11
4245.1985933214782563
 21
222.5247274080408886
 31
0.0
  0
LINE
  5
992B
  8
0
 10
4245.2542710208135759
 20
222.5307344653589894
 30
0.0
 11
4245.2345859813449351
 21
222.5280191684765043
 31
0.0
  0
LINE
  5
992C
  8
0
 10
4245.2345859813449351
 20
222.5280191684765043
 30
0.0
 11
4245.2247434617011095
 21
222.5190618637338105
 31
0.0
  0
LINE
  5
992D
  8
0
 10
4245.2247434617011095
 20
222.5190618637338105
 30
0.0
 11
4245.2641135404383022
 21
222.5244693359161943
 31
0.0
  0
LINE
  5
992E
  8
0
 10
4245.2641135404383022
 20
222.5244693359161943
 30
0.0
 11
4245.2542710208135759
 21
222.5307344653589894
 31
0.0
  0
LINE
  5
992F
  8
0
 10
4245.3099487201398006
 20
222.5420239495302894
 30
0.0
 11
4245.2902636807493764
 21
222.537411353200298
 31
0.0
  0
LINE
  5
9930
  8
0
 10
4245.2902636807493764
 20
222.537411353200298
 30
0.0
 11
4245.2804211609782215
 21
222.5274788302542959
 31
0.0
  0
LINE
  5
9931
  8
0
 10
4245.2804211609782215
 20
222.5274788302542959
 30
0.0
 11
4245.319791239739061
 21
222.5366633913162104
 31
0.0
  0
LINE
  5
9932
  8
0
 10
4245.319791239739061
 20
222.5366633913162104
 30
0.0
 11
4245.3099487201734519
 21
222.5420239495107921
 31
0.0
  0
LINE
  5
9933
  8
0
 10
4245.3656264194087271
 20
222.5589410930984116
 30
0.0
 11
4245.3459413800383118
 21
222.5522865728360955
 31
0.0
  0
LINE
  5
9934
  8
0
 10
4245.3459413800383118
 20
222.5522865728360955
 30
0.0
 11
4245.3360988603762962
 21
222.5412878012809017
 31
0.0
  0
LINE
  5
9935
  8
0
 10
4245.3360988603762962
 20
222.5412878012809017
 30
0.0
 11
4245.3754689391389547
 21
222.5545350311161883
 31
0.0
  0
LINE
  5
9936
  8
0
 10
4245.3754689391389547
 20
222.5545350311161883
 30
0.0
 11
4245.3656264194087271
 21
222.5589410930984116
 31
0.0
  0
LINE
  5
9937
  8
0
 10
4245.2264321711390949
 20
222.5409575396141122
 30
0.0
 11
4245.2264321711109005
 21
222.5241492542818946
 31
0.0
  0
LINE
  5
9938
  8
0
 10
4245.2264321711109005
 20
222.5241492542818946
 30
0.0
 11
4245.206747131773227
 21
222.5223528073753982
 31
0.0
  0
LINE
  5
9939
  8
0
 10
4245.206747131773227
 20
222.5223528073753982
 30
0.0
 11
4245.2067471317395757
 21
222.5391404838161975
 31
0.0
  0
LINE
  5
993A
  8
0
 10
4245.2067471317395757
 20
222.5391404838161975
 30
0.0
 11
4245.2264321711390949
 21
222.5409575396141122
 31
0.0
  0
LINE
  5
993B
  8
0
 10
4245.198593321439148
 20
222.5537732823266026
 30
0.0
 11
4245.198593321439148
 21
222.5353487999161928
 31
0.0
  0
LINE
  5
993C
  8
0
 10
4245.198593321439148
 20
222.5353487999161928
 30
0.0
 11
4245.1789082821396732
 21
222.5344455993162001
 31
0.0
  0
LINE
  5
993D
  8
0
 10
4245.1789082821396732
 20
222.5344455993162001
 30
0.0
 11
4245.1789082821396732
 21
222.5528569257540994
 31
0.0
  0
LINE
  5
993E
  8
0
 10
4245.1789082821396732
 20
222.5528569257540994
 30
0.0
 11
4245.198593321439148
 21
222.5537732822687076
 31
0.0
  0
LINE
  5
993F
  8
0
 10
4245.1707544718392455
 20
222.5692430658162095
 30
0.0
 11
4245.1707544718392455
 21
222.5491357060161874
 31
0.0
  0
LINE
  5
9940
  8
0
 10
4245.1707544718792633
 20
222.5374845774838946
 30
0.0
 11
4245.1707544718392455
 21
222.5207155652896063
 31
0.0
  0
LINE
  5
9941
  8
0
 10
4245.4491429683203023
 20
222.5507125963769113
 30
0.0
 11
4245.4491429684730974
 21
222.5612519937776881
 31
0.0
  0
LINE
  5
9942
  8
0
 10
4245.4491429684730974
 20
222.5612519937776881
 30
0.0
 11
4245.4294579290171896
 21
222.5512375499866096
 31
0.0
  0
LINE
  5
9943
  8
0
 10
4245.4294579290171896
 20
222.5512375499866096
 30
0.0
 11
4245.4294579290390175
 21
222.5406981527162031
 31
0.0
  0
LINE
  5
9944
  8
0
 10
4245.4294579290390175
 20
222.5406981527162031
 30
0.0
 11
4245.4491429683203023
 21
222.5507125963769113
 31
0.0
  0
LINE
  5
9945
  8
0
 10
4245.4491429683448587
 20
222.5381375063560085
 30
0.0
 11
4245.4491429683394017
 21
222.5451516699162084
 31
0.0
  0
LINE
  5
9946
  8
0
 10
4245.4491429683394017
 20
222.5451516699162084
 30
0.0
 11
4245.429457929036289
 21
222.535114933569389
 31
0.0
  0
LINE
  5
9947
  8
0
 10
4245.429457929036289
 20
222.535114933569389
 30
0.0
 11
4245.4294579289698959
 21
222.5280293434412044
 31
0.0
  0
LINE
  5
9948
  8
0
 10
4245.4294579289698959
 20
222.5280293434412044
 30
0.0
 11
4245.4491429683448587
 21
222.5381375063560085
 31
0.0
  0
ARC
  5
9949
  8
0
 10
4245.1609119520544482
 20
223.1178857192172984
 30
0.0
 40
0.6156746553877319
 50
270.0000000078687208
 51
294.5997841479488102
  0
ARC
  5
994A
  8
0
 10
4245.361307895531354
 20
222.5422703233494133
 30
0.0
 40
0.0580913295562382
 50
344.1962272750345733
 51
15.8037727900782308
  0
ARC
  5
994B
  8
0
 10
4245.160911952169954
 20
223.0862441580217137
 30
0.0
 40
0.6156746946638825
 50
269.999999997133898
 51
294.5997824621139216
  0
ARC
  5
994C
  8
0
 10
4245.2949296346196206
 20
222.7702257684784115
 30
0.0
 40
0.2843960861996889
 50
291.6910294806589263
 51
309.3119815361873748
  0
ARC
  5
994D
  8
0
 10
4245.1607317691932622
 20
223.0464494805104891
 30
0.0
 40
0.5910925347463274
 50
270.0208879988234116
 51
293.8824921466239743
  0
ARC
  5
994E
  8
0
 10
4276.4749295558713129
 20
222.1922372027289896
 30
0.0
 40
30.3898256326468186
 50
178.5575412555265018
 51
179.3528026659489001
  0
ARC
  5
994F
  8
0
 10
4245.9933397998938744
 20
222.957212125725988
 30
0.0
 40
0.1013943605528101
 50
0.015826355638305
 51
18.4308353473843489
  0
ARC
  5
9950
  8
0
 10
4245.1609119521390312
 20
221.808183844155792
 30
0.0
 40
0.9313088457992401
 50
72.22943927549899
 51
90.0
  0
ARC
  5
9951
  8
0
 10
4245.4904389811954388
 20
222.6480827785784982
 30
0.0
 40
0.0440008172387279
 50
304.3127261079129084
 51
27.5472947499491099
  0
ARC
  5
9952
  8
0
 10
4245.4219766206688291
 20
222.5909273423507102
 30
0.0
 40
0.1325060264896774
 50
35.7970918826133797
 51
72.2049405702509688
  0
ARC
  5
9953
  8
0
 10
4245.1609119521390312
 20
221.7774294328411884
 30
0.0
 40
0.9868675481533934
 50
72.207348610433101
 51
90.0
  0
ARC
  5
9954
  8
0
 10
4245.1609119521390312
 20
221.2621101457386033
 30
0.0
 40
1.530966890646662
 50
82.3677470289194673
 51
97.6322529710805327
  0
ARC
  5
9955
  8
0
 10
4245.1609119521390312
 20
221.6731486150052888
 30
0.0
 40
0.9646514194446428
 50
80.6217956582188293
 51
99.3782043417814407
  0
LINE
  5
9956
  8
0
 10
4245.1510694324397264
 20
222.6231362191693961
 30
0.0
 11
4245.1707544718392455
 21
222.6231362191693961
 31
0.0
  0
LINE
  5
9957
  8
0
 10
4245.1510694324397264
 20
222.6068443304187952
 30
0.0
 11
4245.1707544718392455
 21
222.6068443304187952
 31
0.0
  0
LINE
  5
9958
  8
0
 10
4245.1510694324397264
 20
222.5830919250161912
 30
0.0
 11
4245.1707544718392455
 21
222.5830919250161912
 31
0.0
  0
LINE
  5
9959
  8
0
 10
4245.1510694324397264
 20
222.5692430658162095
 30
0.0
 11
4245.1707544718392455
 21
222.5692430658162095
 31
0.0
  0
LINE
  5
995A
  8
0
 10
4245.1510694324397264
 20
222.5491357060161874
 30
0.0
 11
4245.1707544718392455
 21
222.5491357060161874
 31
0.0
  0
LINE
  5
995B
  8
0
 10
4245.1510694323997086
 20
222.5374845774838946
 30
0.0
 11
4245.1707544718792633
 21
222.5374845774838946
 31
0.0
  0
LINE
  5
995C
  8
0
 10
4245.1510694324397264
 20
222.5207155652896063
 30
0.0
 11
4245.1707544718392455
 21
222.5207155652427957
 31
0.0
  0
ARC
  5
995E
  8
0
 10
4244.8639275780960816
 20
222.7389676592368914
 30
0.0
 40
0.2013973221207958
 50
215.0042203181700984
 51
255.5576038275011115
  0
ARC
  5
995F
  8
0
 10
4244.7435379017779269
 20
222.6552435977102107
 30
0.0
 40
0.0547598691408387
 50
145.5654448572120998
 51
215.5072365903133971
  0
ARC
  5
9960
  8
0
 10
4244.8855077923717545
 20
222.5400345689637049
 30
0.0
 40
0.2374574391994978
 50
119.1273899213677936
 51
142.0060028207363985
  0
ARC
  5
9961
  8
0
 10
4245.4579088261352808
 20
222.7389676592368914
 30
0.0
 40
0.2013973221207958
 50
284.4423961724987748
 51
324.9957796818299016
  0
ARC
  5
9962
  8
0
 10
4245.5782985024534355
 20
222.6552435977102107
 30
0.0
 40
0.0547598691408387
 50
324.4927634096866882
 51
34.4345551427878931
  0
ARC
  5
9963
  8
0
 10
4245.4363286118577889
 20
222.5400345689637049
 30
0.0
 40
0.2374574391994978
 50
37.9939971792636229
 51
60.8726100786321709
  0
ARC
  5
9964
  8
0
 10
4244.2547754076986166
 20
218.5453529632243033
 30
0.0
 40
0.019917671650771
 50
90.1628185662249564
 51
179.3308314739676916
  0
ARC
  5
9965
  8
0
 10
4244.2547643109546698
 20
218.5851777267685065
 30
0.0
 40
0.0199072243205022
 50
180.6393817068006911
 51
269.8690340738460804
  0
ARC
  5
9966
  8
0
 10
4246.0670609965318363
 20
218.5453529632243033
 30
0.0
 40
0.0199176716507705
 50
2.1366992423386661
 51
89.8371814338271548
  0
ARC
  5
9967
  8
0
 10
4246.0670720932757831
 20
218.5851777267685065
 30
0.0
 40
0.0199072243205025
 50
270.1309659261016805
 51
359.3606182931994226
  0
LINE
  5
9968
  8
0
 10
4244.2547188073276629
 20
218.5652705544538037
 30
0.0
 11
4246.0671175969018805
 21
218.5652705544538037
 31
0.0
  0
ARC
  5
9969
  8
0
 10
4245.5288802687027783
 20
224.4635364919392941
 30
0.0
 40
0.6794414281828838
 50
50.0027103160143369
 51
76.3370447883862084
  0
ARC
  5
996A
  8
0
 10
4245.9319956441640898
 20
224.9575031911348901
 30
0.0
 40
0.0428124028323182
 50
2.0750179483920972
 51
38.3035138863157627
  0
ENDSEC
  0
EOF
