  0
SECTION
  2
HEADER
  9
$ACADVER
  1
AC1009
  9
$INSBASE
 10
4260.2186752706029438
 20
212.1606512364081993
 30
0.0
  9
$EXTMIN
 10
4254.8306966261807247
 20
212.1606512364081993
 30
0.0
  9
$EXTMAX
 10
4261.1515966261813446
 20
222.7173884092082119
 30
0.0
  9
$LIMMIN
 10
0.0
 20
0.0
  9
$LIMMAX
 10
11.6929133858000007
 20
8.2677165353999982
  9
$ORTHOMODE
 70
     0
  9
$REGENMODE
 70
     1
  9
$FILLMODE
 70
     1
  9
$QTEXTMODE
 70
     0
  9
$MIRRTEXT
 70
     0
  9
$DRAGMODE
 70
     2
  9
$LTSCALE
 40
0.6431102362
  9
$OSMODE
 70
  4095
  9
$ATTMODE
 70
     1
  9
$TEXTSIZE
 40
0.2
  9
$TRACEWID
 40
0.05
  9
$TEXTSTYLE
  7
STANDARD
  9
$CLAYER
  8
0
  9
$CELTYPE
  6
BYLAYER
  9
$CECOLOR
 62
   256
  9
$DIMSCALE
 40
1.0
  9
$DIMASZ
 40
0.1875
  9
$DIMEXO
 40
0.0625
  9
$DIMDLI
 40
0.4443307087
  9
$DIMRND
 40
0.0
  9
$DIMDLE
 40
0.0
  9
$DIMEXE
 40
0.125
  9
$DIMTP
 40
0.01
  9
$DIMTM
 40
0.01
  9
$DIMTXT
 40
2.0
  9
$DIMCEN
 40
0.1052362205
  9
$DIMTSZ
 40
0.0
  9
$DIMTOL
 70
     1
  9
$DIMLIM
 70
     0
  9
$DIMTIH
 70
     1
  9
$DIMTOH
 70
     1
  9
$DIMSE1
 70
     0
  9
$DIMSE2
 70
     0
  9
$DIMTAD
 70
     0
  9
$DIMZIN
 70
     0
  9
$DIMBLK
  1

  9
$DIMASO
 70
     1
  9
$DIMSHO
 70
     1
  9
$DIMPOST
  1
\X
  9
$DIMAPOST
  1

  9
$DIMALT
 70
     1
  9
$DIMALTD
 70
     2
  9
$DIMALTF
 40
25.3999999999999986
  9
$DIMLFAC
 40
1.0
  9
$DIMTOFL
 70
     0
  9
$DIMTVP
 40
0.0
  9
$DIMTIX
 70
     0
  9
$DIMSOXD
 70
     0
  9
$DIMSAH
 70
     0
  9
$DIMBLK1
  1

  9
$DIMBLK2
  1

  9
$DIMSTYLE
  2
STANDARD
  9
$DIMCLRD
 70
     0
  9
$DIMCLRE
 70
     0
  9
$DIMCLRT
 70
     0
  9
$DIMTFAC
 40
1.0
  9
$DIMGAP
 40
0.09
  9
$LUNITS
 70
     2
  9
$LUPREC
 70
     4
  9
$SKETCHINC
 40
0.1
  9
$FILLETRAD
 40
0.0
  9
$AUNITS
 70
     0
  9
$AUPREC
 70
     0
  9
$MENU
  1
.
  9
$ELEVATION
 40
0.0
  9
$PELEVATION
 40
0.0
  9
$THICKNESS
 40
0.0
  9
$LIMCHECK
 70
     0
  9
$BLIPMODE
 70
     0
  9
$CHAMFERA
 40
0.0
  9
$CHAMFERB
 40
0.0
  9
$SKPOLY
 70
     0
  9
$TDCREATE
 40
2458060.468368056230247
  9
$TDUPDATE
 40
2459269.5589120369404554
  9
$TDINDWG
 40
0.5631899306
  9
$TDUSRTIMER
 40
0.5631899306
  9
$USRTIMER
 70
     1
  9
$ANGBASE
 50
0.0
  9
$ANGDIR
 70
     0
  9
$PDMODE
 70
     0
  9
$PDSIZE
 40
0.3125
  9
$PLINEWID
 40
0.0
  9
$COORDS
 70
     1
  9
$SPLFRAME
 70
     0
  9
$SPLINETYPE
 70
     6
  9
$SPLINESEGS
 70
     8
  9
$ATTDIA
 70
     1
  9
$ATTREQ
 70
     1
  9
$HANDLING
 70
     1
  9
$HANDSEED
  5
A709
  9
$SURFTAB1
 70
     6
  9
$SURFTAB2
 70
     6
  9
$SURFTYPE
 70
     6
  9
$SURFU
 70
     6
  9
$SURFV
 70
     6
  9
$UCSNAME
  2

  9
$UCSORG
 10
0.0
 20
0.0
 30
0.0
  9
$UCSXDIR
 10
1.0
 20
0.0
 30
0.0
  9
$UCSYDIR
 10
0.0
 20
1.0
 30
0.0
  9
$PUCSNAME
  2

  9
$PUCSORG
 10
0.0
 20
0.0
 30
0.0
  9
$PUCSXDIR
 10
1.0
 20
0.0
 30
0.0
  9
$PUCSYDIR
 10
0.0
 20
1.0
 30
0.0
  9
$USERI1
 70
     0
  9
$USERI2
 70
     0
  9
$USERI3
 70
     0
  9
$USERI4
 70
     0
  9
$USERI5
 70
     0
  9
$USERR1
 40
0.0
  9
$USERR2
 40
0.0
  9
$USERR3
 40
0.0
  9
$USERR4
 40
0.0
  9
$USERR5
 40
0.0
  9
$WORLDVIEW
 70
     1
  9
$SHADEDGE
 70
     3
  9
$SHADEDIF
 70
    70
  9
$TILEMODE
 70
     1
  9
$MAXACTVP
 70
    64
  9
$PLIMCHECK
 70
     0
  9
$PEXTMIN
 10
1.0000000000000000E+20
 20
1.0000000000000000E+20
 30
1.0000000000000000E+20
  9
$PEXTMAX
 10
-1.0000000000000000E+20
 20
-1.0000000000000000E+20
 30
-1.0000000000000000E+20
  9
$PLIMMIN
 10
0.0
 20
0.0
  9
$PLIMMAX
 10
12.0
 20
9.0
  9
$UNITMODE
 70
     0
  9
$VISRETAIN
 70
     1
  9
$PLINEGEN
 70
     0
  9
$PSLTSCALE
 70
     1
  0
ENDSEC
  0
SECTION
  2
TABLES
  0
TABLE
  2
VPORT
 70
     1
  0
VPORT
  2
*ACTIVE
 70
     0
 10
0.0
 20
0.0
 11
1.0
 21
1.0
 12
9.3223497876315342
 22
-0.9925144436367725
 13
0.0
 23
0.0
 14
1.0
 24
1.0
 15
0.0
 25
0.0
 16
0.0
 26
0.0
 36
56.4577067074767385
 17
4248.601806640625
 27
218.7922580880691044
 37
0.0
 40
10.7372851530289495
 41
2.8789237668161429
 42
50.0
 43
0.0
 44
0.0
 50
0.0
 51
0.0
 71
     0
 72
   100
 73
     1
 74
     1
 75
     0
 76
     0
 77
     0
 78
     0
  0
ENDTAB
  0
TABLE
  2
LTYPE
 70
     2
  0
LTYPE
  2
CONTINUOUS
 70
     0
  3
Solid line
 72
    65
 73
     0
 40
0.0
  0
LTYPE
  2
PHANTOM2
 70
     0
  3
___ _ _ ___ _ _ ___ _ _ ___ _ _
 72
    65
 73
     6
 40
1.25
 49
0.625
 49
-0.125
 49
0.125
 49
-0.125
 49
0.125
 49
-0.125
  0
ENDTAB
  0
TABLE
  2
LAYER
 70
     2
  0
LAYER
  2
0
 70
     0
 62
   255
  6
CONTINUOUS
  0
LAYER
  2
DEFPOINTS
 70
     0
 62
     7
  6
CONTINUOUS
  0
ENDTAB
  0
TABLE
  2
STYLE
 70
     1
  0
STYLE
  2
STANDARD
 70
     0
 40
0.0
 41
0.8
 50
0.0
 71
     0
 42
0.2
  3
txt
  4

  0
ENDTAB
  0
TABLE
  2
VIEW
 70
     0
  0
ENDTAB
  0
TABLE
  2
UCS
 70
     0
  0
ENDTAB
  0
TABLE
  2
APPID
 70
     9
  0
APPID
  2
ACAD
 70
     0
  0
APPID
  2
ACAD_MLEADERVER
 70
     0
  0
APPID
  2
ACAD_EXEMPT_FROM_CAD_STANDARDS
 70
     0
  0
APPID
  2
ACAD_NAV_VCDISPLAY
 70
     0
  0
APPID
  2
ACAECLAYERSTANDARD
 70
     0
  0
APPID
  2
ACCMTRANSPARENCY
 70
     0
  0
APPID
  2
ACAD_DSTYLE_DIMJAG
 70
     0
  0
APPID
  2
ACAD_DSTYLE_DIMTALN
 70
     0
  0
APPID
  2
ACDBATTR
 70
     0
  0
ENDTAB
  0
TABLE
  2
DIMSTYLE
 70
     1
  0
DIMSTYLE
  2
STANDARD
 70
     0
  3

  4

  5

  6

  7

 40
1.0
 41
0.1875
 42
0.0625
 43
0.38
 44
0.125
 45
0.0
 46
0.0
 47
0.01
 48
0.01
140
0.15625
141
0.09
142
0.0
143
25.3999999999999986
144
1.0
145
0.0
146
1.0
147
0.09
 71
     1
 72
     0
 73
     1
 74
     1
 75
     0
 76
     0
 77
     0
 78
     4
170
     0
171
     2
172
     0
173
     0
174
     0
175
     0
176
     0
177
     0
178
     0
  0
ENDTAB
  0
ENDSEC
  0
SECTION
  2
BLOCKS
  0
BLOCK
  8
0
  2
$MODEL_SPACE
 70
     0
 10
0.0
 20
0.0
 30
0.0
  3
$MODEL_SPACE
  1

  0
ENDBLK
  5
21
  8
0
  0
BLOCK
 67
     1
  8
0
  2
$PAPER_SPACE
 70
     0
 10
0.0
 20
0.0
 30
0.0
  3
$PAPER_SPACE
  1

  0
ENDBLK
  5
1D
 67
     1
  8
0
  0
ENDSEC
  0
SECTION
  2
ENTITIES
  0
ATTDEF
  5
3930
  8
DEFPOINTS
 10
4260.214669036313353
 20
212.1654890495921961
 30
0.0
 40
0.001
  1
K-99448AR-4ND
  3

  2
MODELNUMBER
 70
     0
1001
ACDBATTR
1070
     0
1070
     1
  0
ATTDEF
  5
3931
  8
DEFPOINTS
 10
4260.214669036313353
 20
212.1638223829255026
 30
0.0
 40
0.001
  1
KUMIN
  3

  2
TRADENAME
 70
     0
1001
ACDBATTR
1070
     0
1070
     1
  0
ATTDEF
  5
3932
  8
DEFPOINTS
 10
4260.214669036313353
 20
212.162155716258809
 30
0.0
 40
0.001
  1
BATHROOM SINK FAUCET
  3

  2
PRODUCT
 70
     0
1001
ACDBATTR
1070
     0
1070
     1
  0
LINE
  5
A3C3
  8
0
 10
4258.0395452268667214
 20
222.7173884092082119
 30
0.0
 11
4259.9613396347667731
 21
222.7173884092082119
 31
0.0
  0
ARC
  5
A3C4
  8
0
 10
4259.9203925945903393
 20
219.6077299102529992
 30
0.0
 40
3.1099280763747128
 50
69.2199314382514217
 51
89.245590148997664
  0
ARC
  5
A3C5
  8
0
 10
4258.1634719450594275
 20
218.7675786527310038
 30
0.0
 40
3.951753401193423
 50
91.797086391207813
 51
106.2034776099281999
  0
ARC
  5
A3C6
  8
0
 10
4257.0910003824437808
 20
222.5111740256712949
 30
0.0
 40
0.0594591317359373
 50
120.5951389714903996
 51
239.4041807354055038
  0
ARC
  5
A3C7
  8
0
 10
4257.2836267926222718
 20
222.8500332774993069
 30
0.0
 40
0.4492342586115686
 50
240.2540569153271974
 51
265.8770684274160772
  0
ARC
  5
A3C8
  8
0
 10
4261.0034224491737405
 20
222.4953699920064878
 30
0.0
 40
0.0284976373417123
 50
352.1178737355418775
 51
44.5289671936972127
  0
ARC
  5
A3C9
  8
0
 10
4261.0063551909561284
 20
222.1482220025015124
 30
0.0
 40
0.019689306665522
 50
295.0733242162665988
 51
359.0077695207476722
  0
LINE
  5
A3CA
  8
0
 10
4261.0146990812672811
 20
222.130388094027694
 30
0.0
 11
4260.3758616356681159
 21
221.8324933006277035
 31
0.0
  0
ARC
  5
A3CB
  8
0
 10
4260.0763683791674339
 20
222.474758661427586
 30
0.0
 40
0.7086614172999735
 50
270.0000000323603899
 51
295.0000000114198997
  0
LINE
  5
A3CC
  8
0
 10
4260.0763683795667021
 20
221.7660972441277067
 30
0.0
 11
4259.4419571121179615
 21
221.7660972441277067
 31
0.0
  0
ARC
  5
A3CD
  8
0
 10
4259.4402761491110141
 20
221.7960395951371027
 30
0.0
 40
0.0299894985052974
 50
184.5583111996473065
 51
273.213211097303315
  0
ARC
  5
A3CE
  8
0
 10
4259.0573560196271501
 20
222.1477472215701994
 30
0.0
 40
0.3561794114824337
 50
349.0737831369683022
 51
41.7043540693352028
  0
ARC
  5
A3CF
  8
0
 10
4258.1454025972170712
 20
-3454.9948206691078667
 30
0.0
 40
3677.3968909537079526
 50
89.9860698525001084
 51
90.0139301474998774
  0
ARC
  5
A3D0
  8
0
 10
4258.9761710077636963
 20
219.0178370616488905
 30
0.0
 40
3.384716606241108
 50
84.1139452203998843
 51
88.9283095660845788
  0
LINE
  5
A3D1
  8
0
 10
4259.4694411496357134
 20
221.7660972441275931
 30
0.0
 11
4259.4567475121220923
 21
221.6834200000276951
 31
0.0
  0
ARC
  5
A3D2
  8
0
 10
4260.1119069939677502
 20
221.6228738199276904
 30
0.0
 40
0.8661417322999792
 50
4.0084340884812439
 51
30.1959936062388898
  0
LINE
  5
A3D3
  8
0
 10
4259.4285099296221233
 20
221.6834200005432081
 30
0.0
 11
4261.0070437143422168
 21
221.6834199995579979
 31
0.0
  0
ARC
  5
A3D4
  8
0
 10
4259.4285130618845869
 20
221.6637327924343879
 30
0.0
 40
0.0196872083580276
 50
90.0091158391224582
 51
179.9962860912883968
  0
LINE
  5
A3D5
  8
0
 10
4261.1514054794270123
 20
220.4821002728330086
 30
0.0
 11
4261.1487231327218979
 21
216.1173743445282867
 31
0.0
  0
LINE
  5
A3D6
  8
0
 10
4261.1486993996359161
 20
216.0787557654311968
 30
0.0
 11
4261.1445979006521156
 21
212.1606512364081993
 31
0.0
  0
LINE
  5
A3D7
  8
0
 10
4259.2927526405528624
 20
212.1606512364081993
 30
0.0
 11
4261.1445979006521156
 21
212.1606512364081993
 31
0.0
  0
LINE
  5
A3D8
  8
0
 10
4259.2927526405528624
 20
212.1606512364081993
 30
0.0
 11
4259.292142838466134
 21
216.0781821006385996
 31
0.0
  0
LINE
  5
A3D9
  8
0
 10
4259.2921392569060117
 20
216.1173770879599942
 30
0.0
 11
4259.2918602688669125
 21
219.1704981279357867
 31
0.0
  0
ARC
  5
A3DA
  8
0
 10
4258.5414783009982784
 20
219.1932587798937107
 30
0.0
 40
0.7507270775600964
 50
358.2626320508331901
 51
86.7297778417892289
  0
ARC
  5
A3DB
  8
0
 10
4255.5305948102668481
 20
117.923186963928103
 30
0.0
 40
102.065268864077396
 50
88.2855015800511751
 51
89.6946157989775656
  0
ARC
  5
A3DC
  8
0
 10
4252.7879700222792962
 20
211.3335609838063931
 30
0.0
 40
9.2565664426428782
 50
69.2029477683110628
 51
76.1692665087899599
  0
ARC
  5
A3DD
  8
0
 10
4256.4081463181328218
 20
221.9062199859446025
 30
0.0
 40
2.119247087692635
 50
222.2168472861461908
 51
228.3880601402672994
  0
ARC
  5
A3DE
  8
0
 10
4254.8593363047639286
 20
220.5019887405458974
 30
0.0
 40
0.0286396785821584
 50
136.271580728760398
 51
223.6600940650394875
  0
ARC
  5
A3DF
  8
0
 10
4255.8553592080133967
 20
219.6834461655066093
 30
0.0
 40
1.3177745953537781
 50
112.092152364631005
 51
140.4925744762205966
  0
ARC
  5
A3E0
  8
0
 10
4256.1028939607058419
 20
218.0359545144353035
 30
0.0
 40
2.9632156896724871
 50
90.8699489365625936
 51
104.5242938039899059
  0
LINE
  5
A3E1
  8
0
 10
4256.0579037831994356
 20
220.9988286439671015
 30
0.0
 11
4258.6659734896684313
 21
220.9988286439671015
 31
0.0
  0
ARC
  5
A3E2
  8
0
 10
4258.6350221608463471
 20
221.7808296288471865
 30
0.0
 40
0.7826132666324972
 50
272.2665640917683731
 51
351.3950230183676808
  0
LINE
  5
A3E3
  8
0
 10
4254.8386013733761501
 20
220.482232885473195
 30
0.0
 11
4261.1514054794270123
 21
220.4821002728330086
 31
0.0
  0
LINE
  5
A3E4
  8
0
 10
4257.0607369563340399
 20
222.4599928437112055
 30
0.0
 11
4258.0395452268667214
 21
222.4605368681141044
 31
0.0
  0
ARC
  5
A3E5
  8
0
 10
4258.0167820542501431
 20
260.9936444265838986
 30
0.0
 40
38.5331142820642683
 50
270.0338470902261179
 51
271.6614808468319211
  0
ARC
  5
A3E6
  8
0
 10
4260.1521438032696096
 20
188.6003520373704987
 30
0.0
 40
33.8916741785910816
 50
90.3225766947205386
 51
91.7214532974359429
  0
LINE
  5
A3E7
  8
0
 10
4259.9613338243671024
 20
222.491489082027698
 30
0.0
 11
4261.0316508491496279
 21
222.4914619529942001
 31
0.0
  0
ARC
  5
A3E8
  8
0
 10
4282.1537647172881407
 20
221.9747859565430019
 30
0.0
 40
21.1284322263606583
 50
178.5987457600843129
 51
179.5305979670895056
  0
ARC
  5
A3E9
  8
0
 10
4262.958141590816922
 20
220.440125991119487
 30
0.0
 40
1.807223621061014
 50
178.4297447382982966
 51
178.669137877834487
  0
ARC
  5
A3EA
  8
0
 10
4261.0502022694972766
 20
220.4896207792309895
 30
0.0
 40
0.1013943605528101
 50
0.015826355638305
 51
18.4308353473982507
  0
ARC
  5
A3EB
  8
0
 10
4264.45267880794745
 20
221.4454355520626905
 30
0.0
 40
3.4329049973247141
 50
176.3540685132356884
 51
195.6100814754225894
  0
ARC
  5
A3EC
  8
0
 10
4261.0070479727182828
 20
221.6637462047183078
 30
0.0
 40
0.0196737953005112
 50
359.9701297455736153
 51
90.0124016227018018
  0
LINE
  5
A3ED
  8
0
 10
4259.4070786411521112
 20
222.0802352881277102
 30
0.0
 11
4259.4103815083517475
 21
221.7936562205277085
 31
0.0
  0
ARC
  5
A3EE
  8
0
 10
4259.3120339748202241
 20
216.0777841200768989
 30
0.0
 40
0.0198951173402292
 50
90.098598126757949
 51
178.8537827060931136
  0
ARC
  5
A3EF
  8
0
 10
4259.3120674598676487
 20
216.1176086410623896
 30
0.0
 40
0.0199295481651897
 50
180.6657107271799987
 51
269.8053051846907238
  0
ARC
  5
A3F0
  8
0
 10
4261.1288240596968535
 20
216.0777799659375091
 30
0.0
 40
0.0198992794430147
 50
2.8107361278333109
 51
89.8888828454632858
  0
ARC
  5
A3F1
  8
0
 10
4261.1287996747223588
 20
216.1176038887124093
 30
0.0
 40
0.0199247802802308
 50
270.1810967043531946
 51
359.3399072046727838
  0
LINE
  5
A3F2
  8
0
 10
4259.3119997380872519
 20
216.0976792079588051
 30
0.0
 11
4261.1288626515433862
 21
216.0976792079588051
 31
0.0
  0
LINE
  5
A3F3
  8
0
 10
4255.2054316683816069
 20
220.2688786332624034
 30
0.0
 11
4255.1945545491780649
 21
220.2389901989292866
 31
0.0
  0
ARC
  5
A3F4
  8
0
 10
4255.231550483555111
 20
220.225526489728793
 30
0.0
 40
0.039369666316138
 50
160.0023381211632056
 51
205.002586734637589
  0
LINE
  5
A3F5
  8
0
 10
4255.1958701996072705
 20
220.2088865389088994
 30
0.0
 11
4255.2007439793678714
 21
220.1984359163297995
 31
0.0
  0
LINE
  5
A3F6
  8
0
 10
4255.2007439793678714
 20
220.1984359163297995
 30
0.0
 11
4255.8296818769431411
 21
219.969550658453187
 31
0.0
  0
LINE
  5
A3F7
  8
0
 10
4255.8296818769431411
 20
219.969550658453187
 30
0.0
 11
4255.8401320499006033
 21
219.97442417329259
 31
0.0
  0
ARC
  5
A3F8
  8
0
 10
4255.8234920796394363
 20
220.0101049033187053
 30
0.0
 40
0.0393700788102339
 50
295.002337994257573
 51
340.0023378610665077
  0
ARC
  5
A3F9
  8
0
 10
7541.4823672187885677
 20
-975.7201015918453777
 30
0.0
 40
3496.4338488241510277
 50
160.0012766263006938
 51
160.002337861068014
  0
LINE
  5
A3FA
  8
0
 10
4255.4668972603840302
 20
220.1015760203754041
 30
0.0
 11
4255.4476815691059528
 21
220.0480897440257024
 31
0.0
  0
ARC
  5
A3FB
  8
0
 10
4255.688894775319568
 20
220.572154779265702
 30
0.0
 40
0.5769124474417576
 50
235.3641843333936094
 51
245.2846412469559141
  0
ARC
  5
A3FC
  8
0
 10
4255.6960860364442851
 20
220.5864150994854924
 30
0.0
 40
0.5927368224246909
 50
224.4660827064419948
 51
235.5756967108559081
  0
LINE
  5
A3FD
  8
0
 10
4255.437300096207764
 20
220.1123475950282113
 30
0.0
 11
4255.435387992077267
 21
220.1070253128812908
 31
0.0
  0
LINE
  5
A3FE
  8
0
 10
4255.4329813953081612
 20
220.1003266259164093
 30
0.0
 11
4255.4283796153586081
 21
220.087517715101086
 31
0.0
  0
LINE
  5
A3FF
  8
0
 10
4255.4266474319711051
 20
220.0826962367258943
 30
0.0
 11
4255.4234632719353613
 21
220.0738332266793975
 31
0.0
  0
LINE
  5
A400
  8
0
 10
4255.4223299507102638
 20
220.0706786624324991
 30
0.0
 11
4255.4204552104820323
 21
220.0654603815426924
 31
0.0
  0
LINE
  5
A401
  8
0
 10
4255.4198963705921415
 20
220.0639048681549923
 30
0.0
 11
4255.4192771334537611
 21
220.062181240914299
 31
0.0
  0
LINE
  5
A402
  8
0
 10
4255.4192771334537611
 20
220.062181240914299
 30
0.0
 11
4255.4034658515547562
 21
220.0710749099199006
 31
0.0
  0
LINE
  5
A403
  8
0
 10
4255.4034658515547562
 20
220.0710749099199006
 30
0.0
 11
4255.403784693846319
 21
220.0719623973681962
 31
0.0
  0
LINE
  5
A404
  8
0
 10
4255.403784693846319
 20
220.0719623973681962
 30
0.0
 11
4255.4191601827869817
 21
220.0643383147366023
 31
0.0
  0
LINE
  5
A405
  8
0
 10
4255.4191601827869817
 20
220.0643383147366023
 30
0.0
 11
4255.4198963705921415
 21
220.0639048681549923
 31
0.0
  0
LINE
  5
A406
  8
0
 10
4255.4204552104820323
 20
220.0654603815426924
 30
0.0
 11
4255.4196877733729707
 21
220.0658068481322971
 31
0.0
  0
LINE
  5
A407
  8
0
 10
4255.4196877734575537
 20
220.0658068480933878
 30
0.0
 11
4255.4049550303698197
 21
220.0752199924307888
 31
0.0
  0
LINE
  5
A408
  8
0
 10
4255.4049550303698197
 20
220.0752199924307888
 30
0.0
 11
4255.4059203978031292
 21
220.0779070625225131
 31
0.0
  0
LINE
  5
A409
  8
0
 10
4255.4059203978031292
 20
220.0779070625225131
 30
0.0
 11
4255.4216102881646293
 21
220.0711581079546875
 31
0.0
  0
LINE
  5
A40A
  8
0
 10
4255.4216102881646293
 20
220.0711581079546875
 30
0.0
 11
4255.4223299507102638
 21
220.0706786624324991
 31
0.0
  0
LINE
  5
A40B
  8
0
 10
4255.4234632719353613
 20
220.0738332266793975
 30
0.0
 11
4255.4226802426437644
 21
220.074136292746914
 31
0.0
  0
LINE
  5
A40C
  8
0
 10
4255.4226802426437644
 20
220.074136292746914
 30
0.0
 11
4255.4082942068771445
 21
220.0845144859625861
 31
0.0
  0
LINE
  5
A40D
  8
0
 10
4255.4082942068771445
 20
220.0845144859625861
 30
0.0
 11
4255.4100494042886567
 21
220.0890342738786103
 31
0.0
  0
LINE
  5
A40E
  8
0
 10
4255.4100494042886567
 20
220.0890342738786103
 30
0.0
 11
4255.4259455792043809
 21
220.083225255150893
 31
0.0
  0
LINE
  5
A40F
  8
0
 10
4255.4259455792043809
 20
220.083225255150893
 30
0.0
 11
4255.4266474319711051
 21
220.0826962367258943
 31
0.0
  0
LINE
  5
A410
  8
0
 10
4255.4329813953081612
 20
220.1003266259164093
 30
0.0
 11
4255.4322993517616851
 21
220.1009107827549087
 31
0.0
  0
LINE
  5
A411
  8
0
 10
4255.4322993517616851
 20
220.1009107827549087
 30
0.0
 11
4255.4159485300206143
 21
220.1058200555494011
 31
0.0
  0
LINE
  5
A412
  8
0
 10
4255.4159485300206143
 20
220.1058200555494011
 30
0.0
 11
4255.4135826990741407
 21
220.0992348390155087
 31
0.0
  0
LINE
  5
A413
  8
0
 10
4255.4135826990741407
 20
220.0992348390155087
 30
0.0
 11
4255.4275896646759065
 21
220.0878015159078984
 31
0.0
  0
LINE
  5
A414
  8
0
 10
4255.4275896646759065
 20
220.0878015159078984
 30
0.0
 11
4255.4283796153586081
 21
220.087517715101086
 31
0.0
  0
LINE
  5
A415
  8
0
 10
4255.4275896647786794
 20
220.087801515874304
 30
0.0
 11
4255.4322993461646547
 21
220.1009107844353991
 31
0.0
  0
LINE
  5
A416
  8
0
 10
4255.4365113150470279
 20
220.1126346510000076
 30
0.0
 11
4255.4345714432047316
 21
220.107235078185596
 31
0.0
  0
LINE
  5
A417
  8
0
 10
4255.4345714432047316
 20
220.107235078185596
 30
0.0
 11
4255.435387992077267
 21
220.1070253128812908
 31
0.0
  0
LINE
  5
A418
  8
0
 10
4255.4345714432047316
 20
220.107235078185596
 30
0.0
 11
4255.4239790367873866
 21
220.1169949671028121
 31
0.0
  0
LINE
  5
A419
  8
0
 10
4255.425945579182553
 20
220.0832252551442139
 30
0.0
 11
4255.4226802426337599
 21
220.0741362927508078
 31
0.0
  0
LINE
  5
A41A
  8
0
 10
4255.4216102881891857
 20
220.0711581079393113
 30
0.0
 11
4255.4196877734311784
 21
220.0658068481052965
 31
0.0
  0
LINE
  5
A41B
  8
0
 10
4255.4191601823986275
 20
220.064338314928591
 30
0.0
 11
4255.4185351624182658
 21
220.0625985913131899
 31
0.0
  0
LINE
  5
A41C
  8
0
 10
4255.419703487701554
 20
220.1185172675160118
 30
0.0
 11
4255.4252681502239284
 21
220.1132559746544928
 31
0.0
  0
LINE
  5
A41D
  8
0
 10
4255.4252681502239284
 20
220.1132559746544928
 30
0.0
 11
4255.422516270831693
 21
220.1055962042493945
 31
0.0
  0
LINE
  5
A41E
  8
0
 10
4255.422516270831693
 20
220.1055962042493945
 30
0.0
 11
4255.4062896216018999
 21
220.1108511076122909
 31
0.0
  0
LINE
  5
A41F
  8
0
 10
4255.4062896216018999
 20
220.1108511076122909
 30
0.0
 11
4255.3928094795637662
 21
220.1237508278204871
 31
0.0
  0
LINE
  5
A420
  8
0
 10
4255.3928094795637662
 20
220.1237508278204871
 30
0.0
 11
4255.394222969490329
 21
220.1276852328684015
 31
0.0
  0
LINE
  5
A421
  8
0
 10
4255.3884352091181427
 20
220.1115751827096858
 30
0.0
 11
4255.3864197312468605
 21
220.1059651629936127
 31
0.0
  0
LINE
  5
A422
  8
0
 10
4255.3864197312468605
 20
220.1059651629936127
 30
0.0
 11
4255.400316107650724
 21
220.0942240176568134
 31
0.0
  0
LINE
  5
A423
  8
0
 10
4255.400316107650724
 20
220.0942240176568134
 30
0.0
 11
4255.4162039560123958
 21
220.0880345631254897
 31
0.0
  0
LINE
  5
A424
  8
0
 10
4255.4162039560123958
 20
220.0880345631254897
 30
0.0
 11
4255.4181974396187798
 21
220.0935748726764984
 31
0.0
  0
LINE
  5
A425
  8
0
 10
4255.4181974396187798
 20
220.0935748726764984
 30
0.0
 11
4255.4043223167709584
 21
220.1053751759446868
 31
0.0
  0
LINE
  5
A426
  8
0
 10
4255.4043223167709584
 20
220.1053751759446868
 30
0.0
 11
4255.3884352091909022
 21
220.1115751827800864
 31
0.0
  0
LINE
  5
A427
  8
0
 10
4255.3833897444346803
 20
220.0975312891721103
 30
0.0
 11
4255.3820790628396935
 21
220.0938830479879869
 31
0.0
  0
LINE
  5
A428
  8
0
 10
4255.3820790628396935
 20
220.0938830479879869
 30
0.0
 11
4255.3963467704197683
 21
220.0831754918891932
 31
0.0
  0
LINE
  5
A429
  8
0
 10
4255.3963467704197683
 20
220.0831754918891932
 30
0.0
 11
4255.4119174250608921
 21
220.0760946481086933
 31
0.0
  0
LINE
  5
A42A
  8
0
 10
4255.4119174250608921
 20
220.0760946481086933
 30
0.0
 11
4255.4132128161982109
 21
220.0797003288521978
 31
0.0
  0
LINE
  5
A42B
  8
0
 10
4255.4132128161982109
 20
220.0797003288521978
 30
0.0
 11
4255.398952753444064
 21
220.0904291641683983
 31
0.0
  0
LINE
  5
A42C
  8
0
 10
4255.398952753444064
 20
220.0904291641683983
 30
0.0
 11
4255.3833897444346803
 21
220.0975312891721103
 31
0.0
  0
LINE
  5
A42D
  8
0
 10
4255.3802961081628382
 20
220.0889202493038113
 30
0.0
 11
4255.3796500813496095
 21
220.0871220537435988
 31
0.0
  0
LINE
  5
A42E
  8
0
 10
4255.3796500813496095
 20
220.0871220537435988
 30
0.0
 11
4255.3942596288252389
 21
220.0773660023814955
 31
0.0
  0
LINE
  5
A42F
  8
0
 10
4255.3942596288252389
 20
220.0773660023814955
 30
0.0
 11
4255.4095162436069586
 21
220.0694110344909973
 31
0.0
  0
LINE
  5
A430
  8
0
 10
4255.4095162436069586
 20
220.0694110344909973
 30
0.0
 11
4255.4101549435854395
 21
220.0711888360526984
 31
0.0
  0
LINE
  5
A431
  8
0
 10
4255.4101549435854395
 20
220.0711888360526984
 30
0.0
 11
4255.3955442994947589
 21
220.0809418389320058
 31
0.0
  0
LINE
  5
A432
  8
0
 10
4255.3955442994947589
 20
220.0809418389320058
 30
0.0
 11
4255.3802961082055845
 21
220.088920249422813
 31
0.0
  0
LINE
  5
A433
  8
0
 10
4255.357776562304025
 20
220.1085753932912041
 30
0.0
 11
4255.3567896817849032
 21
220.1058284421532107
 31
0.0
  0
LINE
  5
A434
  8
0
 10
4255.3567896817849032
 20
220.1058284421532107
 30
0.0
 11
4255.3709300585378514
 21
220.0947664646930946
 31
0.0
  0
LINE
  5
A435
  8
0
 10
4255.3709300585378514
 20
220.0947664646930946
 30
0.0
 11
4255.3860566250477859
 21
220.0864495156089049
 31
0.0
  0
LINE
  5
A436
  8
0
 10
4255.3860566250477859
 20
220.0864495156089049
 30
0.0
 11
4255.38702906666731
 21
220.089156276523795
 31
0.0
  0
LINE
  5
A437
  8
0
 10
4255.38702906666731
 20
220.089156276523795
 30
0.0
 11
4255.3728892402414203
 21
220.1002197858732075
 31
0.0
  0
LINE
  5
A438
  8
0
 10
4255.3728892402414203
 20
220.1002197858732075
 30
0.0
 11
4255.357776562304025
 21
220.1085753932912041
 31
0.0
  0
LINE
  5
A439
  8
0
 10
4255.3349359331850792
 20
220.1273368120818077
 30
0.0
 11
4255.3362837960648903
 21
220.1310885461159899
 31
0.0
  0
LINE
  5
A43A
  8
0
 10
4255.3362837960648903
 20
220.1310885461159899
 30
0.0
 11
4255.351249828332584
 21
220.1223247545605091
 31
0.0
  0
LINE
  5
A43B
  8
0
 10
4255.351249828332584
 20
220.1223247545605091
 30
0.0
 11
4255.3648895452515717
 21
220.1098692065073124
 31
0.0
  0
LINE
  5
A43C
  8
0
 10
4255.3648895452515717
 20
220.1098692065073124
 30
0.0
 11
4255.3635663738241419
 21
220.106186200297202
 31
0.0
  0
LINE
  5
A43D
  8
0
 10
4255.3635663738241419
 20
220.106186200297202
 30
0.0
 11
4255.3485790855647792
 21
220.1148908263564863
 31
0.0
  0
LINE
  5
A43E
  8
0
 10
4255.3485790855647792
 20
220.1148908263564863
 30
0.0
 11
4255.3349359331987216
 21
220.1273368120205873
 31
0.0
  0
LINE
  5
A43F
  8
0
 10
4255.3394018152121134
 20
220.1397674552121941
 30
0.0
 11
4255.3414775151468348
 21
220.1455451012184028
 31
0.0
  0
LINE
  5
A440
  8
0
 10
4255.3414775151468348
 20
220.1455451012184028
 30
0.0
 11
4255.3567587866700705
 21
220.1376587687732069
 31
0.0
  0
LINE
  5
A441
  8
0
 10
4255.3567587866700705
 20
220.1376587687732069
 30
0.0
 11
4255.3699847617299383
 21
220.1240515826690967
 31
0.0
  0
LINE
  5
A442
  8
0
 10
4255.3699847617299383
 20
220.1240515826690967
 30
0.0
 11
4255.3679490839276696
 21
220.1183853368846997
 31
0.0
  0
LINE
  5
A443
  8
0
 10
4255.3679490839276696
 20
220.1183853368846997
 30
0.0
 11
4255.352647798767066
 21
220.1262159614726102
 31
0.0
  0
LINE
  5
A444
  8
0
 10
4255.352647798767066
 20
220.1262159614726102
 30
0.0
 11
4255.3394018152121134
 21
220.1397674552121941
 31
0.0
  0
LINE
  5
A445
  8
0
 10
4255.3680419984648324
 20
220.1371489142017026
 30
0.0
 11
4255.3656177992579615
 21
220.13040123137921
 31
0.0
  0
LINE
  5
A446
  8
0
 10
4255.3656177992579615
 20
220.13040123137921
 30
0.0
 11
4255.3789875825614217
 21
220.1171943308002881
 31
0.0
  0
LINE
  5
A447
  8
0
 10
4255.3789875825614217
 20
220.1171943308002881
 30
0.0
 11
4255.3947501449029005
 21
220.1106476567080961
 31
0.0
  0
LINE
  5
A448
  8
0
 10
4255.3947501449029005
 20
220.1106476567080961
 30
0.0
 11
4255.3971351241762022
 21
220.1172861719664127
 31
0.0
  0
LINE
  5
A449
  8
0
 10
4255.3971351241762022
 20
220.1172861719664127
 30
0.0
 11
4255.3837965945531323
 21
220.1305800658684859
 31
0.0
  0
LINE
  5
A44A
  8
0
 10
4255.3837965945531323
 20
220.1305800658684859
 30
0.0
 11
4255.3688262345485782
 21
220.1368098304843954
 31
0.0
  0
LINE
  5
A44B
  8
0
 10
4255.3618821311856664
 20
220.1200031159636126
 30
0.0
 11
4255.3602042244283439
 21
220.1153327148730057
 31
0.0
  0
LINE
  5
A44C
  8
0
 10
4255.3602042244283439
 20
220.1153327148730057
 30
0.0
 11
4255.373979926355787
 21
220.1032556761776107
 31
0.0
  0
LINE
  5
A44D
  8
0
 10
4255.373979926355787
 20
220.1032556761776107
 30
0.0
 11
4255.3894205772767236
 21
220.095812971457292
 31
0.0
  0
LINE
  5
A44E
  8
0
 10
4255.3894205772767236
 20
220.095812971457292
 30
0.0
 11
4255.3910729578492464
 21
220.1004123214135859
 31
0.0
  0
LINE
  5
A44F
  8
0
 10
4255.3910729578492464
 20
220.1004123214135859
 30
0.0
 11
4255.3773100180342226
 21
220.1125248825906908
 31
0.0
  0
LINE
  5
A450
  8
0
 10
4255.3773100180342226
 20
220.1125248825906908
 30
0.0
 11
4255.3618821311711145
 21
220.1200031159715138
 31
0.0
  0
LINE
  5
A451
  8
0
 10
4255.3324394294995727
 20
220.1203878719072975
 30
0.0
 11
4255.3331032424766818
 21
220.1222355746072026
 31
0.0
  0
LINE
  5
A452
  8
0
 10
4255.3331032424766818
 20
220.1222355746072026
 30
0.0
 11
4255.3477570357617878
 21
220.1126026758944079
 31
0.0
  0
LINE
  5
A453
  8
0
 10
4255.3477570357617878
 20
220.1126026758944079
 30
0.0
 11
4255.3617667043872643
 21
220.101176876651806
 31
0.0
  0
LINE
  5
A454
  8
0
 10
4255.3617667043872643
 20
220.101176876651806
 30
0.0
 11
4255.361114698073834
 21
220.0993620372886994
 31
0.0
  0
LINE
  5
A455
  8
0
 10
4255.361114698073834
 20
220.0993620372886994
 30
0.0
 11
4255.3464413693636743
 21
220.1089405597793132
 31
0.0
  0
LINE
  5
A456
  8
0
 10
4255.3464413693636743
 20
220.1089405597793132
 30
0.0
 11
4255.332439429446822
 21
220.1203878718953888
 31
0.0
  0
LINE
  5
A457
  8
0
 10
4255.3371098580319085
 20
220.1148829114623027
 30
0.0
 11
4255.3374393629937913
 21
220.1158000781937005
 31
0.0
  0
LINE
  5
A458
  8
0
 10
4255.3374393629937913
 20
220.1158000781937005
 30
0.0
 11
4255.3235720158700133
 21
220.1276220259319985
 31
0.0
  0
LINE
  5
A459
  8
0
 10
4255.3235720158700133
 20
220.1276220259319985
 30
0.0
 11
4255.3093929256838237
 21
220.1385762449185108
 31
0.0
  0
LINE
  5
A45A
  8
0
 10
4255.3093929256838237
 20
220.1385762449185108
 30
0.0
 11
4255.3090562727520592
 21
220.1376391820359117
 31
0.0
  0
LINE
  5
A45B
  8
0
 10
4255.3090562727520592
 20
220.1376391820359117
 30
0.0
 11
4255.3114777641012552
 21
220.135401333062191
 31
0.0
  0
LINE
  5
A45C
  8
0
 10
4255.3371098580282705
 20
220.1148829114476939
 30
0.0
 11
4255.3329041880333534
 21
220.1179752574113877
 31
0.0
  0
LINE
  5
A45D
  8
0
 10
4255.3697717021514109
 20
220.0915422157758883
 30
0.0
 11
4255.3703925339314083
 21
220.0932702817123072
 31
0.0
  0
LINE
  5
A45E
  8
0
 10
4255.3808698115853986
 20
220.0843550316961057
 30
0.0
 11
4255.3845566716472604
 21
220.0822744422195001
 31
0.0
  0
LINE
  5
A45F
  8
0
 10
4255.3845566716472604
 20
220.0822744422195001
 30
0.0
 11
4255.3848778068550018
 21
220.0831683120210016
 31
0.0
  0
LINE
  5
A460
  8
0
 10
4255.3848778068550018
 20
220.0831683120210016
 30
0.0
 11
4255.3703925339041234
 21
220.0932702817918027
 31
0.0
  0
LINE
  5
A461
  8
0
 10
4255.3703925339041234
 20
220.0932702817918027
 30
0.0
 11
4255.3555935580461664
 21
220.1024990689907099
 31
0.0
  0
LINE
  5
A462
  8
0
 10
4255.3555935580461664
 20
220.1024990689907099
 30
0.0
 11
4255.3552677456436868
 21
220.101592180442708
 31
0.0
  0
LINE
  5
A463
  8
0
 10
4255.3552677456436868
 20
220.101592180442708
 30
0.0
 11
4255.3587383063895686
 21
220.0990410648003888
 31
0.0
  0
LINE
  5
A464
  8
0
 10
4255.338649153561164
 20
220.119167492451993
 30
0.0
 11
4255.3396474420869708
 21
220.1219461974756939
 31
0.0
  0
LINE
  5
A465
  8
0
 10
4255.3396474420869708
 20
220.1219461974756939
 30
0.0
 11
4255.3261438940871813
 21
220.1347807678698985
 31
0.0
  0
LINE
  5
A466
  8
0
 10
4255.3261438940871813
 20
220.1347807678698985
 30
0.0
 11
4255.311649576423406
 21
220.1448575618811958
 31
0.0
  0
LINE
  5
A467
  8
0
 10
4255.311649576423406
 20
220.1448575618811958
 30
0.0
 11
4255.3106291826779852
 21
220.1420173277082881
 31
0.0
  0
LINE
  5
A468
  8
0
 10
4255.3106291826779852
 20
220.1420173277082881
 30
0.0
 11
4255.3241255526418172
 21
220.1291627772708921
 31
0.0
  0
LINE
  5
A469
  8
0
 10
4255.3241255526418172
 20
220.1291627772708921
 30
0.0
 11
4255.3386491535857203
 21
220.1191674924357926
 31
0.0
  0
LINE
  5
A46A
  8
0
 10
4255.3421036875051868
 20
220.1287830796815967
 30
0.0
 11
4255.3438017943290106
 21
220.133509707065997
 31
0.0
  0
LINE
  5
A46B
  8
0
 10
4255.3438017943290106
 20
220.133509707065997
 30
0.0
 11
4255.3307029491606954
 21
220.1474707551105041
 31
0.0
  0
LINE
  5
A46C
  8
0
 10
4255.3307029491606954
 20
220.1474707551105041
 30
0.0
 11
4255.3193140678959026
 21
220.1545972591887903
 31
0.0
  0
LINE
  5
A46D
  8
0
 10
4255.3156248654322553
 20
220.1559226545917056
 30
0.0
 11
4255.3141612597637504
 21
220.151848753924412
 31
0.0
  0
LINE
  5
A46E
  8
0
 10
4255.3141612597637504
 20
220.151848753924412
 30
0.0
 11
4255.3272680684931402
 21
220.137909873131207
 31
0.0
  0
LINE
  5
A46F
  8
0
 10
4255.3272680684931402
 20
220.137909873131207
 30
0.0
 11
4255.3421036875051868
 21
220.1287830796815967
 31
0.0
  0
LINE
  5
A470
  8
0
 10
4255.3062745302167968
 20
220.1592818877676905
 30
0.0
 11
4255.3185864831093568
 21
220.1456612724404067
 31
0.0
  0
LINE
  5
A471
  8
0
 10
4255.3185864831093568
 20
220.1456612724404067
 30
0.0
 11
4255.3172194717772072
 21
220.1418562390113038
 31
0.0
  0
LINE
  5
A472
  8
0
 10
4255.3172194717772072
 20
220.1418562390113038
 30
0.0
 11
4255.3028613420219699
 21
220.1523121078762131
 31
0.0
  0
LINE
  5
A473
  8
0
 10
4255.3028613420219699
 20
220.1523121078762131
 30
0.0
 11
4255.2918473416038978
 21
220.1644650485326906
 31
0.0
  0
LINE
  5
A474
  8
0
 10
4255.2904227206654468
 20
220.1649769875822074
 30
0.0
 11
4255.294354640443089
 21
220.1605502917823003
 31
0.0
  0
LINE
  5
A475
  8
0
 10
4255.294354640443089
 20
220.1605502917823003
 30
0.0
 11
4255.2933173075962259
 21
220.1576629079632994
 31
0.0
  0
LINE
  5
A476
  8
0
 10
4255.2933173075962259
 20
220.1576629079632994
 30
0.0
 11
4255.2805685982630166
 21
220.1685170270640128
 31
0.0
  0
LINE
  5
A477
  8
0
 10
4255.27669919840082
 20
220.16990722189081
 30
0.0
 11
4255.2788794699754362
 21
220.1678969126762127
 31
0.0
  0
LINE
  5
A478
  8
0
 10
4255.2788794699754362
 20
220.1678969126762127
 30
0.0
 11
4255.292060783523084
 21
220.1541654124897036
 31
0.0
  0
LINE
  5
A479
  8
0
 10
4255.292060783523084
 20
220.1541654124897036
 30
0.0
 11
4255.2917186595359453
 21
220.1532131211579895
 31
0.0
  0
LINE
  5
A47A
  8
0
 10
4255.2917186595359453
 20
220.1532131211579895
 30
0.0
 11
4255.2884783657145817
 21
220.1560746210024888
 31
0.0
  0
LINE
  5
A47B
  8
0
 10
4255.2873139989760602
 20
220.1594578384838883
 30
0.0
 11
4255.2880044652329161
 21
220.1613797297574138
 31
0.0
  0
LINE
  5
A47C
  8
0
 10
4255.2880044652329161
 20
220.1613797297574138
 30
0.0
 11
4255.3020093056020414
 21
220.1499404912198941
 31
0.0
  0
LINE
  5
A47D
  8
0
 10
4255.3020093056020414
 20
220.1499404912198941
 30
0.0
 11
4255.315361193703211
 21
220.1366837799984921
 31
0.0
  0
LINE
  5
A47E
  8
0
 10
4255.315361193703211
 20
220.1366837799984921
 30
0.0
 11
4255.3146882378277951
 21
220.134810628302688
 31
0.0
  0
LINE
  5
A47F
  8
0
 10
4255.3146882378277951
 20
220.134810628302688
 30
0.0
 11
4255.3006462137836934
 21
220.146146367619707
 31
0.0
  0
LINE
  5
A480
  8
0
 10
4255.3006462137836934
 20
220.146146367619707
 30
0.0
 11
4255.2873139989760602
 21
220.1594578384838883
 31
0.0
  0
LINE
  5
A481
  8
0
 10
4255.4062896216018999
 20
220.1108511076122909
 30
0.0
 11
4255.4102667348051909
 21
220.1219212952688906
 31
0.0
  0
LINE
  5
A482
  8
0
 10
4255.400316107650724
 20
220.0942240176568134
 30
0.0
 11
4255.4046222171828049
 21
220.1052581386180975
 31
0.0
  0
LINE
  5
A483
  8
0
 10
4255.3789875825614217
 20
220.1171943308002881
 30
0.0
 11
4255.3837965945531323
 21
220.1305800658684859
 31
0.0
  0
LINE
  5
A484
  8
0
 10
4255.373979926355787
 20
220.1032556761776107
 30
0.0
 11
4255.3773100180342226
 21
220.1125248825906908
 31
0.0
  0
LINE
  5
A485
  8
0
 10
4255.3709300585378514
 20
220.0947664646930946
 30
0.0
 11
4255.3728892402414203
 21
220.1002197858732075
 31
0.0
  0
LINE
  5
A486
  8
0
 10
4255.3942596288252389
 20
220.0773660023814955
 30
0.0
 11
4255.3955442994947589
 21
220.0809418389320058
 31
0.0
  0
LINE
  5
A487
  8
0
 10
4255.3963467704197683
 20
220.0831754918891932
 30
0.0
 11
4255.398952753444064
 21
220.0904291641683983
 31
0.0
  0
LINE
  5
A488
  8
0
 10
4255.352647798767066
 20
220.1262159614726102
 30
0.0
 11
4255.3567587866700705
 21
220.1376587687732069
 31
0.0
  0
LINE
  5
A489
  8
0
 10
4255.351249828332584
 20
220.1223247545605091
 30
0.0
 11
4255.3485790855647792
 21
220.1148908263564863
 31
0.0
  0
LINE
  5
A48A
  8
0
 10
4255.3477570357617878
 20
220.1126026758944079
 30
0.0
 11
4255.3464413693636743
 21
220.1089405597793132
 31
0.0
  0
LINE
  5
A48B
  8
0
 10
4255.3028613420219699
 20
220.1523121078762131
 30
0.0
 11
4255.3062745302167968
 21
220.1592818877676905
 31
0.0
  0
LINE
  5
A48C
  8
0
 10
4255.3020093056020414
 20
220.1499404912198941
 30
0.0
 11
4255.3006462137836934
 21
220.146146367619707
 31
0.0
  0
LINE
  5
A48D
  8
0
 10
4255.3261438940871813
 20
220.1347807678698985
 30
0.0
 11
4255.3241255526418172
 21
220.1291627772708921
 31
0.0
  0
LINE
  5
A48E
  8
0
 10
4255.3272680684931402
 20
220.137909873131207
 30
0.0
 11
4255.3307029491606954
 21
220.1474707551105041
 31
0.0
  0
LINE
  5
A48F
  8
0
 10
4255.5633063140539889
 20
220.0664858352936051
 30
0.0
 11
4255.5438703581203299
 21
220.0130792049376964
 31
0.0
  0
ARC
  5
A490
  8
0
 10
4255.693612601165114
 20
220.5702194320450928
 30
0.0
 40
0.5769124474417576
 50
254.9561627403587067
 51
264.8766196539737052
  0
ARC
  5
A491
  8
0
 10
4255.6972047614308394
 20
220.5857811592607902
 30
0.0
 40
0.5927368224246909
 50
264.6651072765241111
 51
275.7758864743282174
  0
LINE
  5
A492
  8
0
 10
4255.592905028937821
 20
220.0557193090047008
 30
0.0
 11
4255.591013886060864
 21
220.050522776958104
 31
0.0
  0
LINE
  5
A493
  8
0
 10
4255.5885797030487083
 20
220.0438340649662052
 30
0.0
 11
4255.5839251739889733
 21
220.0310442278193932
 31
0.0
  0
LINE
  5
A494
  8
0
 10
4255.5821731349979018
 20
220.0262299290772887
 30
0.0
 11
4255.5789524756928586
 21
220.017380116883686
 31
0.0
  0
LINE
  5
A495
  8
0
 10
4255.5778061634746336
 20
220.0142302500786968
 30
0.0
 11
4255.575909933548246
 21
220.0090197396982035
 31
0.0
  0
LINE
  5
A496
  8
0
 10
4255.5753446878088653
 20
220.0074665426159015
 30
0.0
 11
4255.574718352502714
 21
220.0057454820179998
 31
0.0
  0
LINE
  5
A497
  8
0
 10
4255.574718352502714
 20
220.0057454820179998
 30
0.0
 11
4255.5925611608054169
 21
220.0024700926475134
 31
0.0
  0
LINE
  5
A498
  8
0
 10
4255.5925611608054169
 20
220.0024700926475134
 30
0.0
 11
4255.5928836578377741
 21
220.0033562585691129
 31
0.0
  0
LINE
  5
A499
  8
0
 10
4255.5928836578377741
 20
220.0033562585691129
 30
0.0
 11
4255.5761878403600349
 21
220.0073289119559945
 31
0.0
  0
LINE
  5
A49A
  8
0
 10
4255.5761878403600349
 20
220.0073289119559945
 30
0.0
 11
4255.5753446878088653
 21
220.0074665426159015
 31
0.0
  0
LINE
  5
A49B
  8
0
 10
4255.575909933548246
 20
220.0090197396982035
 30
0.0
 11
4255.576721479533262
 21
220.0087952582294122
 31
0.0
  0
LINE
  5
A49C
  8
0
 10
4255.5767214794414031
 20
220.0087952582545938
 30
0.0
 11
4255.594067409577292
 21
220.0066090027937946
 31
0.0
  0
LINE
  5
A49D
  8
0
 10
4255.594067409577292
 20
220.0066090027937946
 30
0.0
 11
4255.5950438427762492
 21
220.009292071589698
 31
0.0
  0
LINE
  5
A49E
  8
0
 10
4255.5950438427762492
 20
220.009292071589698
 30
0.0
 11
4255.5786660316043708
 21
220.0141385495425936
 31
0.0
  0
LINE
  5
A49F
  8
0
 10
4255.5786660316043708
 20
220.0141385495425936
 30
0.0
 11
4255.5778061634746336
 21
220.0142302500786968
 31
0.0
  0
LINE
  5
A4A0
  8
0
 10
4255.5789524756928586
 20
220.017380116883686
 30
0.0
 11
4255.579748250655939
 21
220.0171122995598125
 31
0.0
  0
LINE
  5
A4A1
  8
0
 10
4255.579748250655939
 20
220.0171122995598125
 30
0.0
 11
4255.5974448622573618
 21
220.0158896559576078
 31
0.0
  0
LINE
  5
A4A2
  8
0
 10
4255.5974448622573618
 20
220.0158896559576078
 30
0.0
 11
4255.5989862595943123
 21
220.0204867523252119
 31
0.0
  0
LINE
  5
A4A3
  8
0
 10
4255.5989862595943123
 20
220.0204867523252119
 30
0.0
 11
4255.5830510170180787
 21
220.0261877276377902
 31
0.0
  0
LINE
  5
A4A4
  8
0
 10
4255.5830510170180787
 20
220.0261877276377902
 30
0.0
 11
4255.5821731349979018
 21
220.0262299290772887
 31
0.0
  0
LINE
  5
A4A5
  8
0
 10
4255.5885797030487083
 20
220.0438340649662052
 30
0.0
 11
4255.5894776213999648
 21
220.0438469198184919
 31
0.0
  0
LINE
  5
A4A6
  8
0
 10
4255.5894776213999648
 20
220.0438469198184919
 30
0.0
 11
4255.6051869251468815
 21
220.0371634995319141
 31
0.0
  0
LINE
  5
A4A7
  8
0
 10
4255.6051869251468815
 20
220.0371634995319141
 30
0.0
 11
4255.6027939752702878
 21
220.0305880889933974
 31
0.0
  0
LINE
  5
A4A8
  8
0
 10
4255.6027939752702878
 20
220.0305880889933974
 30
0.0
 11
4255.5847139483639694
 21
220.030757173872388
 31
0.0
  0
LINE
  5
A4A9
  8
0
 10
4255.5847139483639694
 20
220.030757173872388
 30
0.0
 11
4255.5839251739889733
 21
220.0310442278193932
 31
0.0
  0
LINE
  5
A4AA
  8
0
 10
4255.584713948262106
 20
220.0307571739128036
 30
0.0
 11
4255.589477626775988
 21
220.0438469175306011
 31
0.0
  0
LINE
  5
A4AB
  8
0
 10
4255.5936938034019477
 20
220.0554322554704072
 30
0.0
 11
4255.591775757182404
 21
220.0501617978173954
 31
0.0
  0
LINE
  5
A4AC
  8
0
 10
4255.591775757182404
 20
220.0501617978173954
 30
0.0
 11
4255.591013886060864
 21
220.050522776958104
 31
0.0
  0
LINE
  5
A4AD
  8
0
 10
4255.591775757182404
 20
220.0501617978173954
 30
0.0
 11
4255.6061731296349535
 21
220.0508907358480997
 31
0.0
  0
LINE
  5
A4AE
  8
0
 10
4255.5830510170289926
 20
220.0261877276194014
 30
0.0
 11
4255.579748250666853
 21
220.0171122995564019
 31
0.0
  0
LINE
  5
A4AF
  8
0
 10
4255.578666031577086
 20
220.0141385495454927
 30
0.0
 11
4255.5767214794695974
 21
220.0087952582468915
 31
0.0
  0
LINE
  5
A4B0
  8
0
 10
4255.5761878407811309
 20
220.0073289118558932
 30
0.0
 11
4255.5755556563381106
 21
220.0055917788546083
 31
0.0
  0
LINE
  5
A4B1
  8
0
 10
4255.6104653606098509
 20
220.0493286922863945
 30
0.0
 11
4255.6027783020654169
 21
220.048840260577407
 31
0.0
  0
LINE
  5
A4B2
  8
0
 10
4255.6027783020654169
 20
220.048840260577407
 30
0.0
 11
4255.5999948785110973
 21
220.0411918962969935
 31
0.0
  0
LINE
  5
A4B3
  8
0
 10
4255.5999948785110973
 20
220.0411918962969935
 30
0.0
 11
4255.6158297782976661
 21
220.0348535918421931
 31
0.0
  0
LINE
  5
A4B4
  8
0
 10
4255.6158297782976661
 20
220.0348535918421931
 30
0.0
 11
4255.6344426677233059
 21
220.0361487204243929
 31
0.0
  0
LINE
  5
A4B5
  8
0
 10
4255.6344426677233059
 20
220.0361487204243929
 30
0.0
 11
4255.6358740383648183
 21
220.040081878280489
 31
0.0
  0
LINE
  5
A4B6
  8
0
 10
4255.6300182561217298
 20
220.0239912059668086
 30
0.0
 11
4255.6279796753151459
 21
220.0183895400932101
 31
0.0
  0
LINE
  5
A4B7
  8
0
 10
4255.6279796753151459
 20
220.0183895400932101
 30
0.0
 11
4255.6097877911370233
 21
220.0182512612688868
 31
0.0
  0
LINE
  5
A4B8
  8
0
 10
4255.6097877911370233
 20
220.0182512612688868
 30
0.0
 11
4255.5936156370753451
 21
220.0236544553187912
 31
0.0
  0
LINE
  5
A4B9
  8
0
 10
4255.5936156370753451
 20
220.0236544553187912
 30
0.0
 11
4255.5956265417362374
 21
220.0291884655516981
 31
0.0
  0
LINE
  5
A4BA
  8
0
 10
4255.5956265417362374
 20
220.0291884655516981
 30
0.0
 11
4255.6138399226601905
 21
220.0293858143720058
 31
0.0
  0
LINE
  5
A4BB
  8
0
 10
4255.6138399226601905
 20
220.0293858143720058
 30
0.0
 11
4255.6300182561117253
 21
220.0239912060671088
 31
0.0
  0
LINE
  5
A4BC
  8
0
 10
4255.6249149564018808
 20
220.0099682251301942
 30
0.0
 11
4255.623589250848454
 21
220.006325416493894
 31
0.0
  0
LINE
  5
A4BD
  8
0
 10
4255.623589250848454
 20
220.006325416493894
 30
0.0
 11
4255.6057729546473638
 21
220.0072191876809029
 31
0.0
  0
LINE
  5
A4BE
  8
0
 10
4255.6057729546473638
 20
220.0072191876809029
 30
0.0
 11
4255.5892745407891198
 21
220.0117342707052899
 31
0.0
  0
LINE
  5
A4BF
  8
0
 10
4255.5892745407891198
 20
220.0117342707052899
 30
0.0
 11
4255.5905847806598103
 21
220.0153345822614881
 31
0.0
  0
LINE
  5
A4C0
  8
0
 10
4255.5905847806598103
 20
220.0153345822614881
 30
0.0
 11
4255.6084088093693936
 21
220.0144620585855932
 31
0.0
  0
LINE
  5
A4C1
  8
0
 10
4255.6084088093693936
 20
220.0144620585855932
 30
0.0
 11
4255.6249149564018808
 21
220.0099682251301942
 31
0.0
  0
LINE
  5
A4C2
  8
0
 10
4255.6217858585823706
 20
220.0013700078835939
 30
0.0
 11
4255.6211324264540963
 21
219.9995744900280101
 31
0.0
  0
LINE
  5
A4C3
  8
0
 10
4255.6211324264540963
 20
219.9995744900280101
 30
0.0
 11
4255.6036618911766709
 21
220.0014183481387988
 31
0.0
  0
LINE
  5
A4C4
  8
0
 10
4255.6036618911766709
 20
220.0014183481387988
 30
0.0
 11
4255.5868458351578738
 21
220.0050606096164927
 31
0.0
  0
LINE
  5
A4C5
  8
0
 10
4255.5868458351578738
 20
220.0050606096164927
 30
0.0
 11
4255.587491856475026
 21
220.00683576383841
 31
0.0
  0
LINE
  5
A4C6
  8
0
 10
4255.587491856475026
 20
220.00683576383841
 30
0.0
 11
4255.6049612850683843
 21
220.0049888608861011
 31
0.0
  0
LINE
  5
A4C7
  8
0
 10
4255.6049612850683843
 20
220.0049888608861011
 30
0.0
 11
4255.6217858586242073
 21
220.0013700080023966
 31
0.0
  0
LINE
  5
A4C8
  8
0
 10
4255.6516682069950548
 20
220.0020770327388107
 30
0.0
 11
4255.6506700140826069
 21
219.9993341720742137
 31
0.0
  0
LINE
  5
A4C9
  8
0
 10
4255.6506700140826069
 20
219.9993341720742137
 30
0.0
 11
4255.6327249275063878
 21
219.9998740496625089
 31
0.0
  0
LINE
  5
A4CA
  8
0
 10
4255.6327249275063878
 20
219.9998740496625089
 30
0.0
 11
4255.6157773351305877
 21
220.0031548680263995
 31
0.0
  0
LINE
  5
A4CB
  8
0
 10
4255.6157773351305877
 20
220.0031548680263995
 30
0.0
 11
4255.616760923635411
 21
220.0058575983136961
 31
0.0
  0
LINE
  5
A4CC
  8
0
 10
4255.616760923635411
 20
220.0058575983136961
 30
0.0
 11
4255.6347065668933283
 21
220.0053192503177968
 31
0.0
  0
LINE
  5
A4CD
  8
0
 10
4255.6347065668933283
 20
220.0053192503177968
 30
0.0
 11
4255.6516682069950548
 21
220.0020770327388107
 31
0.0
  0
LINE
  5
A4CE
  8
0
 10
4255.6812257916681119
 20
220.0018916632301966
 30
0.0
 11
4255.6825891046455581
 21
220.0056378106291959
 31
0.0
  0
LINE
  5
A4CF
  8
0
 10
4255.6825891046455581
 20
220.0056378106291959
 30
0.0
 11
4255.6654791375931381
 21
220.0084724520091015
 31
0.0
  0
LINE
  5
A4D0
  8
0
 10
4255.6654791375931381
 20
220.0084724520091015
 30
0.0
 11
4255.6470276525087684
 21
220.0076208340636015
 31
0.0
  0
LINE
  5
A4D1
  8
0
 10
4255.6470276525087684
 20
220.0076208340636015
 30
0.0
 11
4255.6456893139757085
 21
220.0039433121609136
 31
0.0
  0
LINE
  5
A4D2
  8
0
 10
4255.6456893139757085
 20
220.0039433121609136
 30
0.0
 11
4255.6627777813146167
 21
220.0010495934130859
 31
0.0
  0
LINE
  5
A4D3
  8
0
 10
4255.6627777813146167
 20
220.0010495934130859
 30
0.0
 11
4255.6812257916180897
 21
220.0018916631923105
 31
0.0
  0
LINE
  5
A4D4
  8
0
 10
4255.6857428650009751
 20
220.0143037959811068
 30
0.0
 11
4255.6878423582165851
 21
220.0200728385212869
 31
0.0
  0
LINE
  5
A4D5
  8
0
 10
4255.6878423582165851
 20
220.0200728385212869
 30
0.0
 11
4255.6710512442441541
 21
220.0237836322799012
 31
0.0
  0
LINE
  5
A4D6
  8
0
 10
4255.6710512442441541
 20
220.0237836322799012
 30
0.0
 11
4255.6521812743540067
 21
220.0217820912968989
 31
0.0
  0
LINE
  5
A4D7
  8
0
 10
4255.6521812743540067
 20
220.0217820912968989
 30
0.0
 11
4255.6501222619481268
 21
220.0161242831244124
 31
0.0
  0
LINE
  5
A4D8
  8
0
 10
4255.6501222619481268
 20
220.0161242831244124
 30
0.0
 11
4255.666893132536643
 21
220.0123578645820999
 31
0.0
  0
LINE
  5
A4D9
  8
0
 10
4255.666893132536643
 20
220.0123578645820999
 30
0.0
 11
4255.6857428650009751
 21
220.0143037959811068
 31
0.0
  0
LINE
  5
A4DA
  8
0
 10
4255.6620343931554089
 20
220.0305615113641977
 30
0.0
 11
4255.6595993260816613
 21
220.0238703701434986
 31
0.0
  0
LINE
  5
A4DB
  8
0
 10
4255.6595993260816613
 20
220.0238703701434986
 30
0.0
 11
4255.6408748127278159
 21
220.022268518675304
 31
0.0
  0
LINE
  5
A4DC
  8
0
 10
4255.6408748127278159
 20
220.022268518675304
 30
0.0
 11
4255.6245705067412928
 21
220.0273169758224867
 31
0.0
  0
LINE
  5
A4DD
  8
0
 10
4255.6245705067412928
 20
220.0273169758224867
 30
0.0
 11
4255.6269828244103337
 21
220.0339456057288032
 31
0.0
  0
LINE
  5
A4DE
  8
0
 10
4255.6269828244103337
 20
220.0339456057288032
 30
0.0
 11
4255.6457389494926247
 21
220.0356343210522994
 31
0.0
  0
LINE
  5
A4DF
  8
0
 10
4255.6457389494926247
 20
220.0356343210522994
 30
0.0
 11
4255.6613182337077887
 21
220.0308221385905938
 31
0.0
  0
LINE
  5
A4E0
  8
0
 10
4255.6558208369542626
 20
220.0134877384903973
 30
0.0
 11
4255.6541236967386794
 21
220.0088242920687094
 31
0.0
  0
LINE
  5
A4E1
  8
0
 10
4255.6541236967386794
 20
220.0088242920687094
 30
0.0
 11
4255.6358097550000821
 21
220.0083506199989074
 31
0.0
  0
LINE
  5
A4E2
  8
0
 10
4255.6358097550000821
 20
220.0083506199989074
 30
0.0
 11
4255.6191798474455936
 21
220.012504380846309
 31
0.0
  0
LINE
  5
A4E3
  8
0
 10
4255.6191798474455936
 20
220.012504380846309
 30
0.0
 11
4255.6208511690074374
 21
220.0170968818877952
 31
0.0
  0
LINE
  5
A4E4
  8
0
 10
4255.6208511690074374
 20
220.0170968818877952
 30
0.0
 11
4255.6391780188532721
 21
220.0176060236487103
 31
0.0
  0
LINE
  5
A4E5
  8
0
 10
4255.6391780188532721
 20
220.0176060236487103
 30
0.0
 11
4255.655820836969724
 21
220.0134877384865035
 31
0.0
  0
LINE
  5
A4E6
  8
0
 10
4255.6787006710837886
 20
219.9949530707046961
 30
0.0
 11
4255.6793720931927965
 21
219.9967980220012862
 31
0.0
  0
LINE
  5
A4E7
  8
0
 10
4255.6793720931927965
 20
219.9967980220012862
 30
0.0
 11
4255.6619463082306538
 21
219.9987648503363005
 31
0.0
  0
LINE
  5
A4E8
  8
0
 10
4255.6619463082306538
 20
219.9987648503363005
 30
0.0
 11
4255.6438690153845528
 21
219.9989414478575895
 31
0.0
  0
LINE
  5
A4E9
  8
0
 10
4255.6438690153845528
 20
219.9989414478575895
 30
0.0
 11
4255.6432095351847238
 21
219.9971293109940973
 31
0.0
  0
LINE
  5
A4EA
  8
0
 10
4255.6432095351847238
 20
219.9971293109940973
 30
0.0
 11
4255.6606155608078552
 21
219.99510818740319
 31
0.0
  0
LINE
  5
A4EB
  8
0
 10
4255.6606155608078552
 20
219.99510818740319
 30
0.0
 11
4255.6787006711174399
 21
219.9949530706624898
 31
0.0
  0
LINE
  5
A4EC
  8
0
 10
4255.6715895639499649
 20
219.9937082223127049
 30
0.0
 11
4255.6719228459223814
 21
219.9946240233063008
 31
0.0
  0
LINE
  5
A4ED
  8
0
 10
4255.6719228459223814
 20
219.9946240233063008
 30
0.0
 11
4255.6901440923320479
 21
219.9948429841390976
 31
0.0
  0
LINE
  5
A4EE
  8
0
 10
4255.6901440923320479
 20
219.9948429841390976
 30
0.0
 11
4255.7080500211750405
 21
219.9941955087338101
 31
0.0
  0
LINE
  5
A4EF
  8
0
 10
4255.7080500211750405
 20
219.9941955087338101
 30
0.0
 11
4255.7077095092981835
 21
219.9932598412150071
 31
0.0
  0
LINE
  5
A4F0
  8
0
 10
4255.7077095092981835
 20
219.9932598412150071
 30
0.0
 11
4255.7044167699496029
 21
219.9930882138064021
 31
0.0
  0
LINE
  5
A4F1
  8
0
 10
4255.6715895639454175
 20
219.9937082222980109
 30
0.0
 11
4255.6768003754841629
 21
219.9933956414666056
 31
0.0
  0
LINE
  5
A4F2
  8
0
 10
4255.6315532931048438
 20
219.9966546019722955
 30
0.0
 11
4255.6321812413698353
 21
219.9983800946426982
 31
0.0
  0
LINE
  5
A4F3
  8
0
 10
4255.6184250887763483
 20
219.9982274653233958
 30
0.0
 11
4255.6142601881665541
 21
219.9989860116961893
 31
0.0
  0
LINE
  5
A4F4
  8
0
 10
4255.6142601881665541
 20
219.9989860116961893
 30
0.0
 11
4255.6145850044549661
 21
219.9998785504473062
 31
0.0
  0
LINE
  5
A4F5
  8
0
 10
4255.6145850044549661
 20
219.9998785504473062
 30
0.0
 11
4255.6321812414416854
 21
219.9983800946860129
 31
0.0
  0
LINE
  5
A4F6
  8
0
 10
4255.6321812414416854
 20
219.9983800946860129
 30
0.0
 11
4255.6494601794111077
 21
219.9960097566788022
 31
0.0
  0
LINE
  5
A4F7
  8
0
 10
4255.6494601794111077
 20
219.9960097566788022
 30
0.0
 11
4255.6491306323632671
 21
219.9951042185504093
 31
0.0
  0
LINE
  5
A4F8
  8
0
 10
4255.6491306323632671
 20
219.9951042185504093
 30
0.0
 11
4255.6448310786754519
 21
219.995362716109895
 31
0.0
  0
LINE
  5
A4F9
  8
0
 10
4255.6731465040220428
 20
219.9979864231715112
 30
0.0
 11
4255.6741562357428847
 21
220.0007609904251069
 31
0.0
  0
LINE
  5
A4FA
  8
0
 10
4255.6741562357428847
 20
220.0007609904251069
 30
0.0
 11
4255.6927454508777373
 21
220.001991066217812
 31
0.0
  0
LINE
  5
A4FB
  8
0
 10
4255.6927454508777373
 20
220.001991066217812
 30
0.0
 11
4255.710332539420051
 21
220.00046747220631
 31
0.0
  0
LINE
  5
A4FC
  8
0
 10
4255.710332539420051
 20
220.00046747220631
 30
0.0
 11
4255.7093004491171087
 21
219.9976314674183016
 31
0.0
  0
LINE
  5
A4FD
  8
0
 10
4255.7093004491171087
 20
219.9976314674183016
 30
0.0
 11
4255.690703973536074
 21
219.9963814413808052
 31
0.0
  0
LINE
  5
A4FE
  8
0
 10
4255.690703973536074
 20
219.9963814413808052
 30
0.0
 11
4255.673146503992939
 21
219.9979864231748081
 31
0.0
  0
LINE
  5
A4FF
  8
0
 10
4255.6766406363731221
 20
220.0075876919241011
 30
0.0
 11
4255.6783582082280191
 21
220.0123072809041105
 31
0.0
  0
LINE
  5
A500
  8
0
 10
4255.6783582082280191
 20
220.0123072809041105
 30
0.0
 11
4255.6973567651766643
 21
220.0146621569276988
 31
0.0
  0
LINE
  5
A501
  8
0
 10
4255.6973567651766643
 20
220.0146621569276988
 30
0.0
 11
4255.7106929314495574
 21
220.0128535275898116
 31
0.0
  0
LINE
  5
A502
  8
0
 10
4255.7143551027720605
 20
220.0115207775193085
 30
0.0
 11
4255.712873013513672
 21
220.007448253735987
 31
0.0
  0
LINE
  5
A503
  8
0
 10
4255.712873013513672
 20
220.007448253735987
 30
0.0
 11
4255.6938825120032561
 21
220.0051155117419057
 31
0.0
  0
LINE
  5
A504
  8
0
 10
4255.6938825120032561
 20
220.0051155117419057
 30
0.0
 11
4255.6766406363731221
 21
220.0075876919241011
 31
0.0
  0
LINE
  5
A505
  8
0
 10
4255.723700304490194
 20
220.0081198393448005
 30
0.0
 11
4255.7055138904306659
 21
220.0055219006540881
 31
0.0
  0
LINE
  5
A506
  8
0
 10
4255.7055138904306659
 20
220.0055219006540881
 30
0.0
 11
4255.7041312093297165
 21
220.0017225332923942
 31
0.0
  0
LINE
  5
A507
  8
0
 10
4255.7041312093297165
 20
220.0017225332923942
 30
0.0
 11
4255.7218560469100339
 21
220.0005774496416961
 31
0.0
  0
LINE
  5
A508
  8
0
 10
4255.7218560469100339
 20
220.0005774496416961
 30
0.0
 11
4255.7381060641200747
 21
220.002877245408996
 31
0.0
  0
LINE
  5
A509
  8
0
 10
4255.7395281943590817
 20
220.0023596988471866
 30
0.0
 11
4255.7336643144217305
 21
220.0014698980577066
 31
0.0
  0
LINE
  5
A50A
  8
0
 10
4255.7336643144217305
 20
220.0014698980577066
 30
0.0
 11
4255.7326150907301781
 21
219.9985868138759031
 31
0.0
  0
LINE
  5
A50B
  8
0
 10
4255.7326150907301781
 20
219.9985868138759031
 30
0.0
 11
4255.7493718281866677
 21
219.9987773695330873
 31
0.0
  0
LINE
  5
A50C
  8
0
 10
4255.7532339904892069
 20
219.9973718380524872
 30
0.0
 11
4255.7502593069020804
 21
219.9972201964035037
 31
0.0
  0
LINE
  5
A50D
  8
0
 10
4255.7502593069020804
 20
219.9972201964035037
 30
0.0
 11
4255.731344163454196
 21
219.9950945264893107
 31
0.0
  0
LINE
  5
A50E
  8
0
 10
4255.731344163454196
 20
219.9950945264893107
 30
0.0
 11
4255.7309981178477756
 21
219.994143653184409
 31
0.0
  0
LINE
  5
A50F
  8
0
 10
4255.7309981178477756
 20
219.994143653184409
 30
0.0
 11
4255.7353191663905818
 21
219.9942710301905038
 31
0.0
  0
LINE
  5
A510
  8
0
 10
4255.7383780394056885
 20
219.9961271568841994
 30
0.0
 11
4255.7390764203182698
 21
219.9980461862803907
 31
0.0
  0
LINE
  5
A511
  8
0
 10
4255.7390764203182698
 20
219.9980461862803907
 30
0.0
 11
4255.720994243873065
 21
219.9982093645186012
 31
0.0
  0
LINE
  5
A512
  8
0
 10
4255.720994243873065
 20
219.9982093645186012
 30
0.0
 11
4255.702251630248611
 21
219.9965577765588023
 31
0.0
  0
LINE
  5
A513
  8
0
 10
4255.702251630248611
 20
219.9965577765588023
 30
0.0
 11
4255.7015709604220319
 21
219.9946874141685953
 31
0.0
  0
LINE
  5
A514
  8
0
 10
4255.7015709604220319
 20
219.9946874141685953
 30
0.0
 11
4255.7196155272040414
 21
219.9944208907434984
 31
0.0
  0
LINE
  5
A515
  8
0
 10
4255.7196155272040414
 20
219.9944208907434984
 30
0.0
 11
4255.7383780394056885
 21
219.9961271568841994
 31
0.0
  0
LINE
  5
A516
  8
0
 10
4255.6158297782976661
 20
220.0348535918421931
 30
0.0
 11
4255.6198541636622394
 21
220.0459118865634878
 31
0.0
  0
LINE
  5
A517
  8
0
 10
4255.6097877911370233
 20
220.0182512612688868
 30
0.0
 11
4255.6135345247867008
 21
220.0294876482167865
 31
0.0
  0
LINE
  5
A518
  8
0
 10
4255.6408748127278159
 20
220.022268518675304
 30
0.0
 11
4255.6457389494926247
 21
220.0356343210522994
 31
0.0
  0
LINE
  5
A519
  8
0
 10
4255.6358097550000821
 20
220.0083506199989074
 30
0.0
 11
4255.6391780188532721
 21
220.0176060236487103
 31
0.0
  0
LINE
  5
A51A
  8
0
 10
4255.6327249275063878
 20
219.9998740496625089
 30
0.0
 11
4255.6347065668933283
 21
220.0053192503177968
 31
0.0
  0
LINE
  5
A51B
  8
0
 10
4255.6036618911766709
 20
220.0014183481387988
 30
0.0
 11
4255.6049612850683843
 21
220.0049888608861011
 31
0.0
  0
LINE
  5
A51C
  8
0
 10
4255.6057729546473638
 20
220.0072191876809029
 30
0.0
 11
4255.6084088093693936
 21
220.0144620585855932
 31
0.0
  0
LINE
  5
A51D
  8
0
 10
4255.666893132536643
 20
220.0123578645820999
 30
0.0
 11
4255.6710512442441541
 21
220.0237836322799012
 31
0.0
  0
LINE
  5
A51E
  8
0
 10
4255.6654791375931381
 20
220.0084724520091015
 30
0.0
 11
4255.6627777813146167
 21
220.0010495934130859
 31
0.0
  0
LINE
  5
A51F
  8
0
 10
4255.6619463082306538
 20
219.9987648503363005
 30
0.0
 11
4255.6606155608078552
 21
219.99510818740319
 31
0.0
  0
LINE
  5
A520
  8
0
 10
4255.7218560469100339
 20
220.0005774496416961
 30
0.0
 11
4255.7236898044839108
 21
220.0081183394134996
 31
0.0
  0
LINE
  5
A521
  8
0
 10
4255.720994243873065
 20
219.9982093645186012
 30
0.0
 11
4255.7196155272040414
 21
219.9944208907434984
 31
0.0
  0
LINE
  5
A522
  8
0
 10
4255.6927454508777373
 20
220.001991066217812
 30
0.0
 11
4255.690703973536074
 21
219.9963814413808052
 31
0.0
  0
LINE
  5
A523
  8
0
 10
4255.6938825120032561
 20
220.0051155117419057
 30
0.0
 11
4255.6973567651766643
 21
220.0146621569276988
 31
0.0
  0
ENDSEC
  0
EOF
