  0
SECTION
  2
HEADER
  9
$ACADVER
  1
AC1009
  9
$INSBASE
 10
7797.5559152490959605
 20
1760.7168492770010744
 30
0.0
  9
$EXTMIN
 10
7764.0913483199447001
 20
1760.7105628895699283
 30
0.0
  9
$EXTMAX
 10
7831.0204821782454019
 20
1783.8664555761999964
 30
0.0
  9
$LIMMIN
 10
0.0
 20
0.0
  9
$LIMMAX
 10
11.6929133858000007
 20
8.2677165353999982
  9
$ORTHOMODE
 70
     0
  9
$REGENMODE
 70
     1
  9
$FILLMODE
 70
     1
  9
$QTEXTMODE
 70
     0
  9
$MIRRTEXT
 70
     0
  9
$DRAGMODE
 70
     2
  9
$LTSCALE
 40
0.6431102362
  9
$OSMODE
 70
  4095
  9
$ATTMODE
 70
     1
  9
$TEXTSIZE
 40
0.2
  9
$TRACEWID
 40
0.05
  9
$TEXTSTYLE
  7
STANDARD
  9
$CLAYER
  8
0
  9
$CELTYPE
  6
BYLAYER
  9
$CECOLOR
 62
   256
  9
$DIMSCALE
 40
1.0
  9
$DIMASZ
 40
0.1875
  9
$DIMEXO
 40
0.0625
  9
$DIMDLI
 40
0.4443307087
  9
$DIMRND
 40
0.0
  9
$DIMDLE
 40
0.0
  9
$DIMEXE
 40
0.125
  9
$DIMTP
 40
0.01
  9
$DIMTM
 40
0.01
  9
$DIMTXT
 40
2.0
  9
$DIMCEN
 40
0.1052362205
  9
$DIMTSZ
 40
0.0
  9
$DIMTOL
 70
     1
  9
$DIMLIM
 70
     0
  9
$DIMTIH
 70
     1
  9
$DIMTOH
 70
     1
  9
$DIMSE1
 70
     0
  9
$DIMSE2
 70
     0
  9
$DIMTAD
 70
     0
  9
$DIMZIN
 70
     0
  9
$DIMBLK
  1

  9
$DIMASO
 70
     1
  9
$DIMSHO
 70
     1
  9
$DIMPOST
  1
\X
  9
$DIMAPOST
  1

  9
$DIMALT
 70
     1
  9
$DIMALTD
 70
     2
  9
$DIMALTF
 40
25.3999999999999986
  9
$DIMLFAC
 40
1.0
  9
$DIMTOFL
 70
     0
  9
$DIMTVP
 40
0.0
  9
$DIMTIX
 70
     0
  9
$DIMSOXD
 70
     0
  9
$DIMSAH
 70
     0
  9
$DIMBLK1
  1

  9
$DIMBLK2
  1

  9
$DIMSTYLE
  2
STANDARD
  9
$DIMCLRD
 70
     0
  9
$DIMCLRE
 70
     0
  9
$DIMCLRT
 70
     0
  9
$DIMTFAC
 40
1.0
  9
$DIMGAP
 40
0.09
  9
$LUNITS
 70
     2
  9
$LUPREC
 70
     4
  9
$SKETCHINC
 40
0.1
  9
$FILLETRAD
 40
0.0
  9
$AUNITS
 70
     0
  9
$AUPREC
 70
     0
  9
$MENU
  1
.
  9
$ELEVATION
 40
0.0
  9
$PELEVATION
 40
0.0
  9
$THICKNESS
 40
0.0
  9
$LIMCHECK
 70
     0
  9
$BLIPMODE
 70
     0
  9
$CHAMFERA
 40
0.0
  9
$CHAMFERB
 40
0.0
  9
$SKPOLY
 70
     0
  9
$TDCREATE
 40
2458060.468368056230247
  9
$TDUPDATE
 40
2459381.9414004632271826
  9
$TDINDWG
 40
0.4035950231
  9
$TDUSRTIMER
 40
0.4035950231
  9
$USRTIMER
 70
     1
  9
$ANGBASE
 50
0.0
  9
$ANGDIR
 70
     0
  9
$PDMODE
 70
     0
  9
$PDSIZE
 40
0.3125
  9
$PLINEWID
 40
0.0
  9
$COORDS
 70
     1
  9
$SPLFRAME
 70
     0
  9
$SPLINETYPE
 70
     6
  9
$SPLINESEGS
 70
     8
  9
$ATTDIA
 70
     1
  9
$ATTREQ
 70
     1
  9
$HANDLING
 70
     1
  9
$HANDSEED
  5
E307
  9
$SURFTAB1
 70
     6
  9
$SURFTAB2
 70
     6
  9
$SURFTYPE
 70
     6
  9
$SURFU
 70
     6
  9
$SURFV
 70
     6
  9
$UCSNAME
  2

  9
$UCSORG
 10
0.0
 20
0.0
 30
0.0
  9
$UCSXDIR
 10
1.0
 20
0.0
 30
0.0
  9
$UCSYDIR
 10
0.0
 20
1.0
 30
0.0
  9
$PUCSNAME
  2

  9
$PUCSORG
 10
0.0
 20
0.0
 30
0.0
  9
$PUCSXDIR
 10
1.0
 20
0.0
 30
0.0
  9
$PUCSYDIR
 10
0.0
 20
1.0
 30
0.0
  9
$USERI1
 70
     0
  9
$USERI2
 70
     0
  9
$USERI3
 70
     0
  9
$USERI4
 70
     0
  9
$USERI5
 70
     0
  9
$USERR1
 40
0.0
  9
$USERR2
 40
0.0
  9
$USERR3
 40
0.0
  9
$USERR4
 40
0.0
  9
$USERR5
 40
0.0
  9
$WORLDVIEW
 70
     1
  9
$SHADEDGE
 70
     3
  9
$SHADEDIF
 70
    70
  9
$TILEMODE
 70
     1
  9
$MAXACTVP
 70
    64
  9
$PLIMCHECK
 70
     0
  9
$PEXTMIN
 10
1.0000000000000000E+20
 20
1.0000000000000000E+20
 30
1.0000000000000000E+20
  9
$PEXTMAX
 10
-1.0000000000000000E+20
 20
-1.0000000000000000E+20
 30
-1.0000000000000000E+20
  9
$PLIMMIN
 10
0.0
 20
0.0
  9
$PLIMMAX
 10
12.0
 20
9.0
  9
$UNITMODE
 70
     0
  9
$VISRETAIN
 70
     1
  9
$PLINEGEN
 70
     0
  9
$PSLTSCALE
 70
     1
  0
ENDSEC
  0
SECTION
  2
TABLES
  0
TABLE
  2
VPORT
 70
     1
  0
VPORT
  2
*ACTIVE
 70
     0
 10
0.0
 20
0.0
 11
1.0
 21
1.0
 12
2982.171226192856011
 22
1524.4921193601410323
 13
0.0
 23
0.0
 14
1.0
 24
1.0
 15
0.0
 25
0.0
 16
0.0
 26
0.0
 36
9.5192988075487186
 17
4815.2983398437490905
 27
247.8086242675780966
 37
0.0
 40
31.9550563936484693
 41
2.1302631578947362
 42
50.0
 43
0.0
 44
0.0
 50
0.0
 51
0.0
 71
     0
 72
   100
 73
     1
 74
     1
 75
     0
 76
     0
 77
     0
 78
     0
  0
ENDTAB
  0
TABLE
  2
LTYPE
 70
     2
  0
LTYPE
  2
CONTINUOUS
 70
     0
  3
Solid line
 72
    65
 73
     0
 40
0.0
  0
LTYPE
  2
PHANTOM2
 70
     0
  3
___ _ _ ___ _ _ ___ _ _ ___ _ _
 72
    65
 73
     6
 40
1.25
 49
0.625
 49
-0.125
 49
0.125
 49
-0.125
 49
0.125
 49
-0.125
  0
ENDTAB
  0
TABLE
  2
LAYER
 70
     2
  0
LAYER
  2
0
 70
     0
 62
   255
  6
CONTINUOUS
  0
LAYER
  2
DEFPOINTS
 70
     0
 62
     7
  6
CONTINUOUS
  0
ENDTAB
  0
TABLE
  2
STYLE
 70
     1
  0
STYLE
  2
STANDARD
 70
     0
 40
0.0
 41
0.8
 50
0.0
 71
     0
 42
0.2
  3
txt
  4

  0
ENDTAB
  0
TABLE
  2
VIEW
 70
     0
  0
ENDTAB
  0
TABLE
  2
UCS
 70
     0
  0
ENDTAB
  0
TABLE
  2
APPID
 70
    10
  0
APPID
  2
ACAD
 70
     0
  0
APPID
  2
ACAD_MLEADERVER
 70
     0
  0
APPID
  2
ACAD_EXEMPT_FROM_CAD_STANDARDS
 70
     0
  0
APPID
  2
ACAD_NAV_VCDISPLAY
 70
     0
  0
APPID
  2
ACAECLAYERSTANDARD
 70
     0
  0
APPID
  2
ACCMTRANSPARENCY
 70
     0
  0
APPID
  2
ACAD_DSTYLE_DIMJAG
 70
     0
  0
APPID
  2
ACAD_DSTYLE_DIMTALN
 70
     0
  0
APPID
  2
ACDBATTR
 70
     0
  0
APPID
  2
ACADANNOTATIVE
 70
     0
  0
ENDTAB
  0
TABLE
  2
DIMSTYLE
 70
     2
  0
DIMSTYLE
  2
STANDARD
 70
     0
  3

  4

  5

  6

  7

 40
1.0
 41
0.1875
 42
0.0625
 43
0.38
 44
0.125
 45
0.0
 46
0.0
 47
0.01
 48
0.01
140
0.15625
141
0.09
142
0.0
143
25.3999999999999986
144
1.0
145
0.0
146
1.0
147
0.09
 71
     1
 72
     0
 73
     1
 74
     1
 75
     0
 76
     0
 77
     0
 78
     4
170
     0
171
     2
172
     0
173
     0
174
     0
175
     0
176
     0
177
     0
178
     0
  0
DIMSTYLE
  2
ANNOTATIVE
 70
     0
  3

  4

  5

  6

  7

 40
0.0
 41
0.18
 42
0.0625
 43
0.38
 44
0.18
 45
0.0
 46
0.0
 47
0.0
 48
0.0
140
0.18
141
0.09
142
0.0
143
25.3999999999999986
144
1.0
145
0.0
146
1.0
147
0.09
 71
     0
 72
     0
 73
     1
 74
     1
 75
     0
 76
     0
 77
     0
 78
     0
170
     0
171
     2
172
     0
173
     0
174
     0
175
     0
176
     0
177
     0
178
     0
  0
ENDTAB
  0
ENDSEC
  0
SECTION
  2
BLOCKS
  0
BLOCK
  8
0
  2
$MODEL_SPACE
 70
     0
 10
0.0
 20
0.0
 30
0.0
  3
$MODEL_SPACE
  1

  0
ENDBLK
  5
21
  8
0
  0
BLOCK
 67
     1
  8
0
  2
$PAPER_SPACE
 70
     0
 10
0.0
 20
0.0
 30
0.0
  3
$PAPER_SPACE
  1

  0
ENDBLK
  5
1D
 67
     1
  8
0
  0
BLOCK
  8
0
  2
_FILLED
 70
     0
 10
0.0
 20
0.0
 30
0.0
  3
_FILLED
  1

  0
SOLID
  5
D8EA
  8
0
  6
BYBLOCK
 62
     0
 10
0.0
 20
0.0
 30
0.0
 11
-1.0
 21
0.1666666667
 31
0.0
 12
-1.0
 22
-0.1666666667
 32
0.0
 13
-1.0
 23
-0.1666666667
 33
0.0
  0
ENDBLK
  5
D8EB
  8
0
  6
BYBLOCK
 62
     0
  0
ENDSEC
  0
SECTION
  2
ENTITIES
  0
ATTDEF
  5
3930
  8
DEFPOINTS
 10
7797.5568028171719561
 20
1760.7138962229039407
 30
0.0
 40
0.001
  1
K-99203T
  3

  2
MODELNUMBER
 70
     0
1001
ACDBATTR
1070
     0
1070
     1
  0
ATTDEF
  5
3931
  8
DEFPOINTS
 10
7797.5568028171719561
 20
1760.7122295562380714
 30
0.0
 40
0.001
  1
BIOVE
  3

  2
TRADENAME
 70
     0
1001
ACDBATTR
1070
     0
1070
     1
  0
ATTDEF
  5
3932
  8
DEFPOINTS
 10
7797.5568028171719561
 20
1760.7105628895710652
 30
0.0
 40
0.001
  1
BATH
  3

  2
PRODUCT
 70
     0
1001
ACDBATTR
1070
     0
1070
     1
  0
LINE
  5
E289
  8
0
 10
7830.3118207609459205
 20
1783.8664555761999964
 30
0.0
 11
7764.8000097372460004
 21
1783.8664555761999964
 31
0.0
  0
LINE
  5
E28A
  8
0
 10
7831.0204821782454019
 20
1783.1577941387999999
 30
0.0
 11
7764.0913483199447001
 21
1783.1577941387999999
 31
0.0
  0
LINE
  5
E28B
  8
0
 10
7764.2901672176440115
 20
1782.567242977800106
 30
0.0
 11
7830.8649703672463147
 21
1782.567242977800106
 31
0.0
  0
ARC
  5
E28C
  8
0
 10
7830.273030651337649
 20
1783.1190040503940963
 30
0.0
 40
0.7484573842464198
 50
2.970783039854346
 51
87.0292153350160476
  0
LINE
  5
E28D
  8
0
 10
7830.5893798160450388
 20
1782.6459831352999572
 30
0.0
 11
7830.5893798160450388
 21
1783.1577941387999999
 31
0.0
  0
ARC
  5
E28E
  8
0
 10
7830.6681199735448899
 20
1782.6459831352999572
 30
0.0
 40
0.0787401574999969
 50
180.0000000606952995
 51
270.0
  0
ARC
  5
E28F
  8
0
 10
7830.8649703672463147
 20
1782.4885028203000275
 30
0.0
 40
0.0787401575000004
 50
0.0
 51
90.0
  0
LINE
  5
E290
  8
0
 10
7830.9437105246461215
 20
1782.4885028203000275
 30
0.0
 11
7830.9437105246461215
 21
1760.913699670699998
 31
0.0
  0
LINE
  5
E291
  8
0
 10
7826.6089805382453051
 20
1760.7168492770010744
 30
0.0
 11
7826.6089805382453051
 21
1760.913699670699998
 31
0.0
  0
LINE
  5
E292
  8
0
 10
7826.2566604921448743
 20
1760.7168492770010744
 30
0.0
 11
7826.2566604921448743
 21
1760.913699670699998
 31
0.0
  0
LINE
  5
E293
  8
0
 10
7825.5520203997457429
 20
1760.7168492770010744
 30
0.0
 11
7825.5520203997457429
 21
1760.913699670699998
 31
0.0
  0
LINE
  5
E294
  8
0
 10
7825.1997003536462216
 20
1760.7168492770010744
 30
0.0
 11
7825.1997003536462216
 21
1760.913699670699998
 31
0.0
  0
LINE
  5
E295
  8
0
 10
7813.516405407945058
 20
1760.7168492769999375
 30
0.0
 11
7813.516405407945058
 21
1760.913699670699998
 31
0.0
  0
LINE
  5
E296
  8
0
 10
7813.3038768639453338
 20
1760.7168492769999375
 30
0.0
 11
7813.3038768639453338
 21
1760.913699670699998
 31
0.0
  0
LINE
  5
E297
  8
0
 10
7812.8788197759458853
 20
1760.7168492769999375
 30
0.0
 11
7812.8788197759458853
 21
1760.913699670699998
 31
0.0
  0
LINE
  5
E298
  8
0
 10
7812.6662912320443866
 20
1760.7168492769999375
 30
0.0
 11
7812.6662912320443866
 21
1760.913699670699998
 31
0.0
  0
LINE
  5
E299
  8
0
 10
7764.2901672176440115
 20
1760.9924398282000766
 30
0.0
 11
7764.2901672176440115
 21
1782.9041910707060197
 31
0.0
  0
ARC
  5
E29A
  8
0
 10
7764.3689073750283569
 20
1782.9041910707060197
 30
0.0
 40
0.0787401574829154
 50
108.4349488124208989
 51
180.0000000040124917
  0
LINE
  5
E29B
  8
0
 10
7764.3440075509452072
 20
1782.9788905430000341
 30
0.0
 11
7764.8807183383451047
 21
1783.1577941387999999
 31
0.0
  0
ARC
  5
E29C
  8
0
 10
7764.8455990509128242
 20
1783.1122048465249463
 30
0.0
 40
0.7556272551569513
 50
93.458931028885786
 51
176.5410705961986082
  0
LINE
  5
E29D
  8
0
 10
7768.5028499599447969
 20
1760.7168492770010744
 30
0.0
 11
7768.5028499599447969
 21
1760.913699670699998
 31
0.0
  0
LINE
  5
E29E
  8
0
 10
7768.8551700060452276
 20
1760.7168492770010744
 30
0.0
 11
7768.8551700060452276
 21
1760.913699670699998
 31
0.0
  0
LINE
  5
E29F
  8
0
 10
7769.559810098444359
 20
1760.7168492770010744
 30
0.0
 11
7769.559810098444359
 21
1760.913699670699998
 31
0.0
  0
LINE
  5
E2A0
  8
0
 10
7769.9121301445438803
 20
1760.7168492770010744
 30
0.0
 11
7769.9121301445438803
 21
1760.913699670699998
 31
0.0
  0
LINE
  5
E2A1
  8
0
 10
7779.4612872976458675
 20
1760.7168492769999375
 30
0.0
 11
7779.4612872976458675
 21
1760.913699670699998
 31
0.0
  0
LINE
  5
E2A2
  8
0
 10
7779.2487587536452338
 20
1760.7168492769999375
 30
0.0
 11
7779.2487587536452338
 21
1760.913699670699998
 31
0.0
  0
LINE
  5
E2A3
  8
0
 10
7778.8237016656448759
 20
1760.7168492769999375
 30
0.0
 11
7778.8237016656448759
 21
1760.913699670699998
 31
0.0
  0
LINE
  5
E2A4
  8
0
 10
7778.6111731217451961
 20
1760.7168492769999375
 30
0.0
 11
7778.6111731217451961
 21
1760.913699670699998
 31
0.0
  0
LINE
  5
E2A5
  8
0
 10
7798.2605553413950474
 20
1760.7168492770010744
 30
0.0
 11
7798.2605553413959569
 21
1760.913699670699998
 31
0.0
  0
LINE
  5
E2A6
  8
0
 10
7797.9082352952946167
 20
1760.7168492770010744
 30
0.0
 11
7797.9082352952946167
 21
1760.913699670699998
 31
0.0
  0
LINE
  5
E2A7
  8
0
 10
7797.2035952028936663
 20
1760.7168492770010744
 30
0.0
 11
7797.2035952028936663
 21
1760.913699670699998
 31
0.0
  0
LINE
  5
E2A8
  8
0
 10
7796.851275156794145
 20
1760.7168492770010744
 30
0.0
 11
7796.851275156794145
 21
1760.913699670699998
 31
0.0
  0
ARC
  5
E2A9
  8
0
 10
7764.3684664175043508
 20
1760.9919988705589731
 30
0.0
 40
0.0783004415193631
 50
179.677330742612412
 51
269.6773308154374718
  0
LINE
  5
E2AA
  8
0
 62
     7
 10
7826.6089805382453051
 20
1760.7168492770010744
 30
0.0
 11
7825.1997003536462216
 21
1760.7168492770010744
 31
0.0
  0
LINE
  5
E2AB
  8
0
 62
     7
 10
7813.516405407945058
 20
1760.7168492770010744
 30
0.0
 11
7812.6662912320443866
 21
1760.7168492770010744
 31
0.0
  0
LINE
  5
E2AC
  8
0
 62
     7
 10
7798.2605553413950474
 20
1760.7168492770010744
 30
0.0
 11
7796.851275156794145
 21
1760.7168492770010744
 31
0.0
  0
LINE
  5
E2AD
  8
0
 62
     7
 10
7779.4612872976458675
 20
1760.7168492770010744
 30
0.0
 11
7778.6111731217451961
 21
1760.7168492770010744
 31
0.0
  0
LINE
  5
E2AE
  8
0
 62
     7
 10
7769.9121301445438803
 20
1760.7168492770010744
 30
0.0
 11
7768.5028499599447969
 21
1760.7168492770010744
 31
0.0
  0
LINE
  5
E2AF
  8
0
 10
7830.9437105246461215
 20
1760.913699670699998
 30
0.0
 11
7764.3680254599630643
 21
1760.913699670699998
 31
0.0
  0
ENDSEC
  0
EOF
