  0
SECTION
  2
HEADER
  9
$ACADVER
  1
AC1009
  9
$INSBASE
 10
4626.9189522538099482
 20
556.6991097153140799
 30
0.0
  9
$EXTMIN
 10
4614.673898732786256
 20
547.2400439207024192
 30
-0.0000000349181948
  9
$EXTMAX
 10
4639.1096444277281989
 20
566.1553033161492294
 30
0.0000000814935746
  9
$LIMMIN
 10
0.0
 20
0.0
  9
$LIMMAX
 10
11.6929133858000007
 20
8.2677165353999982
  9
$ORTHOMODE
 70
     0
  9
$REGENMODE
 70
     1
  9
$FILLMODE
 70
     1
  9
$QTEXTMODE
 70
     0
  9
$MIRRTEXT
 70
     0
  9
$DRAGMODE
 70
     2
  9
$LTSCALE
 40
0.6431102362
  9
$OSMODE
 70
   695
  9
$ATTMODE
 70
     1
  9
$TEXTSIZE
 40
0.2
  9
$TRACEWID
 40
0.05
  9
$TEXTSTYLE
  7
STANDARD
  9
$CLAYER
  8
0
  9
$CELTYPE
  6
BYLAYER
  9
$CECOLOR
 62
   256
  9
$DIMSCALE
 40
1.0
  9
$DIMASZ
 40
0.1875
  9
$DIMEXO
 40
0.0625
  9
$DIMDLI
 40
0.4443307087
  9
$DIMRND
 40
0.0
  9
$DIMDLE
 40
0.0
  9
$DIMEXE
 40
0.125
  9
$DIMTP
 40
0.01
  9
$DIMTM
 40
0.01
  9
$DIMTXT
 40
2.0
  9
$DIMCEN
 40
0.1052362205
  9
$DIMTSZ
 40
0.0
  9
$DIMTOL
 70
     1
  9
$DIMLIM
 70
     0
  9
$DIMTIH
 70
     1
  9
$DIMTOH
 70
     1
  9
$DIMSE1
 70
     0
  9
$DIMSE2
 70
     0
  9
$DIMTAD
 70
     0
  9
$DIMZIN
 70
     0
  9
$DIMBLK
  1

  9
$DIMASO
 70
     1
  9
$DIMSHO
 70
     1
  9
$DIMPOST
  1
\X
  9
$DIMAPOST
  1

  9
$DIMALT
 70
     1
  9
$DIMALTD
 70
     2
  9
$DIMALTF
 40
25.3999999999999986
  9
$DIMLFAC
 40
1.0
  9
$DIMTOFL
 70
     0
  9
$DIMTVP
 40
0.0
  9
$DIMTIX
 70
     0
  9
$DIMSOXD
 70
     0
  9
$DIMSAH
 70
     0
  9
$DIMBLK1
  1

  9
$DIMBLK2
  1

  9
$DIMSTYLE
  2
STANDARD
  9
$DIMCLRD
 70
     0
  9
$DIMCLRE
 70
     0
  9
$DIMCLRT
 70
     0
  9
$DIMTFAC
 40
1.0
  9
$DIMGAP
 40
0.09
  9
$LUNITS
 70
     2
  9
$LUPREC
 70
     4
  9
$SKETCHINC
 40
0.1
  9
$FILLETRAD
 40
0.0
  9
$AUNITS
 70
     0
  9
$AUPREC
 70
     0
  9
$MENU
  1
.
  9
$ELEVATION
 40
0.0
  9
$PELEVATION
 40
0.0
  9
$THICKNESS
 40
0.0
  9
$LIMCHECK
 70
     0
  9
$BLIPMODE
 70
     0
  9
$CHAMFERA
 40
0.0
  9
$CHAMFERB
 40
0.0
  9
$SKPOLY
 70
     0
  9
$TDCREATE
 40
2458060.468368056230247
  9
$TDUPDATE
 40
2459297.743310185149312
  9
$TDINDWG
 40
1.5430930556
  9
$TDUSRTIMER
 40
1.5430930556
  9
$USRTIMER
 70
     1
  9
$ANGBASE
 50
0.0
  9
$ANGDIR
 70
     0
  9
$PDMODE
 70
     0
  9
$PDSIZE
 40
0.3125
  9
$PLINEWID
 40
0.0
  9
$COORDS
 70
     1
  9
$SPLFRAME
 70
     0
  9
$SPLINETYPE
 70
     6
  9
$SPLINESEGS
 70
     8
  9
$ATTDIA
 70
     1
  9
$ATTREQ
 70
     1
  9
$HANDLING
 70
     1
  9
$HANDSEED
  5
19FD1
  9
$SURFTAB1
 70
     6
  9
$SURFTAB2
 70
     6
  9
$SURFTYPE
 70
     6
  9
$SURFU
 70
     6
  9
$SURFV
 70
     6
  9
$UCSNAME
  2

  9
$UCSORG
 10
0.0
 20
0.0
 30
0.0
  9
$UCSXDIR
 10
1.0
 20
0.0
 30
0.0
  9
$UCSYDIR
 10
0.0
 20
1.0
 30
0.0
  9
$PUCSNAME
  2

  9
$PUCSORG
 10
0.0
 20
0.0
 30
0.0
  9
$PUCSXDIR
 10
1.0
 20
0.0
 30
0.0
  9
$PUCSYDIR
 10
0.0
 20
1.0
 30
0.0
  9
$USERI1
 70
     0
  9
$USERI2
 70
     0
  9
$USERI3
 70
     0
  9
$USERI4
 70
     0
  9
$USERI5
 70
     0
  9
$USERR1
 40
0.0
  9
$USERR2
 40
0.0
  9
$USERR3
 40
0.0
  9
$USERR4
 40
0.0
  9
$USERR5
 40
0.0
  9
$WORLDVIEW
 70
     1
  9
$SHADEDGE
 70
     3
  9
$SHADEDIF
 70
    70
  9
$TILEMODE
 70
     1
  9
$MAXACTVP
 70
    64
  9
$PLIMCHECK
 70
     0
  9
$PEXTMIN
 10
1.0000000000000000E+20
 20
1.0000000000000000E+20
 30
1.0000000000000000E+20
  9
$PEXTMAX
 10
-1.0000000000000000E+20
 20
-1.0000000000000000E+20
 30
-1.0000000000000000E+20
  9
$PLIMMIN
 10
0.0
 20
0.0
  9
$PLIMMAX
 10
12.0
 20
9.0
  9
$UNITMODE
 70
     0
  9
$VISRETAIN
 70
     1
  9
$PLINEGEN
 70
     0
  9
$PSLTSCALE
 70
     1
  0
ENDSEC
  0
SECTION
  2
TABLES
  0
TABLE
  2
VPORT
 70
     1
  0
VPORT
  2
*ACTIVE
 70
     0
 10
0.0
 20
0.0
 11
1.0
 21
1.0
 12
715.5264149700110465
 22
424.118068424700482
 13
0.0
 23
0.0
 14
1.0
 24
1.0
 15
0.0
 25
0.0
 16
0.0
 26
0.0
 36
60.4960186965801583
 17
3911.3653564453120453
 27
132.5796051025390057
 37
0.0
 40
27.4189570800281217
 41
1.866962305986696
 42
50.0
 43
0.0
 44
0.0
 50
0.0
 51
0.0
 71
     0
 72
   100
 73
     1
 74
     1
 75
     0
 76
     0
 77
     0
 78
     0
  0
ENDTAB
  0
TABLE
  2
LTYPE
 70
     2
  0
LTYPE
  2
CONTINUOUS
 70
     0
  3
Solid line
 72
    65
 73
     0
 40
0.0
  0
LTYPE
  2
PHANTOM2
 70
     0
  3
___ _ _ ___ _ _ ___ _ _ ___ _ _
 72
    65
 73
     6
 40
1.25
 49
0.625
 49
-0.125
 49
0.125
 49
-0.125
 49
0.125
 49
-0.125
  0
ENDTAB
  0
TABLE
  2
LAYER
 70
     2
  0
LAYER
  2
0
 70
     0
 62
   255
  6
CONTINUOUS
  0
LAYER
  2
DEFPOINTS
 70
     0
 62
     7
  6
CONTINUOUS
  0
ENDTAB
  0
TABLE
  2
STYLE
 70
     1
  0
STYLE
  2
STANDARD
 70
     0
 40
0.0
 41
0.8
 50
0.0
 71
     0
 42
0.2
  3
txt
  4

  0
ENDTAB
  0
TABLE
  2
VIEW
 70
     0
  0
ENDTAB
  0
TABLE
  2
UCS
 70
     0
  0
ENDTAB
  0
TABLE
  2
APPID
 70
    11
  0
APPID
  2
ACAD
 70
     0
  0
APPID
  2
ACAD_MLEADERVER
 70
     0
  0
APPID
  2
ACAD_EXEMPT_FROM_CAD_STANDARDS
 70
     0
  0
APPID
  2
ACAD_NAV_VCDISPLAY
 70
     0
  0
APPID
  2
ACAECLAYERSTANDARD
 70
     0
  0
APPID
  2
ACCMTRANSPARENCY
 70
     0
  0
APPID
  2
ACAD_DSTYLE_DIMJAG
 70
     0
  0
APPID
  2
ACAD_DSTYLE_DIMTALN
 70
     0
  0
APPID
  2
ACDBATTR
 70
     0
  0
APPID
  2
ACADANNOTATIVE
 70
     0
  0
APPID
  2
DCO15
 70
     0
  0
ENDTAB
  0
TABLE
  2
DIMSTYLE
 70
     1
  0
DIMSTYLE
  2
STANDARD
 70
     0
  3

  4

  5

  6

  7

 40
1.0
 41
0.1875
 42
0.0625
 43
0.38
 44
0.125
 45
0.0
 46
0.0
 47
0.01
 48
0.01
140
0.15625
141
0.09
142
0.0
143
25.3999999999999986
144
1.0
145
0.0
146
1.0
147
0.09
 71
     1
 72
     0
 73
     1
 74
     1
 75
     0
 76
     0
 77
     0
 78
     4
170
     0
171
     2
172
     0
173
     0
174
     0
175
     0
176
     0
177
     0
178
     0
  0
ENDTAB
  0
ENDSEC
  0
SECTION
  2
BLOCKS
  0
BLOCK
  8
0
  2
$MODEL_SPACE
 70
     0
 10
0.0
 20
0.0
 30
0.0
  3
$MODEL_SPACE
  1

  0
ENDBLK
  5
21
  8
0
  0
BLOCK
 67
     1
  8
0
  2
$PAPER_SPACE
 70
     0
 10
0.0
 20
0.0
 30
0.0
  3
$PAPER_SPACE
  1

  0
ENDBLK
  5
1D
 67
     1
  8
0
  0
ENDSEC
  0
SECTION
  2
ENTITIES
  0
LINE
  5
19E6A
  8
0
 10
4616.3644769196107518
 20
549.6488949942854561
 30
0.0
 11
4616.3650149410095764
 21
560.6237186452855212
 31
0.0
  0
LINE
  5
19E6B
  8
0
 10
4616.6084306073071275
 20
560.8570008789846497
 30
0.0
 11
4637.2294739002272763
 21
560.8570008789846497
 31
0.0
  0
CIRCLE
  5
19E6C
  8
0
 10
4626.9189522538099482
 20
558.755046732485539
 30
0.0
 40
0.8858267717
  0
CIRCLE
  5
19E6D
  8
0
 10
4626.9189522538099482
 20
562.8495349213854979
 30
0.0
 40
0.688976378
  0
ARC
  5
19E6E
  8
0
 10
4615.1806534448123784
 20
565.8803057808553376
 30
0.0
 40
0.236253690133475
 50
90.0033477277086575
 51
179.9917793016819019
  0
ARC
  5
19E6F
  8
0
 10
4615.1806197901505584
 20
547.5182698514266804
 30
0.0
 40
0.2362200330473926
 50
180.0004172650315013
 51
269.4787015512901007
  0
ARC
  5
19E70
  8
0
 10
4626.9189523438981269
 20
102493.8472479709016625
 30
0.0
 40
101927.7313644105015555
 50
269.9934016408448088
 51
270.0065983590508836
  0
ARC
  5
19E71
  8
0
 10
4626.9189523438981269
 20
102493.8472479709016625
 30
0.0
 40
101946.5658644104987616
 50
269.9934016408448088
 51
270.0065983590508836
  0
ARC
  5
19E72
  8
0
 10
4617.1397106392396381
 20
549.506537141257013
 30
0.0
 40
0.7393653200348773
 50
253.7756752589752978
 51
270.188153831976706
  0
ARC
  5
19E73
  8
0
 10
4617.1417299258318963
 20
549.5070950819721247
 30
0.0
 40
0.7404673736726564
 50
227.6550995908426955
 51
253.6377118848982093
  0
ARC
  5
19E74
  8
0
 10
4617.200267980470926
 20
549.5678636092726492
 30
0.0
 40
0.8248156611450873
 50
202.5914836918632886
 51
227.4930731351576014
  0
ARC
  5
19E75
  8
0
 10
4617.3409613745507158
 20
549.6252779484269695
 30
0.0
 40
0.976770011617842
 50
178.6145265356234972
 51
202.5304951948506869
  0
ARC
  5
19E76
  8
0
 10
4293.6365080288487661
 20
692.4938551974903476
 30
0.0
 40
352.9277894411430907
 50
336.1249931441691956
 51
336.3330064046161851
  0
ARC
  5
19E77
  8
0
 10
4600.5560119078782009
 20
557.7960990148628753
 30
0.0
 40
17.7524248793275916
 50
336.8660974595248945
 51
343.2797403503818146
  0
ARC
  5
19E78
  8
0
 10
4599.3496946378809298
 20
558.1131538858977592
 30
0.0
 40
18.9990060632735585
 50
343.4106423655724143
 51
350.4622830349201763
  0
ARC
  5
19E79
  8
0
 10
4592.4127590656162283
 20
559.273478896037318
 30
0.0
 40
26.0323132484547095
 50
350.4736018091250003
 51
356.0152882973130772
  0
ARC
  5
19E7A
  8
0
 10
4589.846304281319135
 20
559.4684374815791443
 30
0.0
 40
28.6061162406014802
 50
355.9829539254661768
 51
359.4261742009351792
  0
ARC
  5
19E7B
  8
0
 10
4587.3136891563426616
 20
559.4968906796108286
 30
0.0
 40
31.1388894632668105
 50
359.4204928551278044
 51
1.5629426653786489
  0
ARC
  5
19E7C
  8
0
 10
4618.7256658646147116
 20
560.3388119717407108
 30
0.0
 40
0.2847680502540934
 50
149.8699896957378996
 51
178.5118617440051878
  0
ARC
  5
19E7D
  8
0
 10
4618.6693037789082155
 20
560.3717670624622542
 30
0.0
 40
0.2194789617417268
 50
124.1023841782854049
 51
149.9250081534426045
  0
ARC
  5
19E7E
  8
0
 10
4618.640382869007226
 20
560.4141656069801911
 30
0.0
 40
0.1681563035128587
 50
90.8930630015190957
 51
124.0424684981038013
  0
ARC
  5
19E7F
  8
0
 10
4616.5896537217804507
 20
560.6261466295871969
 30
0.0
 40
0.2246519016923783
 50
154.2748136952913001
 51
180.6192512084826944
  0
ARC
  5
19E80
  8
0
 10
4616.5931481998495656
 20
560.6239708927371339
 30
0.0
 40
0.2287448484352422
 50
126.5220681261807982
 51
154.1637774505379923
  0
ARC
  5
19E81
  8
0
 10
4616.6005397895169153
 20
560.6145679333934595
 30
0.0
 40
0.2407005471229172
 50
107.4535290424991985
 51
126.6039723275551978
  0
ARC
  5
19E82
  8
0
 10
4616.6176434965400404
 20
560.5427626256663416
 30
0.0
 40
0.3143732768169682
 50
91.679326119847218
 51
106.5020356808904012
  0
ARC
  5
19E83
  8
0
 10
4626.918952253756288
 20
2100.3550979158371774
 30
0.0
 40
1539.7999955392549509
 50
269.8589813307099803
 51
270.1410186692900197
  0
ARC
  5
19E84
  8
0
 10
4627.1272601604878218
 20
2563.6064295692322048
 30
0.0
 40
2003.0506535313320455
 50
269.8078711571720874
 51
269.8856366199681247
  0
ARC
  5
19E85
  8
0
 10
4625.4937459367483825
 20
2071.0279047470708065
 30
0.0
 40
1510.4694205928340125
 50
269.7568648786274252
 51
269.8071790411706843
  0
ARC
  5
19E86
  8
0
 10
4619.1326432391142589
 20
586.679302837815726
 30
0.0
 40
26.107264093708789
 50
269.4158846690950213
 51
269.8934117462827089
  0
ARC
  5
19E87
  8
0
 10
4618.9433251141454093
 20
565.9350864882667338
 30
0.0
 40
5.3622415506872541
 50
267.7286262189243189
 51
269.178998164189295
  0
ARC
  5
19E88
  8
0
 10
4618.8337176922350409
 20
563.2312991929472901
 30
0.0
 40
2.6562355916180889
 50
265.7693337107639877
 51
267.77960267539612
  0
ARC
  5
19E89
  8
0
 10
4621.5739318531013851
 20
596.9971157610789305
 30
0.0
 40
36.5329959431605289
 50
264.739520769786111
 51
265.390145844752908
  0
ARC
  5
19E8A
  8
0
 10
4620.3164893900975585
 20
583.6687683219904557
 30
0.0
 40
23.1455177689345284
 50
263.0716228410967119
 51
264.8141645487888809
  0
ARC
  5
19E8B
  8
0
 10
4618.8229569174736753
 20
571.4627742587308603
 30
0.0
 40
10.8484975280474405
 50
260.3798828647487085
 51
263.1256804811387155
  0
ARC
  5
19E8C
  8
0
 10
4617.6996914826331704
 20
564.8669504097986191
 30
0.0
 40
4.1577168045001418
 50
256.118149313263018
 51
260.4516630419465173
  0
ARC
  5
19E8D
  8
0
 10
4617.1918408613610154
 20
562.7582211234206397
 30
0.0
 40
1.9887762740407759
 50
253.568147397527099
 51
255.7462185958395082
  0
ARC
  5
19E8E
  8
0
 10
4617.0746363165044386
 20
562.3545336273332396
 30
0.0
 40
1.5684234427234121
 50
252.707805786758712
 51
253.5032888754348903
  0
ARC
  5
19E8F
  8
0
 10
4626.9180597950353331
 20
558.6668246298449958
 30
0.0
 40
1.3040784318319609
 50
240.4950850716273862
 51
270.0392109277422037
  0
ARC
  5
19E90
  8
0
 10
4626.9458427622876115
 20
558.7023405722998177
 30
0.0
 40
1.348688080575509
 50
205.0071443886824909
 51
240.2109453195508024
  0
ARC
  5
19E91
  8
0
 10
4627.04923923296883
 20
558.7544790397266752
 30
0.0
 40
1.464436501195018
 50
178.4877427145954982
 51
205.1457178946899944
  0
ARC
  5
19E92
  8
0
 10
4627.0581829646343976
 20
558.7587825722881689
 30
0.0
 40
1.4732705333333149
 50
147.9634831679231866
 51
178.6642292659840905
  0
ARC
  5
19E93
  8
0
 10
4626.943678614129567
 20
558.8353897041215532
 30
0.0
 40
1.3355736428548419
 50
115.6680523939364065
 51
148.1436928087740057
  0
ARC
  5
19E94
  8
0
 10
4626.9853392162031014
 20
558.713173645333427
 30
0.0
 40
1.4638557184676659
 50
98.1494249922902213
 51
115.0657026526458964
  0
ARC
  5
19E95
  8
0
 10
4626.9190907595875615
 20
559.1063387610395239
 30
0.0
 40
1.0653153248153651
 50
90.0074492465276137
 51
97.619856622338844
  0
ARC
  5
19E96
  8
0
 10
4625.8397619335082709
 20
548.3973087004086437
 30
0.0
 40
0.6113799489206424
 50
88.4818004173149433
 51
111.5454137273136013
  0
ARC
  5
19E97
  8
0
 10
4625.8729147306266896
 20
548.4051129534219626
 30
0.0
 40
0.603599244226258
 50
67.9151163686609891
 51
91.609602699735234
  0
ARC
  5
19E98
  8
0
 10
4625.6828916759877757
 20
549.1078577550641739
 30
0.0
 40
0.1571911516770926
 50
232.6049268780008958
 51
244.5082741120232015
  0
ARC
  5
19E99
  8
0
 10
4625.6405179738685547
 20
549.0524747868141731
 30
0.0
 40
0.0874573565341448
 50
216.8331567642551079
 51
232.6245860103956886
  0
ARC
  5
19E9A
  8
0
 10
4625.613425582057971
 20
549.0317862017709558
 30
0.0
 40
0.0533714316641065
 50
198.6942752054031871
 51
216.4925334610425978
  0
ARC
  5
19E9B
  8
0
 10
4625.604023171236804
 20
549.0283018884704234
 30
0.0
 40
0.0433492330422097
 50
184.6614111786894057
 51
198.315143723870591
  0
ARC
  5
19E9C
  8
0
 10
4625.6034429646233548
 20
549.0281281726595353
 30
0.0
 40
0.0427570137661296
 50
168.5801104404098112
 51
184.4925809350334873
  0
ARC
  5
19E9D
  8
0
 10
4625.6118219731497447
 20
549.0262886002733467
 30
0.0
 40
0.0513345721654557
 50
152.1283742837441082
 51
168.4192435015426099
  0
ARC
  5
19E9E
  8
0
 10
4625.6319240110587998
 20
549.01570918299808
 30
0.0
 40
0.0740505262761288
 50
138.7712317455903985
 51
152.1634772499211863
  0
ARC
  5
19E9F
  8
0
 10
4625.6937360693191295
 20
548.9555192786060616
 30
0.0
 40
0.160271601056911
 50
114.0773141662655945
 51
137.1517316486018956
  0
ARC
  5
19EA0
  8
0
 10
4625.8004205616525724
 20
548.7354940052011898
 30
0.0
 40
0.4047498062418456
 50
100.2621872254883044
 51
115.1587439685759051
  0
ARC
  5
19EA1
  8
0
 10
4625.8489748575620979
 20
548.5008062690409361
 30
0.0
 40
0.6443609194783715
 50
89.3788662047107891
 51
100.7927974989648021
  0
ARC
  5
19EA2
  8
0
 10
4625.8527440609695986
 20
548.5060177595247524
 30
0.0
 40
0.6391196572782386
 50
77.0687529712726302
 51
89.7116849213091854
  0
ARC
  5
19EA3
  8
0
 10
4625.9023200635383546
 20
548.7185778047320355
 30
0.0
 40
0.4208567543251305
 50
65.9602292445961638
 51
77.1710867833606358
  0
ARC
  5
19EA4
  8
0
 10
4625.9915739125208347
 20
548.9135815425681812
 30
0.0
 40
0.2064180874321845
 50
49.6448913049233411
 51
66.5357633008482736
  0
ARC
  5
19EA5
  8
0
 10
4626.0710480535335591
 20
549.0064259987020705
 30
0.0
 40
0.0842061860645476
 50
24.9789785011537795
 51
49.9470120448611397
  0
ARC
  5
19EA6
  8
0
 10
4626.1039885408627015
 20
549.0235337786352829
 30
0.0
 40
0.0471495520207909
 50
353.3802193579081177
 51
23.0376183354470108
  0
ARC
  5
19EA7
  8
0
 10
4626.1076065284032666
 20
549.0243707189866882
 30
0.0
 40
0.043670017012073
 50
337.4366333992413161
 51
351.7420191854993163
  0
ARC
  5
19EA8
  8
0
 10
4626.0886694703876856
 20
549.0339737450191251
 30
0.0
 40
0.0648620604756447
 50
310.0745734536017721
 51
336.0216076918679278
  0
ARC
  5
19EA9
  8
0
 10
4626.0416587531308323
 20
549.0871773996902903
 30
0.0
 40
0.1358495365534496
 50
295.3656714568562052
 51
310.8005543770158852
  0
ARC
  5
19EAA
  8
0
 10
4625.733288289164193
 20
549.205267843070942
 30
0.0
 40
0.2668316930611381
 50
243.7423339073855004
 51
253.2154543344896069
  0
ARC
  5
19EAB
  8
0
 10
4625.8375935401190873
 20
549.5702100089614532
 30
0.0
 40
0.6463705874730195
 50
253.7051269072728132
 51
267.6873769194834836
  0
ARC
  5
19EAC
  8
0
 10
4625.8609571584183868
 20
549.7928972330978468
 30
0.0
 40
0.8699377132980124
 50
266.7416402336061196
 51
277.8142453431266858
  0
ARC
  5
19EAD
  8
0
 10
4625.9301520189110306
 20
549.3429464894441026
 30
0.0
 40
0.4148229023684891
 50
276.7953878495598019
 51
294.1482786017305102
  0
ARC
  5
19EAE
  8
0
 10
4626.9198447125845632
 20
558.6668246298449958
 30
0.0
 40
1.3040784318319609
 50
269.9607890722576826
 51
299.5049149283726138
  0
ARC
  5
19EAF
  8
0
 10
4626.8920617453331943
 20
558.7023405722998177
 30
0.0
 40
1.348688080575509
 50
299.789054680449226
 51
334.9928556113175091
  0
ARC
  5
19EB0
  8
0
 10
4626.7886652746510663
 20
558.7544790397266752
 30
0.0
 40
1.464436501195018
 50
334.8542821053101193
 51
1.512257285404399
  0
ARC
  5
19EB1
  8
0
 10
4626.7797215429873177
 20
558.7587825722881689
 30
0.0
 40
1.4732705333333149
 50
1.3357707340159031
 51
32.0365168320768134
  0
ARC
  5
19EB2
  8
0
 10
4626.8942258934912388
 20
558.8353897041215532
 30
0.0
 40
1.3355736428548419
 50
31.8563071912259801
 51
64.3319476060635509
  0
ARC
  5
19EB3
  8
0
 10
4626.8525652914167949
 20
558.713173645333427
 30
0.0
 40
1.4638557184676659
 50
64.934297347354061
 51
81.8505750077097787
  0
ARC
  5
19EB4
  8
0
 10
4626.9188137480332443
 20
559.1063387610395239
 30
0.0
 40
1.0653153248153651
 50
82.3801433776611844
 51
89.9925507534723863
  0
LINE
  5
19EB5
  8
0
 10
4637.4734275879009147
 20
549.6488949942854561
 30
0.0
 11
4637.47288956650209
 21
560.6237186452855212
 31
0.0
  0
ARC
  5
19EB6
  8
0
 10
4638.6572510627001975
 20
565.8803057808553376
 30
0.0
 40
0.236253690133475
 50
0.0082206968524518
 51
89.9966522722913567
  0
ARC
  5
19EB7
  8
0
 10
4638.6572847173110858
 20
547.5182698514473714
 30
0.0
 40
0.2362200330973833
 50
270.5212984535561986
 51
359.999582724976392
  0
ARC
  5
19EB8
  8
0
 10
4636.6981938682720283
 20
549.506537141257013
 30
0.0
 40
0.7393653200348773
 50
269.811846168023294
 51
286.2243247410247022
  0
ARC
  5
19EB9
  8
0
 10
4636.6961745816797702
 20
549.5070950819721247
 30
0.0
 40
0.7404673736726564
 50
286.3622881151018191
 51
312.344900409157276
  0
ARC
  5
19EBA
  8
0
 10
4636.63763652704165
 20
549.5678636092726492
 30
0.0
 40
0.8248156611450873
 50
312.5069268648423986
 51
337.4085163081367114
  0
ARC
  5
19EBB
  8
0
 10
4636.4969431329609506
 20
549.6252779484269695
 30
0.0
 40
0.976770011617842
 50
337.4695048051493131
 51
1.3854734643764619
  0
ARC
  5
19EBC
  8
0
 10
4960.2013964786629003
 20
692.4938551974903476
 30
0.0
 40
352.9277894411430907
 50
203.6669935953837864
 51
203.8750068558308044
  0
ARC
  5
19EBD
  8
0
 10
4653.2818925996343751
 20
557.7960990148628753
 30
0.0
 40
17.7524248793275916
 50
196.7202596496182139
 51
203.1339025404751055
  0
ARC
  5
19EBE
  8
0
 10
4654.4882098696316461
 20
558.1131538858977592
 30
0.0
 40
18.9990060632735585
 50
189.5377169650797953
 51
196.5893576344275004
  0
ARC
  5
19EBF
  8
0
 10
4661.4251454418954381
 20
559.273478896037318
 30
0.0
 40
26.0323132484547095
 50
183.9847117026868091
 51
189.5263981908749997
  0
ARC
  5
19EC0
  8
0
 10
4663.9916002261916219
 20
559.4684374815791443
 30
0.0
 40
28.6061162406014802
 50
180.5738257990647071
 51
184.0170460745337095
  0
ARC
  5
19EC1
  8
0
 10
4666.5242153511690049
 20
559.4968906796108286
 30
0.0
 40
31.1388894632668105
 50
178.4370573346213007
 51
180.5795071448721956
  0
ARC
  5
19EC2
  8
0
 10
4635.1122386428960453
 20
560.3388119717407108
 30
0.0
 40
0.2847680502540934
 50
1.4881382559947991
 51
30.13001030426204
  0
ARC
  5
19EC3
  8
0
 10
4635.168600728603451
 20
560.3717670624622542
 30
0.0
 40
0.2194789617417268
 50
30.0749918465573813
 51
55.8976158217146093
  0
ARC
  5
19EC4
  8
0
 10
4635.19752163850535
 20
560.4141656069801911
 30
0.0
 40
0.1681563035128587
 50
55.9575315018961916
 51
89.1069369984808759
  0
ARC
  5
19EC5
  8
0
 10
4637.2482507857312157
 20
560.6261466295871969
 30
0.0
 40
0.2246519016923783
 50
359.3807487915173056
 51
25.7251863047087213
  0
ARC
  5
19EC6
  8
0
 10
4637.2447563076611914
 20
560.6239708927371339
 30
0.0
 40
0.2287448484352422
 50
25.8362225494620112
 51
53.4779318738191591
  0
ARC
  5
19EC7
  8
0
 10
4637.2373647179947511
 20
560.6145679333934595
 30
0.0
 40
0.2407005471229172
 50
53.3960276724448306
 51
72.5464709575007447
  0
ARC
  5
19EC8
  8
0
 10
4637.2202610109716261
 20
560.5427626256663416
 30
0.0
 40
0.3143732768169682
 50
73.497964319109613
 51
88.320673880152782
  0
ARC
  5
19EC9
  8
0
 10
4626.7106443470229351
 20
2563.6064295692322048
 30
0.0
 40
2003.0506535313320455
 50
270.1143633800318753
 51
270.1921288428279126
  0
ARC
  5
19ECA
  8
0
 10
4628.3441585707641934
 20
2071.0279047470708065
 30
0.0
 40
1510.4694205928340125
 50
270.1928209588293157
 51
270.2431351213725748
  0
ARC
  5
19ECB
  8
0
 10
4634.7052612683974075
 20
586.679302837815726
 30
0.0
 40
26.107264093708789
 50
270.1065882537171774
 51
270.5841153309049787
  0
ARC
  5
19ECC
  8
0
 10
4634.8945793933671666
 20
565.9350864882667338
 30
0.0
 40
5.3622415506872541
 50
270.8210018358108186
 51
272.2713737810753969
  0
ARC
  5
19ECD
  8
0
 10
4635.0041868152784446
 20
563.2312991929472901
 30
0.0
 40
2.6562355916180889
 50
272.22039732460388
 51
274.2306662892360123
  0
ARC
  5
19ECE
  8
0
 10
4632.2639726544111909
 20
596.9971157610789305
 30
0.0
 40
36.5329959431605289
 50
274.6098541552472057
 51
275.260479230213889
  0
ARC
  5
19ECF
  8
0
 10
4633.5214151174131985
 20
583.6687683219904557
 30
0.0
 40
23.1455177689345284
 50
275.1858354512111191
 51
276.9283771589031744
  0
ARC
  5
19ED0
  8
0
 10
4635.0149475900379912
 20
571.4627742587308603
 30
0.0
 40
10.8484975280474405
 50
276.8743195188612845
 51
279.6201171352512915
  0
ARC
  5
19ED1
  8
0
 10
4636.1382130248775866
 20
564.8669504097986191
 30
0.0
 40
4.1577168045001418
 50
279.5483369580534259
 51
283.8818506867370957
  0
ARC
  5
19ED2
  8
0
 10
4636.6460636461515605
 20
562.7582211234206397
 30
0.0
 40
1.9887762740407759
 50
284.253781404160577
 51
286.4318526024729863
  0
ARC
  5
19ED3
  8
0
 10
4636.7632681910081374
 20
562.3545336273332396
 30
0.0
 40
1.5684234427234121
 50
286.4967111245650813
 51
287.2921942132413733
  0
LINE
  5
19ED5
  8
0
 10
4614.9443997571097498
 20
547.5182681311191573
 30
0.0
 11
4614.9443997571097498
 21
565.8803396781217998
 31
0.0
  0
LINE
  5
19ED6
  8
0
 10
4638.8935047504010072
 20
547.5182681310988073
 30
0.0
 11
4638.8935047504010072
 21
565.8803396781156607
 31
0.0
  0
ARC
  5
19ED7
  8
0
 10
4626.918952253756288
 20
1884.8102142029679271
 30
0.0
 40
1336.0788099990249975
 50
269.5807319506009208
 51
270.4192680493990792
  0
POINT
  5
19ED8
  8
DEFPOINTS
 10
4626.9189522538099482
 20
562.8495349213854979
 30
0.0
  0
CIRCLE
  5
19ED9
  8
0
 10
4624.91895221555842
 20
562.8489422896770975
 30
0.0
 40
0.688976378
  0
CIRCLE
  5
19EDA
  8
0
 10
4628.9189522155593295
 20
562.8489422896770975
 30
0.0
 40
0.688976378
  0
ARC
  5
19EDB
  8
0
 10
4626.9026746328136142
 20
548.3885909977377651
 30
0.0
 40
0.6113799489206424
 50
88.4818004173149433
 51
111.5454137273136013
  0
ARC
  5
19EDC
  8
0
 10
4626.9358274299338518
 20
548.3963952507513113
 30
0.0
 40
0.603599244226258
 50
67.9151163686609891
 51
91.609602699735234
  0
ARC
  5
19EDD
  8
0
 10
4626.7458043752949379
 20
549.0991400523935226
 30
0.0
 40
0.1571911516770926
 50
232.6049268780008958
 51
244.5082741120232015
  0
ARC
  5
19EDE
  8
0
 10
4626.7034306731757169
 20
549.0437570841434081
 30
0.0
 40
0.0874573565341448
 50
216.8331567642551079
 51
232.6245860103956886
  0
ARC
  5
19EDF
  8
0
 10
4626.6763382813642238
 20
549.0230684991001908
 30
0.0
 40
0.0533714316641065
 50
198.6942752054031871
 51
216.4925334610425978
  0
ARC
  5
19EE0
  8
0
 10
4626.6669358705439663
 20
549.0195841857996584
 30
0.0
 40
0.0433492330422097
 50
184.6614111786894057
 51
198.315143723870591
  0
ARC
  5
19EE1
  8
0
 10
4626.666355663928698
 20
549.0194104699887703
 30
0.0
 40
0.0427570137661296
 50
168.5801104404098112
 51
184.4925809350334873
  0
ARC
  5
19EE2
  8
0
 10
4626.6747346724559975
 20
549.0175708976025817
 30
0.0
 40
0.0513345721654557
 50
152.1283742837441082
 51
168.4192435015426099
  0
ARC
  5
19EE3
  8
0
 10
4626.6948367103659621
 20
549.0069914803275424
 30
0.0
 40
0.0740505262761288
 50
138.7712317455903985
 51
152.1634772499211863
  0
ARC
  5
19EE4
  8
0
 10
4626.7566487686262917
 20
548.9468015759355239
 30
0.0
 40
0.160271601056911
 50
114.0773141662655945
 51
137.1517316486018956
  0
ARC
  5
19EE5
  8
0
 10
4626.8633332609588251
 20
548.7267763025305385
 30
0.0
 40
0.4047498062418456
 50
100.2621872254883044
 51
115.1587439685759051
  0
ARC
  5
19EE6
  8
0
 10
4626.9118875568683507
 20
548.4920885663702848
 30
0.0
 40
0.6443609194783715
 50
89.3788662047107891
 51
100.7927974989648021
  0
ARC
  5
19EE7
  8
0
 10
4626.9156567602767609
 20
548.4973000568538737
 30
0.0
 40
0.6391196572782386
 50
77.0687529712726302
 51
89.7116849213091854
  0
ARC
  5
19EE8
  8
0
 10
4626.9652327628446074
 20
548.7098601020611568
 30
0.0
 40
0.4208567543251305
 50
65.9602292445961638
 51
77.1710867833606358
  0
ARC
  5
19EE9
  8
0
 10
4627.054486611827997
 20
548.9048638398975299
 30
0.0
 40
0.2064180874321845
 50
49.6448913049233411
 51
66.5357633008482736
  0
ARC
  5
19EEA
  8
0
 10
4627.1339607528407214
 20
548.9977082960314192
 30
0.0
 40
0.0842061860645476
 50
24.9789785011537795
 51
49.9470120448611397
  0
ARC
  5
19EEB
  8
0
 10
4627.1669012401698637
 20
549.0148160759646316
 30
0.0
 40
0.0471495520207909
 50
353.3802193579081177
 51
23.0376183354470108
  0
ARC
  5
19EEC
  8
0
 10
4627.1705192277104288
 20
549.0156530163159232
 30
0.0
 40
0.043670017012073
 50
337.4366333992413161
 51
351.7420191854993163
  0
ARC
  5
19EED
  8
0
 10
4627.1515821696948478
 20
549.0252560423482464
 30
0.0
 40
0.0648620604756447
 50
310.0745734536017721
 51
336.0216076918679278
  0
ARC
  5
19EEE
  8
0
 10
4627.1045714524379946
 20
549.0784596970195253
 30
0.0
 40
0.1358495365534496
 50
295.3656714568562052
 51
310.8005543770158852
  0
ARC
  5
19EEF
  8
0
 10
4626.7962009884713552
 20
549.196550140400177
 30
0.0
 40
0.2668316930611381
 50
243.7423339073855004
 51
253.2154543344896069
  0
ARC
  5
19EF0
  8
0
 10
4626.90050623942534
 20
549.5614923062905746
 30
0.0
 40
0.6463705874730195
 50
253.7051269072728132
 51
267.6873769194834836
  0
ARC
  5
19EF1
  8
0
 10
4626.9238698577246396
 20
549.7841795304271955
 30
0.0
 40
0.8699377132980124
 50
266.7416402336061196
 51
277.8142453431266858
  0
ARC
  5
19EF2
  8
0
 10
4626.9930647182181929
 20
549.3342287867734512
 30
0.0
 40
0.4148229023684891
 50
276.7953878495598019
 51
294.1482786017305102
  0
ARC
  5
19EF3
  8
0
 10
4627.9656667588142227
 20
548.3903410952377726
 30
0.0
 40
0.6113799489206424
 50
88.4818004173149433
 51
111.5454137273136013
  0
ARC
  5
19EF4
  8
0
 10
4627.9988195559335509
 20
548.3981453482512052
 30
0.0
 40
0.603599244226258
 50
67.9151163686609891
 51
91.609602699735234
  0
ARC
  5
19EF5
  8
0
 10
4627.808796501294637
 20
549.1008901498935302
 30
0.0
 40
0.1571911516770926
 50
232.6049268780008958
 51
244.5082741120232015
  0
ARC
  5
19EF6
  8
0
 10
4627.7664227991763255
 20
549.0455071816434156
 30
0.0
 40
0.0874573565341448
 50
216.8331567642551079
 51
232.6245860103956886
  0
ARC
  5
19EF7
  8
0
 10
4627.7393304073639229
 20
549.0248185966001984
 30
0.0
 40
0.0533714316641065
 50
198.6942752054031871
 51
216.4925334610425978
  0
ARC
  5
19EF8
  8
0
 10
4627.7299279965436654
 20
549.0213342832997796
 30
0.0
 40
0.0433492330422097
 50
184.6614111786894057
 51
198.315143723870591
  0
ARC
  5
19EF9
  8
0
 10
4627.7293477899293066
 20
549.0211605674888915
 30
0.0
 40
0.0427570137661296
 50
168.5801104404098112
 51
184.4925809350334873
  0
ARC
  5
19EFA
  8
0
 10
4627.7377267984556966
 20
549.0193209951024755
 30
0.0
 40
0.0513345721654557
 50
152.1283742837441082
 51
168.4192435015426099
  0
ARC
  5
19EFB
  8
0
 10
4627.7578288363647516
 20
549.0087415778275499
 30
0.0
 40
0.0740505262761288
 50
138.7712317455903985
 51
152.1634772499211863
  0
ARC
  5
19EFC
  8
0
 10
4627.8196408946250813
 20
548.9485516734355315
 30
0.0
 40
0.160271601056911
 50
114.0773141662655945
 51
137.1517316486018956
  0
ARC
  5
19EFD
  8
0
 10
4627.9263253869603432
 20
548.728526400030546
 30
0.0
 40
0.4047498062418456
 50
100.2621872254883044
 51
115.1587439685759051
  0
ARC
  5
19EFE
  8
0
 10
4627.9748796828689592
 20
548.4938386638701786
 30
0.0
 40
0.6443609194783715
 50
89.3788662047107891
 51
100.7927974989648021
  0
ARC
  5
19EFF
  8
0
 10
4627.9786488862755505
 20
548.4990501543538812
 30
0.0
 40
0.6391196572782386
 50
77.0687529712726302
 51
89.7116849213091854
  0
ARC
  5
19F00
  8
0
 10
4628.0282248888452159
 20
548.711610199561278
 30
0.0
 40
0.4208567543251305
 50
65.9602292445961638
 51
77.1710867833606358
  0
ARC
  5
19F01
  8
0
 10
4628.117478737827696
 20
548.9066139373975375
 30
0.0
 40
0.2064180874321845
 50
49.6448913049233411
 51
66.5357633008482736
  0
ARC
  5
19F02
  8
0
 10
4628.1969528788404205
 20
548.9994583935314267
 30
0.0
 40
0.0842061860645476
 50
24.9789785011537795
 51
49.9470120448611397
  0
ARC
  5
19F03
  8
0
 10
4628.2298933661695628
 20
549.0165661734646392
 30
0.0
 40
0.0471495520207909
 50
353.3802193579081177
 51
23.0376183354470108
  0
ARC
  5
19F04
  8
0
 10
4628.2335113537101279
 20
549.0174031138159307
 30
0.0
 40
0.043670017012073
 50
337.4366333992413161
 51
351.7420191854993163
  0
ARC
  5
19F05
  8
0
 10
4628.2145742956963659
 20
549.027006139848254
 30
0.0
 40
0.0648620604756447
 50
310.0745734536017721
 51
336.0216076918679278
  0
ARC
  5
19F06
  8
0
 10
4628.1675635784367842
 20
549.0802097945195328
 30
0.0
 40
0.1358495365534496
 50
295.3656714568562052
 51
310.8005543770158852
  0
ARC
  5
19F07
  8
0
 10
4627.8591931144710543
 20
549.1983002379001846
 30
0.0
 40
0.2668316930611381
 50
243.7423339073855004
 51
253.2154543344896069
  0
ARC
  5
19F08
  8
0
 10
4627.9634983654259486
 20
549.5632424037905821
 30
0.0
 40
0.6463705874730195
 50
253.7051269072728132
 51
267.6873769194834836
  0
ARC
  5
19F09
  8
0
 10
4627.9868619837252481
 20
549.785929627927203
 30
0.0
 40
0.8699377132980124
 50
266.7416402336061196
 51
277.8142453431266858
  0
ARC
  5
19F0A
  8
0
 10
4628.0560568442188014
 20
549.3359788842734588
 30
0.0
 40
0.4148229023684891
 50
276.7953878495598019
 51
294.1482786017305102
  0
ATTDEF
  5
19F0B
  8
DEFPOINTS
 10
4626.9189507852770475
 20
556.6980324563968452
 30
0.0
 40
0.001
  1
K-99182T-4
  3

  2
MODELNUMBER
 70
     0
1001
ACDBATTR
1070
     0
1070
     1
  0
ATTDEF
  5
19F0C
  8
DEFPOINTS
 10
4626.918824975620737
 20
556.6963656160176015
 30
0.0
 40
0.001
  1
PARLIAMENT
  3

  2
TRADENAME
 70
     0
1001
ACDBATTR
1070
     0
1070
     1
  0
ATTDEF
  5
19F0D
  8
DEFPOINTS
 10
4626.9189507852770475
 20
556.6946991230635149
 30
0.0
 40
0.001
  1
BATHROOM SINK
  3

  2
PRODUCT
 70
     0
1001
ACDBATTR
1070
     0
1070
     1
  0
ENDSEC
  0
EOF
