  0
SECTION
  2
HEADER
  9
$ACADVER
  1
AC1009
  9
$INSBASE
 10
3862.2250808754920399
 20
129.8025741978867984
 30
0.0
  9
$EXTMIN
 10
3854.6934566065629042
 20
120.7537399215422056
 30
-0.0000000000112498
  9
$EXTMAX
 10
3862.3261596681809351
 20
150.1137336686498998
 30
0.0000000000002956
  9
$LIMMIN
 10
0.0
 20
0.0
  9
$LIMMAX
 10
11.6929133858000007
 20
8.2677165353999982
  9
$ORTHOMODE
 70
     0
  9
$REGENMODE
 70
     1
  9
$FILLMODE
 70
     1
  9
$QTEXTMODE
 70
     0
  9
$MIRRTEXT
 70
     0
  9
$DRAGMODE
 70
     2
  9
$LTSCALE
 40
0.6431102362
  9
$OSMODE
 70
  4095
  9
$ATTMODE
 70
     1
  9
$TEXTSIZE
 40
0.2
  9
$TRACEWID
 40
0.05
  9
$TEXTSTYLE
  7
STANDARD
  9
$CLAYER
  8
0
  9
$CELTYPE
  6
BYLAYER
  9
$CECOLOR
 62
   256
  9
$DIMSCALE
 40
1.0
  9
$DIMASZ
 40
0.1875
  9
$DIMEXO
 40
0.0625
  9
$DIMDLI
 40
0.4443307087
  9
$DIMRND
 40
0.0
  9
$DIMDLE
 40
0.0
  9
$DIMEXE
 40
0.125
  9
$DIMTP
 40
0.01
  9
$DIMTM
 40
0.01
  9
$DIMTXT
 40
2.0
  9
$DIMCEN
 40
0.1052362205
  9
$DIMTSZ
 40
0.0
  9
$DIMTOL
 70
     1
  9
$DIMLIM
 70
     0
  9
$DIMTIH
 70
     1
  9
$DIMTOH
 70
     1
  9
$DIMSE1
 70
     0
  9
$DIMSE2
 70
     0
  9
$DIMTAD
 70
     0
  9
$DIMZIN
 70
     0
  9
$DIMBLK
  1

  9
$DIMASO
 70
     1
  9
$DIMSHO
 70
     1
  9
$DIMPOST
  1
\X
  9
$DIMAPOST
  1

  9
$DIMALT
 70
     1
  9
$DIMALTD
 70
     2
  9
$DIMALTF
 40
25.3999999999999986
  9
$DIMLFAC
 40
1.0
  9
$DIMTOFL
 70
     0
  9
$DIMTVP
 40
0.0
  9
$DIMTIX
 70
     0
  9
$DIMSOXD
 70
     0
  9
$DIMSAH
 70
     0
  9
$DIMBLK1
  1

  9
$DIMBLK2
  1

  9
$DIMSTYLE
  2
STANDARD
  9
$DIMCLRD
 70
     0
  9
$DIMCLRE
 70
     0
  9
$DIMCLRT
 70
     0
  9
$DIMTFAC
 40
1.0
  9
$DIMGAP
 40
0.09
  9
$LUNITS
 70
     2
  9
$LUPREC
 70
     4
  9
$SKETCHINC
 40
0.1
  9
$FILLETRAD
 40
0.0
  9
$AUNITS
 70
     0
  9
$AUPREC
 70
     0
  9
$MENU
  1
.
  9
$ELEVATION
 40
0.0
  9
$PELEVATION
 40
0.0
  9
$THICKNESS
 40
0.0
  9
$LIMCHECK
 70
     0
  9
$BLIPMODE
 70
     0
  9
$CHAMFERA
 40
0.0
  9
$CHAMFERB
 40
0.0
  9
$SKPOLY
 70
     0
  9
$TDCREATE
 40
2458060.468368056230247
  9
$TDUPDATE
 40
2459199.7298842598684132
  9
$TDINDWG
 40
0.3099260417
  9
$TDUSRTIMER
 40
0.3099260417
  9
$USRTIMER
 70
     1
  9
$ANGBASE
 50
0.0
  9
$ANGDIR
 70
     0
  9
$PDMODE
 70
     0
  9
$PDSIZE
 40
0.3125
  9
$PLINEWID
 40
0.0
  9
$COORDS
 70
     1
  9
$SPLFRAME
 70
     0
  9
$SPLINETYPE
 70
     6
  9
$SPLINESEGS
 70
     8
  9
$ATTDIA
 70
     1
  9
$ATTREQ
 70
     1
  9
$HANDLING
 70
     1
  9
$HANDSEED
  5
8972
  9
$SURFTAB1
 70
     6
  9
$SURFTAB2
 70
     6
  9
$SURFTYPE
 70
     6
  9
$SURFU
 70
     6
  9
$SURFV
 70
     6
  9
$UCSNAME
  2

  9
$UCSORG
 10
0.0
 20
0.0
 30
0.0
  9
$UCSXDIR
 10
1.0
 20
0.0
 30
0.0
  9
$UCSYDIR
 10
0.0
 20
1.0
 30
0.0
  9
$PUCSNAME
  2

  9
$PUCSORG
 10
0.0
 20
0.0
 30
0.0
  9
$PUCSXDIR
 10
1.0
 20
0.0
 30
0.0
  9
$PUCSYDIR
 10
0.0
 20
1.0
 30
0.0
  9
$USERI1
 70
     0
  9
$USERI2
 70
     0
  9
$USERI3
 70
     0
  9
$USERI4
 70
     0
  9
$USERI5
 70
     0
  9
$USERR1
 40
0.0
  9
$USERR2
 40
0.0
  9
$USERR3
 40
0.0
  9
$USERR4
 40
0.0
  9
$USERR5
 40
0.0
  9
$WORLDVIEW
 70
     1
  9
$SHADEDGE
 70
     3
  9
$SHADEDIF
 70
    70
  9
$TILEMODE
 70
     1
  9
$MAXACTVP
 70
    64
  9
$PLIMCHECK
 70
     0
  9
$PEXTMIN
 10
1.0000000000000000E+20
 20
1.0000000000000000E+20
 30
1.0000000000000000E+20
  9
$PEXTMAX
 10
-1.0000000000000000E+20
 20
-1.0000000000000000E+20
 30
-1.0000000000000000E+20
  9
$PLIMMIN
 10
0.0
 20
0.0
  9
$PLIMMAX
 10
12.0
 20
9.0
  9
$UNITMODE
 70
     0
  9
$VISRETAIN
 70
     1
  9
$PLINEGEN
 70
     0
  9
$PSLTSCALE
 70
     1
  0
ENDSEC
  0
SECTION
  2
TABLES
  0
TABLE
  2
VPORT
 70
     1
  0
VPORT
  2
*ACTIVE
 70
     0
 10
0.0
 20
0.0
 11
1.0
 21
1.0
 12
54.9657407545591994
 22
9.4384745983461613
 13
0.0
 23
0.0
 14
1.0
 24
1.0
 15
0.0
 25
0.0
 16
0.0
 26
0.0
 36
17.1152628219792007
 17
3803.5440673828129547
 27
125.9952621967499056
 37
0.0
 40
29.7340064063064702
 41
2.8872340425531919
 42
50.0
 43
0.0
 44
0.0
 50
0.0
 51
0.0
 71
     0
 72
   100
 73
     1
 74
     1
 75
     0
 76
     0
 77
     0
 78
     0
  0
ENDTAB
  0
TABLE
  2
LTYPE
 70
     2
  0
LTYPE
  2
CONTINUOUS
 70
     0
  3
Solid line
 72
    65
 73
     0
 40
0.0
  0
LTYPE
  2
PHANTOM2
 70
     0
  3
___ _ _ ___ _ _ ___ _ _ ___ _ _
 72
    65
 73
     6
 40
1.25
 49
0.625
 49
-0.125
 49
0.125
 49
-0.125
 49
0.125
 49
-0.125
  0
ENDTAB
  0
TABLE
  2
LAYER
 70
     2
  0
LAYER
  2
0
 70
     0
 62
   255
  6
CONTINUOUS
  0
LAYER
  2
DEFPOINTS
 70
     0
 62
     7
  6
CONTINUOUS
  0
ENDTAB
  0
TABLE
  2
STYLE
 70
     1
  0
STYLE
  2
STANDARD
 70
     0
 40
0.0
 41
0.8
 50
0.0
 71
     0
 42
0.2
  3
txt
  4

  0
ENDTAB
  0
TABLE
  2
VIEW
 70
     0
  0
ENDTAB
  0
TABLE
  2
UCS
 70
     0
  0
ENDTAB
  0
TABLE
  2
APPID
 70
     9
  0
APPID
  2
ACAD
 70
     0
  0
APPID
  2
ACAD_MLEADERVER
 70
     0
  0
APPID
  2
ACAD_EXEMPT_FROM_CAD_STANDARDS
 70
     0
  0
APPID
  2
ACAD_NAV_VCDISPLAY
 70
     0
  0
APPID
  2
ACAECLAYERSTANDARD
 70
     0
  0
APPID
  2
ACCMTRANSPARENCY
 70
     0
  0
APPID
  2
ACAD_DSTYLE_DIMJAG
 70
     0
  0
APPID
  2
ACAD_DSTYLE_DIMTALN
 70
     0
  0
APPID
  2
ACDBATTR
 70
     0
  0
ENDTAB
  0
TABLE
  2
DIMSTYLE
 70
     1
  0
DIMSTYLE
  2
STANDARD
 70
     0
  3

  4

  5

  6

  7

 40
1.0
 41
0.1875
 42
0.0625
 43
0.38
 44
0.125
 45
0.0
 46
0.0
 47
0.01
 48
0.01
140
0.15625
141
0.09
142
0.0
143
25.3999999999999986
144
1.0
145
0.0
146
1.0
147
0.09
 71
     1
 72
     0
 73
     1
 74
     1
 75
     0
 76
     0
 77
     0
 78
     4
170
     0
171
     2
172
     0
173
     0
174
     0
175
     0
176
     0
177
     0
178
     0
  0
ENDTAB
  0
ENDSEC
  0
SECTION
  2
BLOCKS
  0
BLOCK
  8
0
  2
$MODEL_SPACE
 70
     0
 10
0.0
 20
0.0
 30
0.0
  3
$MODEL_SPACE
  1

  0
ENDBLK
  5
21
  8
0
  0
BLOCK
 67
     1
  8
0
  2
$PAPER_SPACE
 70
     0
 10
0.0
 20
0.0
 30
0.0
  3
$PAPER_SPACE
  1

  0
ENDBLK
  5
1D
 67
     1
  8
0
  0
ENDSEC
  0
SECTION
  2
ENTITIES
  0
ATTDEF
  5
3930
  8
DEFPOINTS
 10
3862.2290589256331259
 20
129.8029637227056128
 30
0.0
 40
0.001
  1
K-99037T-4
  3

  2
MODELNUMBER
 70
     0
1001
ACDBATTR
1070
     0
1070
     1
  0
ATTDEF
  5
3931
  8
DEFPOINTS
 10
3862.2290589256331259
 20
129.8012970560388908
 30
0.0
 40
0.001
  1
REFINIA
  3

  2
TRADENAME
 70
     0
1001
ACDBATTR
1070
     0
1070
     1
  0
ATTDEF
  5
3932
  8
DEFPOINTS
 10
3862.2290589256331259
 20
129.7996303893721972
 30
0.0
 40
0.001
  1
BATH AND SHOWER FAUCET
  3

  2
PRODUCT
 70
     0
1001
ACDBATTR
1070
     0
1070
     1
  0
ARC
  5
84AB
  8
0
 10
3814.5940418105851677
 20
141.850026311312206
 30
0.0
 40
45.2670925132484001
 50
358.0915364235660263
 51
359.3554454767489119
  0
ARC
  5
84AC
  8
0
 10
3859.8740234280871846
 20
140.3412885837707904
 30
0.0
 40
0.038017880444542
 50
178.1668416465128075
 51
269.8199852164904087
  0
ARC
  5
84AD
  8
0
 10
3817.8044867363992125
 20
141.8139085708216953
 30
0.0
 40
42.0564444302504086
 50
359.3554454767489119
 51
2.1403945442906109
  0
ARC
  5
84AE
  8
0
 10
3842.7094202006619525
 20
142.7447135111897012
 30
0.0
 40
17.1341229353250384
 50
2.1403945442906109
 51
6.7530579383051341
  0
ARC
  5
84AF
  8
0
 10
3854.9288483182917844
 20
144.1916394403455968
 30
0.0
 40
4.8293263841264302
 50
6.7530579383051341
 51
17.7940529833389007
  0
ARC
  5
84B0
  8
0
 10
3859.0272145036888105
 20
145.5070116448086992
 30
0.0
 40
0.5250483464202979
 50
17.7940529833389007
 51
49.451779703609958
  0
ARC
  5
84B1
  8
0
 10
3859.0895120496661548
 20
145.4341426027039859
 30
0.0
 40
0.5481632832409969
 50
59.4009528615342504
 51
81.9984822027122249
  0
ARC
  5
84B2
  8
0
 10
3811.8064685248959904
 20
138.6013834863784098
 30
0.0
 40
49.2236556426113196
 50
2.027159729856931
 51
3.0301079802385198
  0
ARC
  5
84B3
  8
0
 10
3831.4511578977339923
 20
139.7708133036086906
 30
0.0
 40
29.5448979200183999
 50
2.7792371724642
 51
7.5807601394239947
  0
ARC
  5
84B4
  8
0
 10
3843.4518694433559176
 20
141.3253327529814953
 30
0.0
 40
17.4440472930691506
 50
7.7195109586505
 51
12.8132177854748903
  0
ARC
  5
84B5
  8
0
 10
3848.0587812307358035
 20
142.3801163263472063
 30
0.0
 40
12.7179346538861306
 50
12.7824620288141197
 51
24.1075658576039196
  0
ARC
  5
84B6
  8
0
 10
3851.5871959715032062
 20
144.0635883554238035
 30
0.0
 40
8.8101686703912581
 50
23.4867713239909186
 51
33.2779551460808634
  0
ARC
  5
84B7
  8
0
 10
3855.5657223414018517
 20
146.7486084838454019
 30
0.0
 40
4.011247734693411
 50
32.3965479320290015
 51
47.0065499076676971
  0
ARC
  5
84B8
  8
0
 10
3856.8010817784829669
 20
148.0396777063104992
 30
0.0
 40
2.2246297951528589
 50
47.6036141008402396
 51
62.4930565341356399
  0
ARC
  5
84B9
  8
0
 10
3857.1751628414999686
 20
148.7214835576874066
 30
0.0
 40
1.4472257946995919
 50
63.1620183792783365
 51
72.4785714596604436
  0
ARC
  5
84BA
  8
0
 10
3858.0343881381818392
 20
149.3953267465543888
 30
0.0
 40
0.8450000001698263
 50
124.2307357470851059
 51
157.1555731260382913
  0
ARC
  5
84BB
  8
0
 10
3857.5928044618899548
 20
150.0443482077550073
 30
0.0
 40
0.06
 50
72.478571459660202
 51
124.2307357470851059
  0
LINE
  5
84BC
  8
0
 10
3857.2561476399678213
 20
149.7101584654637918
 30
0.0
 11
3859.1540126405420779
 21
145.9853886773553029
 31
0.0
  0
ARC
  5
84BD
  8
0
 10
3857.2701364423978703
 20
149.7172861163097934
 30
0.0
 40
0.0157
 50
157.1555731264020892
 51
207.0000000002114859
  0
ARC
  5
84BE
  8
0
 10
3859.1680014429721268
 20
145.9925163282011908
 30
0.0
 40
0.0157
 50
207.0000000002640093
 51
261.9984822027913083
  0
LINE
  5
84BF
  8
0
 10
3858.0059007804748035
 20
147.8091408242349871
 30
0.0
 11
3858.046832632207952
 21
147.8309046758766101
 31
0.0
  0
LINE
  5
84C0
  8
0
 10
3858.0574392755988811
 20
147.7097412326361905
 30
0.0
 11
3858.0984166999428453
 21
147.7297272578535114
 31
0.0
  0
ARC
  5
84C1
  8
0
 10
3858.5108017965731051
 20
148.009058451838996
 30
0.0
 40
0.5539246236167675
 50
202.8729522843009931
 51
212.1645567815889137
  0
ARC
  5
84C2
  8
0
 10
3858.0115813863890253
 20
147.7984571583635045
 30
0.0
 40
0.0121
 50
118.0000000217059011
 51
202.8729522842648976
  0
ARC
  5
84C3
  8
0
 10
3858.0521349847290367
 20
147.720616640599701
 30
0.0
 40
0.0121
 50
212.1645567816352127
 51
295.9999999649168103
  0
ARC
  5
84C4
  8
0
 10
3858.3450190958869825
 20
147.920672643005588
 30
0.0
 40
0.3164121593287283
 50
199.0011264345133952
 51
215.5306505701211108
  0
ARC
  5
84C5
  8
0
 10
3858.4228465894411784
 20
147.9621606614581992
 30
0.0
 40
0.3495607194484637
 50
196.529903348506906
 51
218.526153948290613
  0
ARC
  5
84C6
  8
0
 10
3857.8653261121471587
 20
147.6746273373640861
 30
0.0
 40
0.2395145577148438
 50
8.2639260707909372
 51
13.7947610062007495
  0
ARC
  5
84C7
  8
0
 10
3857.8653261121471587
 20
147.6746273373640861
 30
0.0
 40
0.2395145577148438
 50
40.2687484847759407
 51
45.7518827889344806
  0
ARC
  5
84C8
  8
0
 10
3858.3051725582840845
 20
147.8988167350291008
 30
0.0
 40
0.2777509323950271
 50
190.9205306676238934
 51
195.245443975035414
  0
ARC
  5
84C9
  8
0
 10
3858.3051725582840845
 20
147.8988167350291008
 30
0.0
 40
0.2777509323950271
 50
218.7588607905410925
 51
223.0952781921126871
  0
ARC
  5
84CA
  8
0
 10
3857.8031309327679992
 20
147.6429786171730996
 30
0.0
 40
0.4239433488915637
 50
13.4444134916119999
 51
40.5680460503500981
  0
ARC
  5
84CB
  8
0
 10
4289.9298840458232007
 20
367.8778173197928822
 30
0.0
 40
484.6001700167009858
 50
206.9940630869733127
 51
206.9965219238227974
  0
ARC
  5
84CC
  8
0
 10
4289.9298840458232007
 20
367.8778173197928822
 30
0.0
 40
484.6001700167009858
 50
207.0151161278529059
 51
207.0175700340539038
  0
ARC
  5
84CD
  8
0
 10
3858.1079617292539297
 20
147.8646983863563094
 30
0.0
 40
0.029639810475136
 50
169.1729037145215955
 51
212.1992058028178008
  0
ARC
  5
84CE
  8
0
 10
3858.076272575799976
 20
147.8558957795611093
 30
0.0
 40
0.0147703080299756
 50
42.3727196013764171
 51
78.9984268207380751
  0
ARC
  5
84CF
  8
0
 10
3858.1610938534181514
 20
147.7578340480357042
 30
0.0
 40
0.0284757613305153
 50
199.4579850893159971
 51
243.8880009733680936
  0
ARC
  5
84D0
  8
0
 10
3858.1311771896739629
 20
147.7407832952291926
 30
0.0
 40
0.0193587316411068
 50
333.8934819233405165
 51
7.5046791225726173
  0
LINE
  5
84D1
  8
0
 10
3858.2100277763997838
 20
147.7619866913186115
 30
0.0
 11
3858.1662224708879876
 21
147.7406214162737967
 31
0.0
  0
LINE
  5
84D2
  8
0
 10
3858.1385522425998715
 20
147.9022477977177914
 30
0.0
 11
3858.0944836918451983
 21
147.8788161335706945
 31
0.0
  0
ARC
  5
84D3
  8
0
 10
3858.1601729490648722
 20
147.7530247741132996
 30
0.0
 40
0.0138
 50
218.5261539483284139
 51
295.9999999944847104
  0
ARC
  5
84D4
  8
0
 10
3858.1009623994259528
 20
147.8666314567973927
 30
0.0
 40
0.0138
 50
118.0000000720743003
 51
196.5299033485007101
  0
LINE
  5
84D5
  8
0
 10
3858.0516076384228654
 20
147.8322763039903123
 30
0.0
 11
3858.0907399360680756
 21
147.8530833156613937
 31
0.0
  0
LINE
  5
84D6
  8
0
 10
3858.1026727051357739
 20
147.7329497577970017
 30
0.0
 11
3858.143038287321815
 21
147.7526373676550975
 31
0.0
  0
ARC
  5
84D7
  8
0
 10
3858.0973684142659295
 20
147.7438251657603985
 30
0.0
 40
0.0121
 50
215.5306505699412014
 51
295.9999999653530267
  0
ARC
  5
84D8
  8
0
 10
3858.0572882443179878
 20
147.8215926381089957
 30
0.0
 40
0.0121
 50
117.9999999209308044
 51
199.0011264347158999
  0
ARC
  5
84D9
  8
0
 10
3858.2074227590510418
 20
147.8491987599925892
 30
0.0
 40
0.1013280463635044
 50
193.6456995439430102
 51
220.5790659205341058
  0
ARC
  5
84DA
  8
0
 10
3858.0393558632081294
 20
147.7631487451394037
 30
0.0
 40
0.0933060668365767
 50
12.4630945113007598
 51
41.7616709531783528
  0
ARC
  5
84DB
  8
0
 10
3858.1551652266011843
 20
147.8225456705829117
 30
0.0
 40
0.1013280463635044
 50
193.6456995439430102
 51
220.5790659205341058
  0
ARC
  5
84DC
  8
0
 10
3857.8694481758830079
 20
147.6762589415120885
 30
0.0
 40
0.2236951781851292
 50
21.057071701042279
 51
33.1676937634282609
  0
ARC
  5
84DD
  8
0
 10
3858.336282521927842
 20
147.9153223915243132
 30
0.0
 40
0.355055235315031
 50
203.2862889704460088
 51
210.9081982071984953
  0
ARC
  5
84DE
  8
0
 10
3857.8653825831438553
 20
147.674379304323395
 30
0.0
 40
0.1762781563799143
 50
19.4038713966454992
 51
34.7906157809931003
  0
LINE
  5
84DF
  8
0
 10
3857.8988953779298754
 20
147.9553939471009016
 30
0.0
 11
3857.9567455209139553
 21
147.8446251962816973
 31
0.0
  0
LINE
  5
84E0
  8
0
 10
3857.9729641884478042
 20
147.839445460939487
 30
0.0
 11
3858.0132275712890078
 21
147.8599606791603094
 31
0.0
  0
LINE
  5
84E1
  8
0
 10
3857.9041274753749349
 20
147.9717765696462948
 30
0.0
 11
3857.9472493045068404
 21
147.9937482390157015
 31
0.0
  0
ARC
  5
84E2
  8
0
 10
3857.9096207604211486
 20
147.9609953907034026
 30
0.0
 40
0.0121
 50
116.9999999978364968
 51
207.5762870586844997
  0
ARC
  5
84E3
  8
0
 10
3857.9674709034047737
 20
147.8502266398841982
 30
0.0
 40
0.0121
 50
207.5762870586422082
 51
296.9999999782132818
  0
ARC
  5
84E4
  8
0
 10
3857.632904381465778
 20
147.7555642504719913
 30
0.0
 40
0.3943911041587889
 50
11.7954384321450192
 51
39.3520346089048729
  0
ARC
  5
84E5
  8
0
 10
3858.3423538606598413
 20
148.0950757230220063
 30
0.0
 40
0.4142502225190389
 50
192.4680503214775911
 51
194.5807242022004004
  0
ARC
  5
84E6
  8
0
 10
3858.3423538606598413
 20
148.0950757230220063
 30
0.0
 40
0.4142502225190389
 50
215.337635254536707
 51
218.6794227195806002
  0
ARC
  5
84E7
  8
0
 10
3858.1640502489681239
 20
148.2098850291683902
 30
0.0
 40
0.3164121593287283
 50
199.0011264345133952
 51
215.5306505701211108
  0
LINE
  5
84E8
  8
0
 10
3857.8706387915030973
 20
148.1214886901531997
 30
0.0
 11
3857.9133040040428568
 21
148.1441741859887031
 31
0.0
  0
LINE
  5
84E9
  8
0
 10
3857.9217038582169153
 20
148.0221621439598891
 30
0.0
 11
3857.9614782763628682
 21
148.0415614238507942
 31
0.0
  0
ARC
  5
84EA
  8
0
 10
3857.9163995673470708
 20
148.0330375519232859
 30
0.0
 40
0.0121
 50
215.5306505699412014
 51
295.9999999653530267
  0
ARC
  5
84EB
  8
0
 10
3857.8763193973991292
 20
148.1108050242717979
 30
0.0
 40
0.0121
 50
117.9999999209308044
 51
199.0011264347158999
  0
ARC
  5
84EC
  8
0
 10
3857.9741963796818709
 20
148.1117580567457992
 30
0.0
 40
0.1013280463635044
 50
193.6456995439430102
 51
220.5790659205341058
  0
ARC
  5
84ED
  8
0
 10
3857.6884793289650588
 20
147.9654713276748907
 30
0.0
 40
0.2236951781851292
 50
21.057071701042279
 51
33.1676937634282609
  0
ARC
  5
84EE
  8
0
 10
3857.6656441504778741
 20
147.9652890007606061
 30
0.0
 40
0.3055082855870541
 50
9.7719276893641922
 51
40.4743019038383025
  0
ARC
  5
84EF
  8
0
 10
3858.4403307246939221
 20
148.3285598916176014
 30
0.0
 40
0.5668230796661151
 50
196.9197178564978969
 51
199.41420387974199
  0
ARC
  5
84F0
  8
0
 10
3858.4403307246939221
 20
148.3285598916176014
 30
0.0
 40
0.5668230796661151
 50
210.8615639572290945
 51
213.3265117367020025
  0
LINE
  5
84F1
  8
0
 10
3857.7035915639498853
 20
148.3448805242402955
 30
0.0
 11
3857.8300072944271051
 21
148.092654817376598
 31
0.0
  0
LINE
  5
84F2
  8
0
 10
3857.8463179476320875
 20
148.0872953121983926
 30
0.0
 11
3857.8679585569611845
 21
148.098321753421402
 31
0.0
  0
LINE
  5
84F3
  8
0
 10
3857.7089156470560738
 20
148.3610833769438102
 30
0.0
 11
3857.7500340229398716
 21
148.382034235881207
 31
0.0
  0
LINE
  5
84F4
  8
0
 10
3857.7663178423290447
 20
148.2465540440327061
 30
0.0
 11
3857.8142183498162012
 21
148.2709605716675867
 31
0.0
  0
ARC
  5
84F5
  8
0
 10
3857.7718111273798058
 20
148.2357728650924003
 30
0.0
 40
0.0121
 50
117.0000000251187942
 51
206.6200661548492121
  0
ARC
  5
84F6
  8
0
 10
3857.8408246625749598
 20
148.0980764911356005
 30
0.0
 40
0.0121
 50
206.6200661549088977
 51
297.0000000570511247
  0
ARC
  5
84F7
  8
0
 10
3857.7144089320991043
 20
148.350302197999298
 30
0.0
 40
0.0121
 50
116.9999999806424995
 51
206.6200661548855919
  0
ARC
  5
84F8
  8
0
 10
3857.3758622635641586
 20
148.0014821144434052
 30
0.0
 40
0.5216799609154545
 50
15.7945107479623807
 51
32.7937991485681408
  0
ARC
  5
84F9
  8
0
 10
3858.0832716340551087
 20
148.3208028175515096
 30
0.0
 40
0.2713746361593393
 50
187.7872310894848908
 51
192.347086039612492
  0
ARC
  5
84FA
  8
0
 10
3858.0832716340551087
 20
148.3208028175515096
 30
0.0
 40
0.2713746361593393
 50
216.4513828807666869
 51
220.8010788070608044
  0
LINE
  5
84FB
  8
0
 10
3857.7848849099727886
 20
148.2450738541811859
 30
0.0
 11
3857.8252050174492069
 21
148.2665124356358888
 31
0.0
  0
LINE
  5
84FC
  8
0
 10
3857.8341583677511153
 20
148.1445313600289921
 30
0.0
 11
3857.871924495739222
 21
148.1629511313797138
 31
0.0
  0
ARC
  5
84FD
  8
0
 10
3858.5631624395609833
 20
148.5601475059260963
 30
0.0
 40
0.8505651671059704
 50
202.8622057578274109
 51
208.862953551589186
  0
ARC
  5
84FE
  8
0
 10
3857.8288540768780877
 20
148.1554067679907121
 30
0.0
 40
0.0121
 50
208.8629535516703015
 51
295.9999999844279159
  0
ARC
  5
84FF
  8
0
 10
3857.7905655158870104
 20
148.2343901883101864
 30
0.0
 40
0.0121
 50
118.0000000263654982
 51
202.8622057577632063
  0
ARC
  5
8500
  8
0
 10
3857.9418460017541292
 20
148.3082987445077947
 30
0.0
 40
0.1397965557440759
 50
185.3295862172176101
 51
196.8280701271318947
  0
ARC
  5
8501
  8
0
 10
3857.3899287854937938
 20
148.0844016810713129
 30
0.0
 40
0.4634931003293164
 50
22.6078217413043312
 51
27.0680903902206005
  0
ARC
  5
8502
  8
0
 10
3858.1662164037020375
 20
148.4104770797113133
 30
0.0
 40
0.3495607194484637
 50
196.529903348506906
 51
218.526153948290613
  0
ARC
  5
8503
  8
0
 10
3857.5465007470288583
 20
148.0912950354261
 30
0.0
 40
0.4239433488915637
 50
13.4444134916119999
 51
40.5680460503500981
  0
ARC
  5
8504
  8
0
 10
3857.9033568474351341
 20
148.357660429034496
 30
0.0
 40
0.036041995030799
 50
164.9778677445418964
 51
201.9520027525877026
  0
ARC
  5
8505
  8
0
 10
3857.962426268497893
 20
148.2130175273736086
 30
0.0
 40
0.0234330356288299
 50
202.2852462355780006
 51
261.162842036165614
  0
LINE
  5
8506
  8
0
 10
3857.9533975906601881
 20
148.2103031095716119
 30
0.0
 11
3857.9095922851488467
 21
148.1889378345267971
 31
0.0
  0
LINE
  5
8507
  8
0
 10
3857.8819220568598212
 20
148.3505642159707918
 30
0.0
 11
3857.8378535061060575
 21
148.3271325518236949
 31
0.0
  0
ARC
  5
8508
  8
0
 10
3857.9035427633239124
 20
148.2013411923663
 30
0.0
 40
0.0138
 50
218.5261539483284139
 51
295.9999999944847104
  0
ARC
  5
8509
  8
0
 10
3857.8443322136868119
 20
148.3149478750503931
 30
0.0
 40
0.0138
 50
118.0000000720743003
 51
196.5299033485007101
  0
ARC
  5
850A
  8
0
 10
3857.9507925733119009
 20
148.2975151782455896
 30
0.0
 40
0.1013280463635044
 50
193.6456995439430102
 51
220.5790659205341058
  0
ARC
  5
850B
  8
0
 10
3857.7827256774680791
 20
148.2114651633924041
 30
0.0
 40
0.0933060668365767
 50
12.4630945113007598
 51
41.7616709531783528
  0
ARC
  5
850C
  8
0
 10
3867.1392287034877882
 20
152.4753414311794018
 30
0.0
 40
10.24266276630817
 50
203.2659221972361934
 51
204.2728963030519083
  0
ARC
  5
850D
  8
0
 10
3869.0072614359219187
 20
153.3517919578646058
 30
0.0
 40
12.3062420696088104
 50
205.6695776790280945
 51
205.8495203560734126
  0
ARC
  5
850E
  8
0
 10
3869.0072614371611053
 20
153.3517919584554079
 30
0.0
 40
12.3062420709818792
 50
206.5440523452182049
 51
206.7383751031397878
  0
ARC
  5
850F
  8
0
 10
3857.9855623446092068
 20
148.6482107391202874
 30
0.0
 40
0.3259616659369933
 50
197.1010272181906089
 51
213.1341188836844083
  0
ARC
  5
8510
  8
0
 10
3857.8426817879799273
 20
148.5780529936442065
 30
0.0
 40
0.1656063760199196
 50
196.0177296101375077
 51
212.4214559842347967
  0
ARC
  5
8511
  8
0
 10
3857.5269259208771473
 20
148.4360168763602132
 30
0.0
 40
0.1838430650522147
 50
16.83611892570487
 51
31.6030666686658108
  0
LINE
  5
8512
  8
0
 10
3857.7662071321688018
 20
148.484393207704187
 30
0.0
 11
3857.7280409568288633
 21
148.4657783202540031
 31
0.0
  0
LINE
  5
8513
  8
0
 10
3857.7242486353188724
 20
148.5902084782030101
 30
0.0
 11
3857.6798919040252258
 21
148.5665985393198127
 31
0.0
  0
ARC
  5
8514
  8
0
 10
3857.4527646231790641
 20
148.4213315812463065
 30
0.0
 40
0.3197232790599012
 50
7.6180781437900631
 51
35.7843637462643613
  0
ARC
  5
8515
  8
0
 10
3858.2219313595619496
 20
148.7274391875907895
 30
0.0
 40
0.5235392861377106
 50
193.1553937920577937
 51
195.593870786494989
  0
ARC
  5
8516
  8
0
 10
3858.2219313595619496
 20
148.7274391875907895
 30
0.0
 40
0.5235392861377106
 50
208.0438763594864042
 51
210.2470480979920922
  0
ARC
  5
8517
  8
0
 10
3857.685577211312193
 20
148.5559173745400869
 30
0.0
 40
0.0121
 50
118.0252161201152035
 51
197.1010272188993895
  0
ARC
  5
8518
  8
0
 10
3857.7227366659631116
 20
148.4766537282189915
 30
0.0
 40
0.0121
 50
213.1341188829941018
 51
295.9999999472923946
  0
LINE
  5
8519
  8
0
 10
3857.6428843462990699
 20
148.498582083281093
 30
0.0
 11
3857.680293303299095
 21
148.4191521802594025
 31
0.0
  0
LINE
  5
851A
  8
0
 10
3857.6965442975488259
 20
148.4134323212830111
 30
0.0
 11
3857.7321714134509421
 21
148.4308088267561914
 31
0.0
  0
LINE
  5
851B
  8
0
 10
3857.648150443807026
 20
148.5144212981624889
 30
0.0
 11
3857.653586831388111
 21
148.5173118766824985
 31
0.0
  0
LINE
  5
851C
  8
0
 10
3857.6224737015340907
 20
148.6111789643688041
 30
0.0
 11
3857.6663708338369361
 21
148.6345194836459882
 31
0.0
  0
LINE
  5
851D
  8
0
 10
3857.6707394552618098
 20
148.5100745425515072
 30
0.0
 11
3857.6867817685601949
 21
148.517898901452412
 31
0.0
  0
ARC
  5
851E
  8
0
 10
3857.3417087436919246
 20
148.4658025581971117
 30
0.0
 40
0.3658836887727829
 50
18.2218754943394501
 51
31.5226309163197413
  0
ARC
  5
851F
  8
0
 10
3857.6967847073478879
 20
148.652858072230913
 30
0.0
 40
0.0433921565218915
 50
174.3906292864778038
 51
210.5275237093187002
  0
ARC
  5
8520
  8
0
 10
3858.1401892988919826
 20
148.7919639555651941
 30
0.0
 40
0.55876267396373
 50
200.5026132015171925
 51
209.7199405794777931
  0
ARC
  5
8521
  8
0
 10
3857.6281543074451292
 20
148.6004952984960994
 30
0.0
 40
0.0121
 50
118.0000000089872003
 51
200.5026132014349116
  0
ARC
  5
8522
  8
0
 10
3857.6654351644360759
 20
148.520949950535794
 30
0.0
 40
0.0121
 50
209.7199405795473126
 51
295.9999997400781808
  0
ARC
  5
8523
  8
0
 10
3857.6538310496689519
 20
148.5037376322636078
 30
0.0
 40
0.0121
 50
117.9999997442610038
 51
205.2189435165693965
  0
ARC
  5
8524
  8
0
 10
3857.691240006668977
 20
148.4243077292418036
 30
0.0
 40
0.0121
 50
205.2189435165385021
 51
296.0000000142592853
  0
ARC
  5
8525
  8
0
 10
3857.8818006023020644
 20
148.4938174520067093
 30
0.0
 40
0.1646634540898826
 50
202.8802982952830973
 51
209.8155212869951924
  0
ARC
  5
8526
  8
0
 10
3857.0615586513122253
 20
148.1797670548891972
 30
0.0
 40
0.7160610644109895
 50
18.919757178701289
 51
23.5136304047553288
  0
LINE
  5
8527
  8
0
 10
3857.5579457445051048
 20
148.7025012497244063
 30
0.0
 11
3857.523006440781046
 21
148.7832412167497864
 31
0.0
  0
LINE
  5
8528
  8
0
 10
3857.5743548663331239
 20
148.6964313312338959
 30
0.0
 11
3857.6089311773921509
 21
148.7132953248571141
 31
0.0
  0
LINE
  5
8529
  8
0
 10
3857.5284306658340938
 20
148.7987303720987882
 30
0.0
 11
3857.5670753575100207
 21
148.8192781191768859
 31
0.0
  0
ARC
  5
852A
  8
0
 10
3862.4468351053219521
 20
150.6851867807253029
 30
0.0
 40
5.2243344389120159
 50
199.6344835656711894
 51
203.2385272121530875
  0
ARC
  5
852B
  8
0
 10
3857.569050575475103
 20
148.7073067392032044
 30
0.0
 40
0.0121
 50
203.4000000109500945
 51
295.9999999017813934
  0
ARC
  5
852C
  8
0
 10
3857.5341112717510441
 20
148.7880467062286129
 30
0.0
 40
0.0121
 50
118.0000000348955069
 51
203.4000000109649022
  0
ARC
  5
852D
  8
0
 10
3857.0999071548790198
 20
148.5282649394349903
 30
0.0
 40
0.6454969641013417
 50
16.1953302349070398
 51
33.9996467311771369
  0
ARC
  5
852E
  8
0
 10
3858.0121950696830027
 20
148.9555630626551874
 30
0.0
 40
0.3829353447137115
 50
189.9769189564123906
 51
193.331641507460688
  0
ARC
  5
852F
  8
0
 10
3858.0121950696830027
 20
148.9555630626551874
 30
0.0
 40
0.3829353447137115
 50
217.0189595248982073
 51
220.218058009661803
  0
LINE
  5
8530
  8
0
 10
3857.6692209590510174
 20
148.7068499709118043
 30
0.0
 11
3857.7135685907460356
 21
148.7284797560508878
 31
0.0
  0
LINE
  5
8531
  8
0
 10
3857.6046681157708917
 20
148.8487005501459066
 30
0.0
 11
3857.6468253524549255
 21
148.8711159505517969
 31
0.0
  0
ARC
  5
8532
  8
0
 10
3857.9312286142890116
 20
148.908837274371308
 30
0.0
 40
0.3407022415135228
 50
192.4460425909668118
 51
215.5624779076254924
  0
ARC
  5
8533
  8
0
 10
3857.7604965885961974
 20
148.8275783465649909
 30
0.0
 40
0.1471599261599447
 50
193.5194450906433019
 51
212.1816281425512898
  0
ARC
  5
8534
  8
0
 10
3857.5317386087681371
 20
148.7311798330030967
 30
0.0
 40
0.1057537643360936
 50
9.8110612087837801
 51
35.8900120244166132
  0
ARC
  5
8535
  8
0
 10
3857.6103487216901158
 20
148.8380168842774935
 30
0.0
 40
0.0121
 50
118.0000000506248057
 51
192.4460425916198858
  0
ARC
  5
8536
  8
0
 10
3857.6639166681870847
 20
148.7177253788781002
 30
0.0
 40
0.0121
 50
215.5624779070469117
 51
295.9999999327698106
  0
ARC
  5
8537
  8
0
 10
3856.9581177435161408
 20
148.7516229886016106
 30
0.0
 40
0.6454969641013417
 50
16.1953302349070398
 51
33.9996467311771369
  0
ARC
  5
8538
  8
0
 10
3857.8704056583210331
 20
149.178921111821694
 30
0.0
 40
0.3829353447137115
 50
189.9769189564123906
 51
193.331641507460688
  0
ARC
  5
8539
  8
0
 10
3857.8704056583210331
 20
149.178921111821694
 30
0.0
 40
0.3829353447137115
 50
217.0189595248976104
 51
220.218058009661803
  0
LINE
  5
853A
  8
0
 10
3857.5274315476890479
 20
148.9302080200783109
 30
0.0
 11
3857.5717791793840661
 21
148.9518378052173944
 31
0.0
  0
LINE
  5
853B
  8
0
 10
3857.4628787044089222
 20
149.0720585993124132
 30
0.0
 11
3857.5050359410929559
 21
149.0944739997183888
 31
0.0
  0
ARC
  5
853C
  8
0
 10
3857.7894392029270421
 20
149.1321953235378999
 30
0.0
 40
0.3407022415135228
 50
192.4460425909668118
 51
215.5624779076254924
  0
ARC
  5
853D
  8
0
 10
3857.6187071772337731
 20
149.0509363957316111
 30
0.0
 40
0.1471599261599447
 50
193.5194450906433019
 51
212.1816281425512898
  0
ARC
  5
853E
  8
0
 10
3857.3899491974061675
 20
148.9545378821696033
 30
0.0
 40
0.1057537643360936
 50
9.8110612087837801
 51
35.8900120244166132
  0
ARC
  5
853F
  8
0
 10
3857.4685593103281462
 20
149.0613749334440001
 30
0.0
 40
0.0121
 50
118.0000000506248057
 51
192.4460425916198858
  0
ARC
  5
8540
  8
0
 10
3857.5221272568251152
 20
148.9410834280446068
 30
0.0
 40
0.0121
 50
215.5624779070469117
 51
295.9999999327698106
  0
ARC
  5
8541
  8
0
 10
3859.3959555786218516
 20
149.864683648067313
 30
0.0
 40
2.1346388027849779
 50
203.7854774777316891
 51
206.1481521198707867
  0
LINE
  5
8542
  8
0
 10
3857.4959469346158585
 20
148.9184187012714062
 30
0.0
 11
3857.5186526763900474
 21
148.9294930315546992
 31
0.0
  0
LINE
  5
8543
  8
0
 10
3857.4480205333597951
 20
149.0193190313896991
 30
0.0
 11
3857.4649568288350565
 21
149.0283242193945057
 31
0.0
  0
ARC
  5
8544
  8
0
 10
3857.453701139252189
 20
149.0086353655065921
 30
0.0
 40
0.0121
 50
117.9999999035167946
 51
203.7854774777451041
  0
ARC
  5
8545
  8
0
 10
3857.4906426437109985
 20
148.9292941092178921
 30
0.0
 40
0.0121
 50
206.1481521198998905
 51
296.0000001480992751
  0
LINE
  5
8546
  8
0
 10
3857.3607805974629628
 20
149.3033894509300978
 30
0.0
 11
3857.4020538648519505
 21
149.3235197684319928
 31
0.0
  0
LINE
  5
8547
  8
0
 10
3857.30356917754807
 20
149.4489854405713061
 30
0.0
 11
3857.3446582225751627
 21
149.4708328733545102
 31
0.0
  0
ARC
  5
8548
  8
0
 10
3846.6361269085900858
 20
145.2137727954082038
 30
0.0
 40
11.5236801157379993
 50
20.82787334531276
 51
21.7935655087754689
  0
ARC
  5
8549
  8
0
 10
3857.6748810104509175
 20
149.5199825166704102
 30
0.0
 40
0.3398460260629991
 50
184.7068890601279918
 51
188.8232731671504894
  0
ARC
  5
854A
  8
0
 10
3857.6748810104509175
 20
149.5199825166704102
 30
0.0
 40
0.3398460260629991
 50
215.6520362750370055
 51
217.9145497939591962
  0
ARC
  5
854B
  8
0
 10
3858.1248835127798884
 20
149.6716426902733872
 30
0.0
 40
0.8604550926882337
 50
195.9650533799969025
 51
204.9141446432830946
  0
ARC
  5
854C
  8
0
 10
3857.3554763065958468
 20
149.3142648588946031
 30
0.0
 40
0.0121
 50
204.9141446434607019
 51
295.9999999550611847
  0
ARC
  5
854D
  8
0
 10
3857.3092497834581991
 20
149.4383017746980897
 30
0.0
 40
0.0121
 50
118.0000000044988013
 51
195.9650533797648961
  0
LINE
  5
854E
  8
0
 10
3857.3794420954809539
 20
149.2121542552999074
 30
0.0
 11
3857.4131797471991376
 21
149.2287552380101943
 31
0.0
  0
LINE
  5
854F
  8
0
 10
3857.3210859865980638
 20
149.3571191683639086
 30
0.0
 11
3857.3234785862191529
 21
149.3583806430729055
 31
0.0
  0
LINE
  5
8550
  8
0
 10
3857.3628035515039301
 20
149.2186748293846108
 30
0.0
 11
3857.3154329419021451
 21
149.3420794864352956
 31
0.0
  0
ARC
  5
8551
  8
0
 10
3857.3740998746648074
 20
149.2230110815744979
 30
0.0
 40
0.0121
 50
201.0000000020500011
 51
296.1999999829413923
  0
ARC
  5
8552
  8
0
 10
3857.326729265062113
 20
149.3464157386252111
 30
0.0
 40
0.0121
 50
117.8000006234946966
 51
201.0000000020453967
  0
ARC
  5
8553
  8
0
 10
3863.0937389881501076
 20
151.3121810886102026
 30
0.0
 40
6.0505715899333987
 50
199.2833243455517902
 51
201.6841590692800992
  0
ARC
  5
8554
  8
0
 10
4538.0200574231557766
 20
371.5693629430105034
 30
0.0
 40
716.0083985638159447
 50
198.0539061382779948
 51
198.0712673565228954
  0
ARC
  5
8555
  8
0
 10
3857.2811365738580207
 20
149.6755808899501119
 30
0.0
 40
0.0179455039449843
 50
138.4669344545945933
 51
198.0539061382779948
  0
LINE
  5
8556
  8
0
 10
3858.1121491872481784
 20
147.5368582537236932
 30
0.0
 11
3858.0565391765690038
 21
147.6487684047993127
 31
0.0
  0
LINE
  5
8557
  8
0
 10
3858.0618818239508983
 20
147.6649341387366121
 30
0.0
 11
3858.1021452673248859
 21
147.6854492381544901
 31
0.0
  0
LINE
  5
8558
  8
0
 10
3858.128478341086975
 20
147.5314615973520915
 30
0.0
 11
3858.1716002350649433
 21
147.5534331394547962
 31
0.0
  0
ARC
  5
8559
  8
0
 10
3858.1229850878598882
 20
147.5422427925074942
 30
0.0
 40
0.0121
 50
206.4235438384361032
 51
296.9998308992711031
  0
ARC
  5
855A
  8
0
 10
3858.0673750771820778
 20
147.6541529435831137
 30
0.0
 40
0.0121
 50
116.9998309189170982
 51
206.4235438384681913
  0
ARC
  5
855B
  8
0
 10
3857.7941376932781168
 20
147.4391249044614938
 30
0.0
 40
0.3943911041587889
 50
14.6477962882048303
 51
42.2043924649724929
  0
ARC
  5
855C
  8
0
 10
3858.4858132904651029
 20
147.8135197118195947
 30
0.0
 40
0.4142502225190389
 50
219.4191066949101128
 51
221.5317805756363896
  0
ARC
  5
855D
  8
0
 10
3858.4858132904651029
 20
147.8135197118195947
 30
0.0
 40
0.4142502225190389
 50
195.3204081775363932
 51
198.6621956425715041
  0
ARC
  5
855E
  8
0
 10
3858.4738911119561635
 20
147.6017858780097924
 30
0.0
 40
0.3164121593287283
 50
198.4691803269824959
 51
214.9987044626033992
  0
LINE
  5
855F
  8
0
 10
3858.2299134966619931
 20
147.4163698070817077
 30
0.0
 11
3858.27334449355385
 21
147.4375523610193
 31
0.0
  0
LINE
  5
8560
  8
0
 10
3858.1795722201609351
 20
147.5160651414628887
 30
0.0
 11
3858.2186454449929442
 21
147.5368405957383118
 31
0.0
  0
ARC
  5
8561
  8
0
 10
3858.1852527945447946
 20
147.5053814588270882
 30
0.0
 40
0.0121
 50
117.9998309317613945
 51
198.4691803271678907
  0
ARC
  5
8562
  8
0
 10
3858.2246092378682079
 20
147.4272452306896071
 30
0.0
 40
0.0121
 50
214.9987044623952954
 51
295.9998309761656969
  0
ARC
  5
8563
  8
0
 10
3858.2829111361111245
 20
147.5058690222097084
 30
0.0
 40
0.1013280463635044
 50
193.4207649765689041
 51
220.3541313531626997
  0
ARC
  5
8564
  8
0
 10
3857.9966219890629873
 20
147.3607050995040026
 30
0.0
 40
0.2236951781851292
 50
20.8321371336818402
 51
32.9427591960654311
  0
ARC
  5
8565
  8
0
 10
3857.9830522481352091
 20
147.3423382611595969
 30
0.0
 40
0.3055082855870541
 50
13.5255289932799698
 51
44.2279032077396934
  0
ARC
  5
8566
  8
0
 10
3858.7322951354180987
 20
147.7555453814667032
 30
0.0
 40
0.5668230796661151
 50
214.5856270173649136
 51
217.0801130406075004
  0
ARC
  5
8567
  8
0
 10
3858.7322951354180987
 20
147.7555453814667032
 30
0.0
 40
0.5668230796661151
 50
200.6733191604078002
 51
203.1382669398848009
  0
LINE
  5
8568
  8
0
 10
3858.3124526036481257
 20
147.1499190919620901
 30
0.0
 11
3858.1827037618149916
 21
147.4004464999586048
 31
0.0
  0
LINE
  5
8569
  8
0
 10
3858.1879550406979433
 20
147.4167923181960873
 30
0.0
 11
3858.2095956825919529
 21
147.4278186955056924
 31
0.0
  0
LINE
  5
856A
  8
0
 10
3858.3286903889779751
 20
147.1447025198849019
 30
0.0
 11
3858.3698088266819468
 21
147.1656532574930907
 31
0.0
  0
LINE
  5
856B
  8
0
 10
3858.2697747118750158
 20
147.2584606980992987
 30
0.0
 11
3858.3176752914168901
 21
147.2828670843184113
 31
0.0
  0
ARC
  5
856C
  8
0
 10
3858.2642814586520217
 20
147.2692418932572025
 30
0.0
 40
0.0121
 50
207.3797647422557873
 51
296.9998308720117279
  0
ARC
  5
856D
  8
0
 10
3858.1934482939141162
 20
147.406011123035114
 30
0.0
 40
0.0121
 50
116.9998308400796958
 51
207.3797647421961017
  0
ARC
  5
856E
  8
0
 10
3858.3231971357467955
 20
147.155483715038514
 30
0.0
 40
0.0121
 50
207.3797647422327088
 51
296.9998309164647026
  0
ARC
  5
856F
  8
0
 10
3857.842002817966204
 20
147.0866264278197946
 30
0.0
 40
0.5216799609154545
 50
21.20603174854093
 51
38.2053201491469778
  0
ARC
  5
8570
  8
0
 10
3858.5161446238921599
 20
147.4712386408268969
 30
0.0
 40
0.2713746361593393
 50
221.6527448574981918
 51
226.212599807625196
  0
ARC
  5
8571
  8
0
 10
3858.5161446238921599
 20
147.4712386408268969
 30
0.0
 40
0.2713746361593393
 50
193.1987520900607933
 51
197.5484480163443095
  0
LINE
  5
8572
  8
0
 10
3858.2794907085699379
 20
147.2743517764486967
 30
0.0
 11
3858.3205345089299954
 21
147.2943700254664918
 31
0.0
  0
LINE
  5
8573
  8
0
 10
3858.2271126260288838
 20
147.3733123910438962
 30
0.0
 11
3858.2642129653718257
 21
147.3930388509490115
 31
0.0
  0
ARC
  5
8574
  8
0
 10
3858.9918520131241166
 20
147.7187937758812097
 30
0.0
 40
0.8505651671059704
 50
205.1368773455230041
 51
211.1376251392836991
  0
ARC
  5
8575
  8
0
 10
3858.2327932004091053
 20
147.3626287084061914
 30
0.0
 40
0.0121
 50
117.9998309126729055
 51
205.1368773454381937
  0
ARC
  5
8576
  8
0
 10
3858.274186449797071
 20
147.2852272000664016
 30
0.0
 40
0.0121
 50
211.1376251393579935
 51
295.99983087075708
  0
ARC
  5
8577
  8
0
 10
3858.4229003993427796
 20
147.3641728857836029
 30
0.0
 40
0.1397965557440759
 50
217.1717607699816028
 51
228.6702446799008044
  0
ARC
  5
8578
  8
0
 10
3857.9173541404138632
 20
147.0492673623303972
 30
0.0
 40
0.4634931003293164
 50
26.931740506890641
 51
31.3920091558023202
  0
ARC
  5
8579
  8
0
 10
3858.6374463807737811
 20
147.4856328022474941
 30
0.0
 40
0.3495607194484637
 50
195.4736769488160064
 51
217.4699275486011913
  0
ARC
  5
857A
  8
0
 10
3858.0149620330407743
 20
147.1718846399463132
 30
0.0
 40
0.4239433488915637
 50
13.4317848467592
 51
40.5554174055009327
  0
ARC
  5
857B
  8
0
 10
3858.4402113061801174
 20
147.3040203845559972
 30
0.0
 40
0.036041995030799
 50
212.0478281445240896
 51
249.0219631525829982
  0
ARC
  5
857C
  8
0
 10
3858.3579132671511616
 20
147.4368277573840089
 30
0.0
 40
0.0234330356288299
 50
152.8369888609364011
 51
211.7145846615325127
  0
LINE
  5
857D
  8
0
 10
3858.3504103164900698
 20
147.4311189204738923
 30
0.0
 11
3858.307377265805826
 21
147.4082380044617082
 31
0.0
  0
LINE
  5
857E
  8
0
 10
3858.4218712565598253
 20
147.2908503782250875
 30
0.0
 11
3858.377011733260133
 21
147.268971090767792
 31
0.0
  0
ARC
  5
857F
  8
0
 10
3858.3138559374119723
 20
147.3960533085596865
 30
0.0
 40
0.0138
 50
117.9998309026367025
 51
195.4736769487830941
  0
ARC
  5
8580
  8
0
 10
3858.3709622480578219
 20
147.2813744664688045
 30
0.0
 40
0.0138
 50
217.4699275486049999
 51
295.9998308250436025
  0
ARC
  5
8581
  8
0
 10
3858.4194350138668597
 20
147.3777492456596008
 30
0.0
 40
0.1013280463635044
 50
193.4207649765689041
 51
220.3541313531626997
  0
ARC
  5
8582
  8
0
 10
3858.2510315946888113
 20
147.2923596974461873
 30
0.0
 40
0.0933060668365767
 50
12.2381599439373208
 51
41.5367363858171714
  0
ARC
  5
8583
  8
0
 10
3867.2002093928390423
 20
152.3556596530117133
 30
0.0
 40
10.24266276630817
 50
209.7269345940626977
 51
210.7339086998742914
  0
ARC
  5
8584
  8
0
 10
3869.0072777944801601
 20
153.3517598522678895
 30
0.0
 40
12.3062420696088104
 50
208.1503105410353953
 51
208.330253218082305
  0
ARC
  5
8585
  8
0
 10
3858.7235903158962174
 20
147.1997440051173101
 30
0.0
 40
0.3259616659369933
 50
200.8657120134207048
 51
216.8988036789266118
  0
ARC
  5
8586
  8
0
 10
3858.5828482040428753
 20
147.1253893101500125
 30
0.0
 40
0.1656063760199196
 50
201.5783749128787008
 51
217.9821012869790877
  0
ARC
  5
8587
  8
0
 10
3858.2823414218000835
 20
146.9534250695384117
 30
0.0
 40
0.1838430650522147
 50
22.39676422844461
 51
37.1637119714130506
  0
LINE
  5
8588
  8
0
 10
3858.4621251505468535
 20
147.1185722111704024
 30
0.0
 11
3858.4246318164127842
 21
147.0986367936847898
 31
0.0
  0
LINE
  5
8589
  8
0
 10
3858.5230686332351979
 20
147.0224302388247111
 30
0.0
 11
3858.4778954939938558
 21
147.0004225966000035
 31
0.0
  0
ARC
  5
858A
  8
0
 10
3858.2268696998071391
 20
146.9020592829888017
 30
0.0
 40
0.3197232790599012
 50
18.2154671508526604
 51
46.3817527533223881
  0
ARC
  5
858B
  8
0
 10
3858.9266221251759816
 20
147.3444006423571864
 30
0.0
 40
0.5235392861377106
 50
218.4059601106100956
 51
220.8444371050478878
  0
ARC
  5
858C
  8
0
 10
3858.9266221251759816
 20
147.3444006423571864
 30
0.0
 40
0.5235392861377106
 50
203.7527827991222864
 51
205.9559545376228868
  0
ARC
  5
858D
  8
0
 10
3858.4725960220498564
 20
147.0113003535890073
 30
0.0
 40
0.0121
 50
216.898803678223203
 51
295.974614776982321
  0
ARC
  5
858E
  8
0
 10
3858.430312390799827
 20
147.0879531110508083
 30
0.0
 40
0.0121
 50
117.9998309498214013
 51
200.8657120141236874
  0
LINE
  5
858F
  8
0
 10
3858.4011165581368914
 20
147.0104621498574886
 30
0.0
 11
3858.3588450770771487
 21
147.0874144821605967
 31
0.0
  0
LINE
  5
8590
  8
0
 10
3858.3637697574408776
 20
147.1039238469010115
 30
0.0
 11
3858.3987687939038551
 21
147.1225330321769889
 31
0.0
  0
LINE
  5
8591
  8
0
 10
3858.4170260717019119
 20
147.0054124083656006
 30
0.0
 11
3858.4225600352610854
 21
147.0081114825491966
 31
0.0
  0
LINE
  5
8592
  8
0
 10
3858.4802120284011835
 20
146.9277665717766865
 30
0.0
 11
3858.5248970564630326
 21
146.9495607529188135
 31
0.0
  0
LINE
  5
8593
  8
0
 10
3858.4267870218181997
 20
147.0262422325542957
 30
0.0
 11
3858.4425465210388211
 21
147.0346216473575964
 31
0.0
  0
ARC
  5
8594
  8
0
 10
3858.1975701254541491
 20
146.7860738912262093
 30
0.0
 40
0.3658836887727829
 50
22.4771999807939586
 51
35.7779554027661391
  0
ARC
  5
8595
  8
0
 10
3858.5576101534029476
 20
146.963386844986303
 30
0.0
 40
0.0433921565218915
 50
203.4723071877999985
 51
239.6092016106221934
  0
ARC
  5
8596
  8
0
 10
3858.9307766741558225
 20
147.2403432068348934
 30
0.0
 40
0.55876267396373
 50
204.2798903176320948
 51
213.4972176955971008
  0
ARC
  5
8597
  8
0
 10
3858.4749077696242239
 20
146.9386419953929135
 30
0.0
 40
0.0121
 50
213.4972176956698036
 51
295.9998308881225739
  0
ARC
  5
8598
  8
0
 10
3858.432467596243896
 20
147.0155585499406925
 30
0.0
 40
0.0121
 50
117.9998311570362972
 51
204.2798903175591079
  0
ARC
  5
8599
  8
0
 10
3858.4117218128758395
 20
147.016287831957186
 30
0.0
 40
0.0121
 50
208.7808873805464032
 51
295.9998311528482873
  0
ARC
  5
859A
  8
0
 10
3858.3694503318151874
 20
147.093240164260294
 30
0.0
 40
0.0121
 50
117.9998308828378981
 51
208.7808873805749954
  0
ARC
  5
859B
  8
0
 10
3858.5376939210100318
 20
147.2065496380986076
 30
0.0
 40
0.1646634540898826
 50
204.1843096101177082
 51
211.119532601833896
  0
ARC
  5
859C
  8
0
 10
3857.8014942768431865
 20
146.7275563249704078
 30
0.0
 40
0.7160610644109895
 50
30.486200492361931
 51
35.0800737184001221
  0
LINE
  5
859D
  8
0
 10
3858.5161644152149165
 20
146.8218843592796929
 30
0.0
 11
3858.5609473897170574
 21
146.7461599747342973
 31
0.0
  0
LINE
  5
859E
  8
0
 10
3858.520898837526147
 20
146.8387274122989936
 30
0.0
 11
3858.5548655939828677
 21
146.8567877285537122
 31
0.0
  0
LINE
  5
859F
  8
0
 10
3858.5766666451950186
 20
146.7414439215056063
 30
0.0
 11
3858.6160049582517786
 21
146.7606303550105054
 31
0.0
  0
ARC
  5
85A0
  8
0
 10
3862.9938160044798678
 20
149.6116724054051872
 30
0.0
 40
5.2243344389120159
 50
210.7613036849467107
 51
214.3653473314323037
  0
ARC
  5
85A1
  8
0
 10
3858.5265794119218299
 20
146.828043729669389
 30
0.0
 40
0.0121
 50
117.9998309953247997
 51
210.5998308861557007
  0
ARC
  5
85A2
  8
0
 10
3858.5713623864239707
 20
146.752319345124107
 30
0.0
 40
0.0121
 50
210.5998308861528869
 51
295.9998308622082845
  0
ARC
  5
85A3
  8
0
 10
3858.1059751597817922
 20
146.5537381004268127
 30
0.0
 40
0.6454969641013417
 50
20.0001841659356607
 51
37.8045006622043118
  0
ARC
  5
85A4
  8
0
 10
3858.9878974223229307
 20
147.0406323892005105
 30
0.0
 40
0.3829353447137115
 50
220.6681893896561064
 51
224.022911940703608
  0
ARC
  5
85A5
  8
0
 10
3858.9878974223229307
 20
147.0406323892005105
 30
0.0
 40
0.3829353447137115
 50
193.7817728874429122
 51
196.9808713722067921
  0
LINE
  5
85A6
  8
0
 10
3858.5850887927667827
 20
146.9093515812965904
 30
0.0
 11
3858.6286546087808347
 21
146.9325157717036916
 31
0.0
  0
LINE
  5
85A7
  8
0
 10
3858.6619047125391262
 20
146.7737493288294957
 30
0.0
 11
3858.7048186161778176
 21
146.7946796813041885
 31
0.0
  0
ARC
  5
85A8
  8
0
 10
3858.9025044648487892
 20
147.002594132096192
 30
0.0
 40
0.3407022415135228
 50
198.4373529894928936
 51
221.5537883061437867
  0
ARC
  5
85A9
  8
0
 10
3858.7364105778169687
 20
146.9122323114177107
 30
0.0
 40
0.1471599261599447
 50
201.8182027545649078
 51
220.4803858064647955
  0
ARC
  5
85AA
  8
0
 10
3858.5239615962441349
 20
146.7838254697738023
 30
0.0
 40
0.1057537643360936
 50
18.1098188726985505
 51
44.1887696883191623
  0
ARC
  5
85AB
  8
0
 10
3858.6566004537698973
 20
146.7846247524493037
 30
0.0
 40
0.0121
 50
221.5537883054844031
 51
295.999830846469024
  0
ARC
  5
85AC
  8
0
 10
3858.5907693671570087
 20
146.8986678986640868
 30
0.0
 40
0.0121
 50
117.9998309643406031
 51
198.4373529900680921
  0
ARC
  5
85AD
  8
0
 10
3858.2033331664229081
 20
146.3077412023878026
 30
0.0
 40
0.6454969641013417
 50
20.0001841659356607
 51
37.8045006622043118
  0
ARC
  5
85AE
  8
0
 10
3859.0852554289640466
 20
146.7946354911615003
 30
0.0
 40
0.3829353447137115
 50
220.6681893896561064
 51
224.022911940703608
  0
ARC
  5
85AF
  8
0
 10
3859.0852554289640466
 20
146.7946354911615003
 30
0.0
 40
0.3829353447137115
 50
193.7817728874429122
 51
196.9808713722067921
  0
LINE
  5
85B0
  8
0
 10
3858.6824467994078987
 20
146.663354683257694
 30
0.0
 11
3858.7260126154219506
 21
146.6865188736647099
 31
0.0
  0
LINE
  5
85B1
  8
0
 10
3858.7592627191797874
 20
146.5277524307905139
 30
0.0
 11
3858.8021766228189335
 21
146.5486827832652068
 31
0.0
  0
ARC
  5
85B2
  8
0
 10
3858.9998624714889957
 20
146.7565972340572102
 30
0.0
 40
0.3407022415135228
 50
198.4373529894928936
 51
221.5537883061437867
  0
ARC
  5
85B3
  8
0
 10
3858.8337685844580847
 20
146.6662354133787005
 30
0.0
 40
0.1471599261599447
 50
201.8182027545649078
 51
220.4803858064647955
  0
ARC
  5
85B4
  8
0
 10
3858.621319602884796
 20
146.5378285717347921
 30
0.0
 40
0.1057537643360936
 50
18.1098188726985505
 51
44.1887696883191623
  0
ARC
  5
85B5
  8
0
 10
3858.7539584604110132
 20
146.5386278544104073
 30
0.0
 40
0.0121
 50
221.5537883054844031
 51
295.999830846469024
  0
ARC
  5
85B6
  8
0
 10
3858.6881273737981246
 20
146.6526710006251051
 30
0.0
 40
0.0121
 50
117.9998309643406031
 51
198.4373529900680921
  0
ARC
  5
85B7
  8
0
 10
3860.5367471726290205
 20
147.6257459131402925
 30
0.0
 40
2.1346388027849779
 50
207.8516787772346106
 51
210.2143534193889138
  0
LINE
  5
85B8
  8
0
 10
3858.6544027941781678
 20
146.6448127667185872
 30
0.0
 11
3858.6767082507390114
 21
146.6566727038315889
 31
0.0
  0
LINE
  5
85B9
  8
0
 10
3858.707862154652048
 20
146.5467316098485071
 30
0.0
 11
3858.7251024343108838
 21
146.5551401931230089
 31
0.0
  0
ARC
  5
85BA
  8
0
 10
3858.7025578958550796
 20
146.5576070334547865
 30
0.0
 40
0.0121
 50
210.2143534193646133
 51
295.9998309936121927
  0
ARC
  5
85BB
  8
0
 10
3858.6600833685279213
 20
146.6341290840645968
 30
0.0
 40
0.0121
 50
117.9998307490119061
 51
207.8516787772157954
  0
LINE
  5
85BC
  8
0
 10
3858.886400902817968
 20
146.3091800889602894
 30
0.0
 11
3858.9269465532920549
 21
146.3307384402729099
 31
0.0
  0
LINE
  5
85BD
  8
0
 10
3858.9705621146767953
 20
146.1773156540778018
 30
0.0
 11
3859.0123886539890918
 21
146.1977156675505114
 31
0.0
  0
ARC
  5
85BE
  8
0
 10
3849.2740197408029417
 20
140.0365977234961008
 30
0.0
 40
11.5236801157379993
 50
32.2062653883314667
 51
33.1719575518040983
  0
ARC
  5
85BF
  8
0
 10
3859.2462523386029716
 20
146.4359813891514079
 30
0.0
 40
0.3398460260629991
 50
225.1765577299705114
 51
229.2929418369892005
  0
ARC
  5
85C0
  8
0
 10
3859.2462523386029716
 20
146.4359813891514079
 30
0.0
 40
0.3398460260629991
 50
196.0852811031496117
 51
198.3477946220668002
  0
ARC
  5
85C1
  8
0
 10
3859.6334536421668417
 20
146.7108963048569876
 30
0.0
 40
0.8604550926882337
 50
209.0856862538335861
 51
218.0347775171040894
  0
ARC
  5
85C2
  8
0
 10
3858.8920814772041012
 20
146.2984964063253983
 30
0.0
 40
0.0121
 50
117.9998309420597025
 51
209.085686253649186
  0
ARC
  5
85C3
  8
0
 10
3858.9652578558989262
 20
146.1881910776936024
 30
0.0
 40
0.0121
 50
218.0347775173466971
 51
295.9998308926166146
  0
LINE
  5
85C4
  8
0
 10
3858.823559235222092
 20
146.3779044459498095
 30
0.0
 11
3858.8568202582418962
 21
146.3954408685625879
 31
0.0
  0
LINE
  5
85C5
  8
0
 10
3858.9065370624721254
 20
146.2454848792376083
 30
0.0
 11
3858.9089639552471453
 21
146.2466790495988107
 31
0.0
  0
LINE
  5
85C6
  8
0
 10
3858.8190545486609153
 20
146.3606108971231095
 30
0.0
 11
3858.8910469404931973
 21
146.2497516189629891
 31
0.0
  0
ARC
  5
85C7
  8
0
 10
3858.8292024819829749
 20
146.3672009994957932
 30
0.0
 40
0.0121
 50
117.7998309141806033
 51
212.9998308950665944
  0
ARC
  5
85C8
  8
0
 10
3858.9011948738148021
 20
146.2563417213357866
 30
0.0
 40
0.0121
 50
212.9998308950692945
 51
296.199830273597172
  0
ARC
  5
85C9
  8
0
 10
3863.8813060738398235
 20
149.766488013554806
 30
0.0
 40
6.0505715899333987
 50
212.3156718278355868
 51
214.7165065515613094
  0
ARC
  5
85CA
  8
0
 10
3869.0072614352329765
 20
153.35179195745161
 30
0.0
 40
12.3062420688082508
 50
207.2616248965167927
 51
207.4559463200704954
  0
ARC
  5
85CB
  8
0
 10
3992.0612631904477894
 20
149.8373850586453955
 30
0.0
 40
133.1453638010385987
 50
181.5757275237199053
 51
181.6802571852020094
  0
ARC
  5
85CC
  8
0
 10
3872.8204293335220427
 20
146.3395231648852075
 30
0.0
 40
13.8532370837946406
 50
181.6802571852020094
 51
182.189881446189105
  0
ARC
  5
85CD
  8
0
 10
3859.3185014665978088
 20
145.8232193877989005
 30
0.0
 40
0.3414412847952639
 50
182.189881446189105
 51
206.3639229115781006
  0
ARC
  5
85CE
  8
0
 10
3859.1373768035091416
 20
145.7262567310430939
 30
0.0
 40
0.1362493461472767
 50
203.6524420211347035
 51
291.8057825804531831
  0
LINE
  5
85CF
  8
0
 10
3859.2924401236741687
 20
145.6703494197066959
 30
0.0
 11
3859.1330433015700692
 21
145.9831832973293047
 31
0.0
  0
LINE
  5
85D0
  8
0
 10
3859.1879881956110694
 20
145.5997562515374
 30
0.0
 11
3859.2830535293937828
 21
145.6433634790267888
 31
0.0
  0
ARC
  5
85D1
  8
0
 10
3859.2747981944939966
 20
145.6613604078123103
 30
0.0
 40
0.0198
 50
294.6413016064208819
 51
26.9999999987214601
  0
ARC
  5
85D2
  8
0
 10
3859.1470749004251957
 20
145.9903327540428961
 30
0.0
 40
0.0157480314915539
 50
117.0000003398292989
 51
207.0000000150627102
  0
LINE
  5
85D3
  8
0
 10
3859.1399254436478259
 20
146.0043643527986887
 30
0.0
 11
3859.1434333434172004
 21
146.0061517170339869
 31
0.0
  0
ARC
  5
85D4
  8
0
 10
3859.1406702203507848
 20
146.0302986782612891
 30
0.0
 40
0.019381121661211
 50
216.417495762919998
 51
270.9855078166843896
  0
ARC
  5
85D5
  8
0
 10
3883.6175587167140293
 20
164.0877567441939959
 30
0.0
 40
30.4363149294322817
 50
216.0153979040509
 51
216.417495762919998
  0
ARC
  5
85D6
  8
0
 10
3498.5384130409402132
 20
-33.4508705056680071
 30
0.0
 40
403.2673114048237721
 50
26.8370407454818398
 51
27.0754345069859816
  0
ARC
  5
85D7
  8
0
 10
4679.8285192245912185
 20
564.0627082543751385
 30
0.0
 40
920.541134126850352
 50
206.8282739955720899
 51
206.970840661917407
  0
ARC
  5
85D8
  8
0
 10
3798.5039197693308779
 20
115.5702240476471019
 30
0.0
 40
68.3362890125895035
 50
26.1549748077451198
 51
26.9708406619174603
  0
ARC
  5
85D9
  8
0
 10
3850.0053171425070104
 20
142.3478323059293018
 30
0.0
 40
10.3907591196085107
 50
10.7399953714404308
 51
18.7795261674975187
  0
ARC
  5
85DA
  8
0
 10
3825.5752878450321077
 20
139.2195294205401979
 30
0.0
 40
35.0070741472991429
 50
1.8420642192117911
 51
8.3184566463076415
  0
ARC
  5
85DB
  8
0
 10
3860.5096103800101446
 20
140.3383019377891969
 30
0.0
 40
0.0550477999526652
 50
320.4779553716448959
 51
6.7959741343216029
  0
ARC
  5
85DC
  8
0
 10
3860.9614423170728514
 20
140.3412425683430058
 30
0.0
 40
0.0379
 50
321.4070484787126247
 51
2.027159729848794
  0
ARC
  5
85DD
  8
0
 10
3858.0545551370400972
 20
147.9038012763780046
 30
0.0
 40
0.0686052978898032
 50
236.4494321874053924
 51
246.4366074470520118
  0
ARC
  5
85DE
  8
0
 10
3858.0135565416308054
 20
147.8470904711780065
 30
0.0
 40
0.0149109827521501
 50
335.5397513839718044
 51
25.7543619083547313
  0
LINE
  5
85DF
  8
0
 10
3862.2250809775268863
 20
138.2645105897929909
 30
0.0
 11
3862.2250805730268439
 21
140.5225342301930027
 31
0.0
  0
LINE
  5
85E0
  8
0
 10
3862.2250805730268439
 20
140.5225342301930027
 30
0.0
 11
3862.1148443368260814
 21
140.5204070497929933
 31
0.0
  0
LINE
  5
85E1
  8
0
 10
3862.1148443368260814
 20
140.5204070497929933
 30
0.0
 11
3862.1148443375259376
 21
140.5164946688929888
 31
0.0
  0
LINE
  5
85E2
  8
0
 10
3862.1148443375259376
 20
140.5164946688929888
 30
0.0
 11
3861.9179939454270425
 21
140.5080518404930103
 31
0.0
  0
LINE
  5
85E3
  8
0
 10
3861.9179939454270425
 20
140.5080518404930103
 30
0.0
 11
3861.9179940226272265
 21
140.5119493853929953
 31
0.0
  0
ARC
  5
85E4
  8
0
 10
3862.7187442057888802
 20
127.0464314891169977
 30
0.0
 40
13.4893058780192696
 50
93.4031843069348611
 51
97.1839257360995532
  0
ARC
  5
85E5
  8
0
 10
3861.0344466825331438
 20
140.4103253919712131
 30
0.0
 40
0.0196917771208168
 50
97.6052936031542941
 51
179.9798737365636043
  0
LINE
  5
85E6
  8
0
 10
3861.0147549066259671
 20
140.4103323090930076
 30
0.0
 11
3861.0147549230259756
 21
140.3235195636669062
 31
0.0
  0
ARC
  5
85E7
  8
0
 10
3860.9844667031920835
 20
140.3952318061757012
 30
0.0
 40
0.0778461430172318
 50
276.0623441862795175
 51
292.8971405921570863
  0
ARC
  5
85E8
  8
0
 10
3861.8288110225248602
 20
134.1379743299885092
 30
0.0
 40
6.2361531890938968
 50
97.7052342962358011
 51
105.971191744216398
  0
ARC
  5
85E9
  8
0
 10
3860.1308028497428495
 20
140.0770510555504131
 30
0.0
 40
0.0591344156111774
 50
107.6140818541608013
 51
134.6288148061231027
  0
ARC
  5
85EA
  8
0
 10
3860.6460670167980425
 20
139.566197671950107
 30
0.0
 40
0.784712622077446
 50
135.1997548671814968
 51
233.9346330474880062
  0
ARC
  5
85EB
  8
0
 10
3860.2197815085778529
 20
138.9819116287409031
 30
0.0
 40
0.0614528302521954
 50
234.5055731085234925
 51
261.6932998568685775
  0
ARC
  5
85EC
  8
0
 10
3859.8843452058240473
 20
135.7909013268468925
 30
0.0
 40
3.147190155169926
 50
52.4310988501441315
 51
84.0441671241839714
  0
ARC
  5
85ED
  8
0
 10
3861.8404936881588583
 20
138.338212563664797
 30
0.0
 40
0.0646089808048346
 50
234.7819661174542034
 51
267.3399728287031962
  0
LINE
  5
85EE
  8
0
 10
3861.837495214027058
 20
138.2736731992930004
 30
0.0
 11
3862.2250809775268863
 21
138.2645105897929909
 31
0.0
  0
ARC
  5
85EF
  8
0
 10
3861.9964291225151101
 20
122.8125051986753959
 30
0.0
 40
17.3595911181875096
 50
89.2453079424089566
 51
96.1968341059335614
  0
ARC
  5
85F0
  8
0
 10
3859.5116084986570968
 20
139.6866482658876976
 30
0.0
 40
0.7216139551172921
 50
32.1515759429200401
 51
36.8221511611037826
  0
ARC
  5
85F1
  8
0
 10
3860.2780146721847814
 20
140.0868377390696935
 30
0.0
 40
0.2165897899769042
 50
92.1791819411684656
 51
122.9638601944625975
  0
LINE
  5
85F2
  8
0
 10
3860.1601660171481853
 20
140.2685595914377927
 30
0.0
 11
3860.0728189866349567
 21
140.199903804279387
 31
0.0
  0
ARC
  5
85F3
  8
0
 10
3860.0946771659478145
 20
140.1725600935112084
 30
0.0
 40
0.0350065496935732
 50
128.6383505107073972
 51
183.2318771735880887
  0
LINE
  5
85F4
  8
0
 10
3860.0597262923270137
 20
140.1705865295930096
 30
0.0
 11
3860.0597263078861943
 21
140.087713225236314
 31
0.0
  0
ARC
  5
85F5
  8
0
 10
3860.6501612971442228
 20
139.5556731144912987
 30
0.0
 40
0.7199318545642654
 50
85.1816547245695546
 51
119.3658495453445028
  0
LINE
  5
85F6
  8
0
 10
3859.9700145695828724
 20
139.9646032289655011
 30
0.0
 11
3859.9568114682770101
 21
140.2814776435430133
 31
0.0
  0
LINE
  5
85F7
  8
0
 10
3859.9568114682770101
 20
140.2814776435430133
 30
0.0
 11
3860.1830070687587977
 21
140.2814776435430133
 31
0.0
  0
ARC
  5
85F8
  8
0
 10
3860.0279126407749573
 20
140.2833418788935091
 30
0.0
 40
0.02000321318371
 50
0.3769843353549594
 51
85.0634074007134586
  0
LINE
  5
85F9
  8
0
 10
3860.0479154209770059
 20
140.2834734914430044
 30
0.0
 11
3860.0479154209770059
 21
140.2814776435430133
 31
0.0
  0
ARC
  5
85FA
  8
0
 10
3857.0138422672380329
 20
149.2549985071457002
 30
0.0
 40
0.3309694750670746
 50
16.3826396164324208
 51
24.5553707337977301
  0
ARC
  5
85FB
  8
0
 10
3857.6096995721682106
 20
149.4769437449920133
 30
0.0
 40
0.3066645979104455
 50
195.975750134236705
 51
204.8098803061959927
  0
ARC
  5
85FC
  8
0
 10
3857.3462613347319348
 20
148.4255979557374872
 30
0.0
 40
0.3194340649476378
 50
19.8337232243321999
 51
28.3153511182349611
  0
ARC
  5
85FD
  8
0
 10
3857.7777506484098922
 20
148.6184253386666114
 30
0.0
 40
0.155862453898988
 50
195.3721296606495912
 51
212.8061675147208973
  0
ARC
  5
85FE
  8
0
 10
3857.4265752219780552
 20
148.0086670258135086
 30
0.0
 40
0.4157579079003137
 50
22.566818137288621
 51
29.0804138673901384
  0
ARC
  5
85FF
  8
0
 10
3858.1666826511718682
 20
148.3668253380859028
 30
0.0
 40
0.4078124646802595
 50
202.5032929568220936
 51
209.1439367889859113
  0
ARC
  5
8600
  8
0
 10
3857.0400174669189255
 20
147.4509794525278039
 30
0.0
 40
0.9975186198180651
 50
25.1734277067655903
 51
28.3397031029353705
  0
ARC
  5
8601
  8
0
 10
3858.8024751644329626
 20
148.3396304397697065
 30
0.0
 40
0.9770700908477442
 50
205.1426919092538128
 51
208.3752485194102917
  0
ARC
  5
8602
  8
0
 10
3858.7182170327860149
 20
147.1289488434952091
 30
0.0
 40
0.3169013814016637
 50
205.6285159860732961
 51
214.1780031458424958
  0
ARC
  5
8603
  8
0
 10
3858.1751336065981377
 20
146.816620889982687
 30
0.0
 40
0.3113664330288267
 50
25.5523816486128901
 51
34.2541405616267625
  0
ARC
  5
8604
  8
0
 10
3859.0759869724329292
 20
146.8365811332780027
 30
0.0
 40
0.4729516901373618
 50
208.5127149788270913
 51
214.2379625092926005
  0
ARC
  5
8605
  8
0
 10
3858.2708818389478438
 20
146.3456183848113881
 30
0.0
 40
0.4712253584778449
 50
28.5022189885207098
 51
34.2484584996072172
  0
ARC
  5
8606
  8
0
 10
3858.661620544687139
 20
146.0670064181375096
 30
0.0
 40
0.3100525284204223
 50
29.2909353022992889
 51
38.0289308000637618
  0
ARC
  5
8607
  8
0
 10
3859.1753768416820094
 20
146.4091204389685004
 30
0.0
 40
0.3089943967668765
 50
209.2759426369557048
 51
218.043921374110198
  0
ARC
  5
8608
  8
0
 10
3860.5410753280521021
 20
139.5360726625600023
 30
0.0
 40
0.6789282269255333
 50
128.0564933127805034
 51
180.4774998246471966
  0
LINE
  5
8609
  8
0
 10
3858.7329515055821503
 20
131.6483002012560064
 30
0.0
 11
3858.7329515055821503
 21
131.0161494592306894
 31
0.0
  0
LINE
  5
860A
  8
0
 10
3860.0906698361718554
 20
131.7900324869249005
 30
0.0
 11
3858.7359403025448046
 21
131.7900324869249005
 31
0.0
  0
LINE
  5
860B
  8
0
 10
3858.7329515055821503
 20
131.6483002012560064
 30
0.0
 11
3860.0906698361718554
 21
131.6483002012560064
 31
0.0
  0
LINE
  5
860C
  8
0
 10
3858.7368845028031501
 20
131.6483002012560064
 30
0.0
 11
3858.7368845028031501
 21
131.6561742198578031
 31
0.0
  0
LINE
  5
860D
  8
0
 10
3858.7368845028031501
 20
131.6561742198578031
 30
0.0
 11
3860.0906698361718554
 21
131.6561742198578031
 31
0.0
  0
ARC
  5
860E
  8
0
 10
3859.6384592975218766
 20
131.2770009979309975
 30
0.0
 40
0.9780641301568387
 50
148.362874736649502
 51
157.1899512804268113
  0
ARC
  5
860F
  8
0
 10
3857.091483727663217
 20
131.2200738051284077
 30
0.0
 40
1.6540863353521871
 50
346.075688871423722
 51
352.9182616447071155
  0
ARC
  5
8610
  8
0
 10
3858.237470375941939
 20
130.944994588941114
 30
0.0
 40
0.4756610172177013
 50
327.9966240491660869
 51
345.0187257908359015
  0
ARC
  5
8611
  8
0
 10
3858.4666494785428767
 20
130.8017559957781941
 30
0.0
 40
0.2054012248569666
 50
301.0561042338048878
 51
327.9996563833968253
  0
ARC
  5
8612
  8
0
 10
3858.4252858817849301
 20
130.9582741129327133
 30
0.0
 40
0.3636566588552657
 50
266.9346353280478183
 51
293.8987873737000882
  0
ARC
  5
8613
  8
0
 10
3858.809291325626873
 20
116.4509352392467036
 30
0.0
 40
14.1499554459912709
 50
91.6338732052058731
 51
94.5307741646561226
  0
ARC
  5
8614
  8
0
 10
3857.3870617831889831
 20
131.825925722056212
 30
0.0
 40
1.3052582755268549
 50
267.8103509328391283
 51
283.4888877458441243
  0
ARC
  5
8615
  8
0
 10
3858.3275788063888285
 20
119.1137142925502985
 30
0.0
 40
11.4508161821888503
 50
94.9617428281401743
 51
106.8556777909674054
  0
ARC
  5
8616
  8
0
 10
3855.0320335959067961
 20
129.9964577936121941
 30
0.0
 40
0.0800488642664452
 50
108.014504595100405
 51
216.6754288393875072
  0
ARC
  5
8617
  8
0
 10
3856.3671470179688185
 20
131.0044143898475113
 30
0.0
 40
1.752920302549307
 50
217.0341618060145095
 51
237.2496598806505972
  0
ARC
  5
8618
  8
0
 10
3855.5951419453931521
 20
128.5632196500062037
 30
0.0
 40
0.9828650215461431
 50
67.9260461737407439
 51
100.3326108140659016
  0
ARC
  5
8619
  8
0
 10
3855.3312941962540208
 20
128.0258826062525941
 30
0.0
 40
1.5805433257804971
 50
50.3075791153336311
 51
66.3824972692181632
  0
ARC
  5
861A
  8
0
 10
3856.3925899722721624
 20
131.0538762046249985
 30
0.0
 40
1.8125326834001589
 50
268.360547948303406
 51
273.655920623807674
  0
ARC
  5
861B
  8
0
 10
3858.3337854889941809
 20
100.6726574367326066
 30
0.0
 40
28.6306388638726901
 50
93.2109487844465008
 51
93.6559206238077309
  0
ARC
  5
861C
  8
0
 10
3856.7656797320810256
 20
128.9757534971874122
 30
0.0
 40
0.2848237629325448
 50
74.7496015830099765
 51
97.1724752000654348
  0
ARC
  5
861D
  8
0
 10
3856.7821458611570051
 20
129.0884149103056018
 30
0.0
 40
0.172347651841135
 50
17.2827545537436791
 51
70.1743330118023607
  0
ARC
  5
861E
  8
0
 10
3856.8028248269788492
 20
129.0954622927216064
 30
0.0
 40
0.1505097864923609
 50
0.1313993090486185
 51
17.0597782818873718
  0
LINE
  5
861F
  8
0
 10
3856.9533342176719088
 20
129.0958074641249027
 30
0.0
 11
3858.0753808345421021
 21
129.0958074641249027
 31
0.0
  0
ARC
  5
8620
  8
0
 10
3858.2060155484819006
 20
129.0936964152334099
 30
0.0
 40
0.1306517700357964
 50
141.2020877430954897
 51
179.0741843341506865
  0
ARC
  5
8621
  8
0
 10
3858.2528281580639486
 20
129.0560609191562094
 30
0.0
 40
0.1907171592451688
 50
112.2297276186152004
 51
141.2020877430967971
  0
ARC
  5
8622
  8
0
 10
3858.2729830716089054
 20
128.9595291037591949
 30
0.0
 40
0.2882532451441209
 50
79.8191594992832307
 51
108.6768151470406991
  0
ARC
  5
8623
  8
0
 10
3857.7749862425980609
 20
123.1345411493044963
 30
0.0
 40
6.133318051495066
 50
78.0201276195941631
 51
84.8650139004651152
  0
ARC
  5
8624
  8
0
 10
3861.8050245567987986
 20
141.3066034692971868
 30
0.0
 40
12.4806368024306398
 50
257.2381721726490014
 51
262.1048235471113799
  0
LINE
  5
8625
  8
0
 10
3857.2453166235718527
 20
130.6594011728248859
 30
0.0
 11
3857.7831117863288455
 21
130.6594011728248859
 31
0.0
  0
ARC
  5
8626
  8
0
 10
3857.5234830151230199
 20
130.6256054026520133
 30
0.0
 40
0.6667339638082732
 50
90.7965384443124037
 51
111.3926682260234031
  0
ARC
  5
8627
  8
0
 10
3857.3011820928131783
 20
131.1948447437883942
 30
0.0
 40
0.055631621885696
 50
112.0615655120127059
 51
194.9473167781571021
  0
ARC
  5
8628
  8
0
 10
3856.4447589956189404
 20
130.9662106745269057
 30
0.0
 40
0.8307847921279304
 50
340.2702933397795846
 51
14.9473167781570808
  0
ARC
  5
8629
  8
0
 10
3857.2453166235718527
 20
130.6791011728248861
 30
0.0
 40
0.0197
 50
160.2702933397804088
 51
270.0
  0
LINE
  5
862A
  8
0
 10
3857.346886753473882
 20
130.5212858741217019
 30
0.0
 11
3857.346886753473882
 21
130.6594011728248859
 31
0.0
  0
ARC
  5
862B
  8
0
 10
3857.504945394778133
 20
130.6256054026520133
 30
0.0
 40
0.6667339638082732
 50
68.6073317739765969
 51
89.2034615556875821
  0
ARC
  5
862C
  8
0
 10
3857.7272463170879746
 20
131.1948447437883942
 30
0.0
 40
0.055631621885696
 50
345.0526832218429263
 51
67.9384344879869531
  0
ARC
  5
862D
  8
0
 10
3858.5836694142822125
 20
130.9662106745269057
 30
0.0
 40
0.8307847921279304
 50
165.0526832218428979
 51
199.7297066602195912
  0
ARC
  5
862E
  8
0
 10
3857.7831117863288455
 20
130.6791011728248861
 30
0.0
 40
0.0197
 50
270.0
 51
19.7297066602195983
  0
LINE
  5
862F
  8
0
 10
3857.6815416564259067
 20
130.5543201345842874
 30
0.0
 11
3857.6815416564259067
 21
130.6594011728248859
 31
0.0
  0
LINE
  5
8630
  8
0
 10
3857.2802867079080897
 20
131.2464030626454132
 30
0.0
 11
3857.7481417019921537
 21
131.2464030626454132
 31
0.0
  0
LINE
  5
8631
  8
0
 10
3857.2474328558118941
 20
131.1804956366528927
 30
0.0
 11
3857.7809955540878946
 21
131.1804956366528927
 31
0.0
  0
LINE
  5
8632
  8
0
 10
3860.0906698361718554
 20
139.011844110583894
 30
0.0
 11
3860.0906698361718554
 21
123.8815011535260027
 31
0.0
  0
LINE
  5
8633
  8
0
 10
3860.7284651117729481
 20
138.8227765645804084
 30
0.0
 11
3860.7284651117729481
 21
123.6493922276684003
 31
0.0
  0
ARC
  5
8634
  8
0
 10
3857.2917160938918641
 20
131.5877920857467132
 30
0.0
 40
1.4583157218955911
 50
7.9715174276875214
 51
9.9334280179097725
  0
ARC
  5
8635
  8
0
 10
3858.3716884232931079
 20
131.8962704756586106
 30
0.0
 40
0.3609961719571543
 50
350.9291067746573844
 51
52.382889826456541
  0
ARC
  5
8636
  8
0
 10
3858.2114501022138029
 20
131.8697716917006062
 30
0.0
 40
0.4924092327887027
 50
39.384847069219191
 51
74.0386406962749533
  0
ARC
  5
8637
  8
0
 10
3858.1844149538628699
 20
131.7721218797186964
 30
0.0
 40
0.5937293788181832
 50
74.1216081834953826
 51
101.7574633549698007
  0
ARC
  5
8638
  8
0
 10
3859.0589713410281547
 20
128.2575617430348984
 30
0.0
 40
4.2150852514489356
 50
103.6614887455574063
 51
111.1180777326028988
  0
ARC
  5
8639
  8
0
 10
3856.823049545538197
 20
134.1520131188923131
 30
0.0
 40
2.0894219220290369
 50
277.1079647382824191
 51
290.0770436831592178
  0
ARC
  5
863A
  8
0
 10
3856.9851128187710856
 20
133.3489714080544104
 30
0.0
 40
1.2739810400703331
 50
254.1893868823792957
 51
274.3432577423753855
  0
ARC
  5
863B
  8
0
 10
3856.9569654662032008
 20
133.1972157259446874
 30
0.0
 40
1.120388475288929
 50
222.445931768519813
 51
253.4598841071602919
  0
ARC
  5
863C
  8
0
 10
3856.168180123869206
 20
132.4902913560395064
 30
0.0
 40
0.0621604684035891
 50
118.5436000481711005
 51
232.3549669914405911
  0
ARC
  5
863D
  8
0
 10
3857.7744953801261545
 20
129.1629139574752969
 30
0.0
 40
3.7569080339431058
 50
102.0121961590395046
 51
115.8151449764033032
  0
ARC
  5
863E
  8
0
 10
3857.7308759576121702
 20
129.4431608460153882
 30
0.0
 40
3.4737548530398672
 50
95.0983512330036831
 51
102.270502321893602
  0
ARC
  5
863F
  8
0
 10
3857.7799761998621761
 20
128.0297456999182089
 30
0.0
 40
4.8865432747012232
 50
84.901585041145097
 51
94.1990130320334913
  0
ARC
  5
8640
  8
0
 10
3858.0000595534479544
 20
128.1102957020191013
 30
0.0
 40
4.7914486047120972
 50
64.1306105605731034
 51
87.4381437965531205
  0
ARC
  5
8641
  8
0
 10
3858.5374850765801966
 20
131.6007193255682921
 30
0.0
 40
1.122987992711687
 50
9.7052595216465676
 51
56.5931836120252001
  0
ARC
  5
8642
  8
0
 10
3858.2598548263658813
 20
131.1797799276592116
 30
0.0
 40
1.6272384587964539
 50
56.5931836120252001
 51
92.150103820104647
  0
ARC
  5
8643
  8
0
 10
3858.1233456117488458
 20
125.1247549674823034
 30
0.0
 40
7.6814884361551599
 50
89.4371454277721085
 51
104.9579026003274009
  0
ARC
  5
8644
  8
0
 10
3858.8409668927729399
 20
132.0282029750248967
 30
0.0
 40
0.1887130282000123
 50
156.6730982368933098
 51
234.732394274818887
  0
LINE
  5
8645
  8
0
 10
3862.2250808755411526
 20
128.5230541561255961
 30
0.0
 11
3862.2250808754411082
 21
131.082094239647887
 31
0.0
  0
ARC
  5
8646
  8
0
 10
3862.2053957098391948
 20
131.0820941873226104
 30
0.0
 40
0.0196851656026366
 50
0.0001521527512943
 51
89.9996323828583371
  0
LINE
  5
8647
  8
0
 10
3862.2053958361411787
 20
131.1017793529248934
 30
0.0
 11
3862.0833485910329728
 21
131.1017793529248934
 31
0.0
  0
ARC
  5
8648
  8
0
 10
3862.0833488249331822
 20
130.9049286001275902
 30
0.0
 40
0.1968507527973799
 50
90.0000680793029488
 51
141.9999763250069975
  0
LINE
  5
8649
  8
0
 10
3861.9282283649508827
 20
131.0261220891106859
 30
0.0
 11
3861.4543713673419916
 21
130.4196127901979025
 31
0.0
  0
ARC
  5
864A
  8
0
 10
3861.5164195753682179
 20
130.3711354682347974
 30
0.0
 40
0.0787402747266546
 50
142.0000293114339058
 51
179.9999706295907913
  0
LINE
  5
864B
  8
0
 10
3861.4376793006408661
 20
130.371135508597888
 30
0.0
 11
3861.4376789148391254
 21
129.2339978524979927
 31
0.0
  0
LINE
  5
864C
  8
0
 10
3861.4376792820530682
 20
130.3163462080979116
 30
0.0
 11
3861.3786241825919205
 21
130.3163462080979116
 31
0.0
  0
LINE
  5
864D
  8
0
 10
3861.9282134114218934
 20
128.5790304116289917
 30
0.0
 11
3861.4543713673419916
 21
129.1855205708978929
 31
0.0
  0
ARC
  5
864E
  8
0
 10
3861.5164227303821463
 20
129.2339996058929046
 30
0.0
 40
0.0787438155620308
 50
180.001275809754901
 51
217.9995395493833996
  0
LINE
  5
864F
  8
0
 10
3861.4376789334291971
 20
129.2887871530978998
 30
0.0
 11
3861.3786241825919205
 21
129.2887871530978998
 31
0.0
  0
LINE
  5
8650
  8
0
 10
3861.3786241825919205
 20
129.2317156895979053
 30
0.0
 11
3861.3786241825919205
 21
130.3734180517978984
 31
0.0
  0
LINE
  5
8651
  8
0
 10
3861.3195690644911338
 20
129.1726456107979004
 30
0.0
 11
3861.3786241825919205
 21
129.2317156895979053
 31
0.0
  0
LINE
  5
8652
  8
0
 10
3861.3195690644911338
 20
130.4324881304978874
 30
0.0
 11
3861.3786241825919205
 21
130.3734180517978984
 31
0.0
  0
LINE
  5
8653
  8
0
 10
3861.3195690644911338
 20
129.1726456107979004
 30
0.0
 11
3860.8471281195911615
 21
129.1726456107979004
 31
0.0
  0
LINE
  5
8654
  8
0
 10
3861.3195690644911338
 20
130.4324881304978874
 30
0.0
 11
3860.8471281195911615
 21
130.4324881304978874
 31
0.0
  0
LINE
  5
8655
  8
0
 10
3860.7880730014908295
 20
129.2317007288978914
 30
0.0
 11
3860.7880730014908295
 21
130.3734330123978964
 31
0.0
  0
LINE
  5
8656
  8
0
 10
3860.7880730014908295
 20
130.3734330123978964
 30
0.0
 11
3860.8471281195911615
 21
130.4324881304978874
 31
0.0
  0
LINE
  5
8657
  8
0
 10
3860.8471281195911615
 20
129.1726456107979004
 30
0.0
 11
3860.7880730014908295
 21
129.2317007288978914
 31
0.0
  0
LINE
  5
8658
  8
0
 10
3860.7880730014908295
 20
130.2238267131479006
 30
0.0
 11
3860.7284651117729481
 21
130.2238267131479006
 31
0.0
  0
LINE
  5
8659
  8
0
 10
3860.7284651117729481
 20
129.3813070281478872
 30
0.0
 11
3860.7880730014908295
 21
129.3813070281478872
 31
0.0
  0
LINE
  5
865A
  8
0
 10
3862.0833727288040791
 20
128.5033541561249137
 30
0.0
 11
3862.2053808755417776
 21
128.5033541561249137
 31
0.0
  0
ARC
  5
865B
  8
0
 10
3862.0833727288040791
 20
128.7002541561247995
 30
0.0
 40
0.1969
 50
218.0000000015691057
 51
270.0
  0
ARC
  5
865C
  8
0
 10
3862.2053808755417776
 20
128.523054156124914
 30
0.0
 40
0.0197
 50
270.0000000000259774
 51
0.0000000022097985
  0
ARC
  5
865D
  8
0
 10
3859.9876690473038252
 20
127.9163964083277989
 30
0.0
 40
2.5239387396232562
 50
87.661135864344871
 51
93.4238393385792847
  0
ARC
  5
865E
  8
0
 10
3859.5462163646798217
 20
131.6504495837895092
 30
0.0
 40
1.248926706886619
 50
275.4762459717870797
 51
283.4604947509770909
  0
ARC
  5
865F
  8
0
 10
3856.1261480082530397
 20
170.0717813121588051
 30
0.0
 40
39.8221485461911371
 50
274.0782540245630798
 51
275.0989821521276895
  0
ARC
  5
8660
  8
0
 10
3864.1360473555851058
 20
54.1532086144358402
 30
0.0
 40
76.37297925463659
 50
93.887414452964876
 51
95.8109086021875385
  0
ARC
  5
8661
  8
0
 10
3855.2770010690151139
 20
139.8850284235664958
 30
0.0
 40
9.8161522582766167
 50
268.425457738284706
 51
276.5904170708353149
  0
ARC
  5
8662
  8
0
 10
3857.7108701287402255
 20
136.5602307077170963
 30
0.0
 40
6.3714630002508121
 50
283.6970369337465741
 51
287.6543108840289733
  0
ARC
  5
8663
  8
0
 10
3861.2018509485428694
 20
125.591350816938899
 30
0.0
 40
5.1395436083193413
 50
102.4860727383350962
 51
107.6543108840290017
  0
LINE
  5
8664
  8
0
 10
3860.8471281195720621
 20
129.9080067001249006
 30
0.0
 11
3861.3195590932741652
 21
129.9080067001249006
 31
0.0
  0
LINE
  5
8665
  8
0
 10
3860.8471281195720621
 20
129.6971268088248905
 30
0.0
 11
3861.3195590932741652
 21
129.6971268088248905
 31
0.0
  0
LINE
  5
8666
  8
0
 10
3860.8471281195720621
 20
130.2876779899247879
 30
0.0
 11
3861.3195590932741652
 21
130.2876779899247879
 31
0.0
  0
LINE
  5
8667
  8
0
 10
3860.8077579247192261
 20
130.3931179356249004
 30
0.0
 11
3861.3589292881270012
 21
130.3931179356249004
 31
0.0
  0
LINE
  5
8668
  8
0
 10
3860.8471281195720621
 20
130.3931179356249004
 30
0.0
 11
3860.8471281195720621
 21
130.2876779899247879
 31
0.0
  0
LINE
  5
8669
  8
0
 10
3860.8471281195720621
 20
129.9080067001249006
 30
0.0
 11
3860.8471281195720621
 21
129.6971268088248905
 31
0.0
  0
ARC
  5
866A
  8
0
 10
3861.2837695100738529
 20
130.0978423450249011
 30
0.0
 40
0.4761231731114401
 50
156.5023655210636946
 51
203.4976344789369875
  0
LINE
  5
866B
  8
0
 10
3860.8471281195720621
 20
129.3174555190248896
 30
0.0
 11
3861.3195590932741652
 21
129.3174555190248896
 31
0.0
  0
LINE
  5
866C
  8
0
 10
3860.8077579247192261
 20
129.2120155733248907
 30
0.0
 11
3861.3589290557738423
 21
129.2120155733248907
 31
0.0
  0
LINE
  5
866D
  8
0
 10
3860.8471281195720621
 20
129.2120155733248907
 30
0.0
 11
3860.8471281195720621
 21
129.3174555190248896
 31
0.0
  0
ARC
  5
866E
  8
0
 10
3861.2837695100738529
 20
129.50729116392489
 30
0.0
 40
0.4761231731114401
 50
156.5023655210630125
 51
203.4976344789361917
  0
LINE
  5
866F
  8
0
 10
3861.3195590932741652
 20
130.3931179356249004
 30
0.0
 11
3861.3195590932741652
 21
130.2876779899247879
 31
0.0
  0
LINE
  5
8670
  8
0
 10
3861.3195590932741652
 20
129.9080067001249006
 30
0.0
 11
3861.3195590932741652
 21
129.6971268088248905
 31
0.0
  0
ARC
  5
8671
  8
0
 10
3860.8829177027719197
 20
130.0978423450249011
 30
0.0
 40
0.4761231731114401
 50
336.502365521062984
 51
23.4976344789369804
  0
LINE
  5
8672
  8
0
 10
3861.3195590932741652
 20
129.2120155733248907
 30
0.0
 11
3861.3195590932741652
 21
129.3174555190248896
 31
0.0
  0
ARC
  5
8673
  8
0
 10
3860.8829177027719197
 20
129.50729116392489
 30
0.0
 40
0.4761231731114401
 50
336.502365521062984
 51
23.4976344789369804
  0
ARC
  5
8674
  8
0
 10
3860.6502777258720016
 20
139.5555412606246932
 30
0.0
 40
0.7204724408998593
 50
244.590189816843008
 51
272.4095801793862961
  0
LINE
  5
8675
  8
0
 10
3857.5143613786481183
 20
128.5852980259249136
 30
0.0
 11
3857.5143613786481183
 21
128.2164007938249028
 31
0.0
  0
LINE
  5
8676
  8
0
 10
3857.0419158169720504
 20
128.6869601786249007
 30
0.0
 11
3857.0419158169720504
 21
129.0958074641249027
 31
0.0
  0
LINE
  5
8677
  8
0
 10
3857.0616008090719333
 20
128.6672751886248989
 30
0.0
 11
3857.0419158169720504
 21
128.6869601786249007
 31
0.0
  0
LINE
  5
8678
  8
0
 10
3857.0616008090719333
 20
128.6672751886248989
 30
0.0
 11
3857.9671219482238484
 21
128.6672751886248989
 31
0.0
  0
LINE
  5
8679
  8
0
 10
3857.0793567618720772
 20
128.5852980259249136
 30
0.0
 11
3857.0793567618720772
 21
128.6672751886248989
 31
0.0
  0
LINE
  5
867A
  8
0
 10
3857.0616008563720243
 20
128.5852980259249136
 30
0.0
 11
3857.967121900922848
 21
128.5852980259249136
 31
0.0
  0
LINE
  5
867B
  8
0
 10
3857.0616008563720243
 20
128.5852980259249136
 30
0.0
 11
3857.0616008563720243
 21
128.2164007938249028
 31
0.0
  0
LINE
  5
867C
  8
0
 10
3857.0616008563720243
 20
128.2164007938249028
 30
0.0
 11
3857.967121900922848
 21
128.2164007938249028
 31
0.0
  0
LINE
  5
867D
  8
0
 10
3857.0793567618720772
 20
128.1344236311248892
 30
0.0
 11
3857.0793567618720772
 21
128.2164007938249028
 31
0.0
  0
LINE
  5
867E
  8
0
 10
3857.0793567618720772
 20
128.1344236311248892
 30
0.0
 11
3857.9493659954241593
 21
128.1344236311248892
 31
0.0
  0
LINE
  5
867F
  8
0
 10
3857.219733667771834
 20
128.1344236311248892
 30
0.0
 11
3857.219733667771834
 21
127.9885949109249026
 31
0.0
  0
LINE
  5
8680
  8
0
 10
3857.195459124071931
 20
127.9885949109249026
 30
0.0
 11
3857.8332636332229413
 21
127.9885949109249026
 31
0.0
  0
LINE
  5
8681
  8
0
 10
3857.195459124071931
 20
127.9885949109249026
 30
0.0
 11
3857.195459124071931
 21
123.2088475526660005
 31
0.0
  0
LINE
  5
8682
  8
0
 10
3857.0625664310719003
 20
128.5852980259249136
 30
0.0
 11
3857.0625664310719003
 21
128.2164007938249028
 31
0.0
  0
LINE
  5
8683
  8
0
 10
3857.0628410628719394
 20
128.5852980259249136
 30
0.0
 11
3857.0628410628719394
 21
128.2164007938249028
 31
0.0
  0
LINE
  5
8684
  8
0
 10
3857.065733082872157
 20
128.5852980259249136
 30
0.0
 11
3857.065733082872157
 21
128.2164007938249028
 31
0.0
  0
LINE
  5
8685
  8
0
 10
3857.066281008471833
 20
128.5852980259249136
 30
0.0
 11
3857.066281008471833
 21
128.2164007938249028
 31
0.0
  0
LINE
  5
8686
  8
0
 10
3857.0710853841719654
 20
128.5852980259249136
 30
0.0
 11
3857.0710853841719654
 21
128.2164007938249028
 31
0.0
  0
LINE
  5
8687
  8
0
 10
3857.0719039341720418
 20
128.5852980259249136
 30
0.0
 11
3857.0719039341720418
 21
128.2164007938249028
 31
0.0
  0
LINE
  5
8688
  8
0
 10
3857.0785972590720121
 20
128.5852980259249136
 30
0.0
 11
3857.0785972590720121
 21
128.2164007938249028
 31
0.0
  0
LINE
  5
8689
  8
0
 10
3857.0796824454719172
 20
128.5852980259249136
 30
0.0
 11
3857.0796824454719172
 21
128.2164007938249028
 31
0.0
  0
LINE
  5
868A
  8
0
 10
3857.0882321104718358
 20
128.5852980259249136
 30
0.0
 11
3857.0882321104718358
 21
128.2164007938249028
 31
0.0
  0
LINE
  5
868B
  8
0
 10
3857.0895786464720914
 20
128.5852980259249136
 30
0.0
 11
3857.0895786464720914
 21
128.2164007938249028
 31
0.0
  0
LINE
  5
868C
  8
0
 10
3857.0999429982721267
 20
128.5852980259249136
 30
0.0
 11
3857.0999429982721267
 21
128.2164007938249028
 31
0.0
  0
LINE
  5
868D
  8
0
 10
3857.1015443236719875
 20
128.5852980259249136
 30
0.0
 11
3857.1015443236719875
 21
128.2164007938249028
 31
0.0
  0
LINE
  5
868E
  8
0
 10
3857.1136728682718058
 20
128.5852980259249136
 30
0.0
 11
3857.1136728682718058
 21
128.2164007938249028
 31
0.0
  0
LINE
  5
868F
  8
0
 10
3857.1155211815707844
 20
128.5852980259249136
 30
0.0
 11
3857.1155211815707844
 21
128.2164007938249028
 31
0.0
  0
LINE
  5
8690
  8
0
 10
3857.1293548299718168
 20
128.5852980259249136
 30
0.0
 11
3857.1293548299718168
 21
128.2164007938249028
 31
0.0
  0
LINE
  5
8691
  8
0
 10
3857.1314411262719659
 20
128.5852980259249136
 30
0.0
 11
3857.1314411262719659
 21
128.2164007938249028
 31
0.0
  0
LINE
  5
8692
  8
0
 10
3857.1469124823720449
 20
128.5852980259249136
 30
0.0
 11
3857.1469124823720449
 21
128.2164007938249028
 31
0.0
  0
LINE
  5
8693
  8
0
 10
3857.1492265975721239
 20
128.5852980259249136
 30
0.0
 11
3857.1492265975721239
 21
128.2164007938249028
 31
0.0
  0
LINE
  5
8694
  8
0
 10
3857.1662602863721077
 20
128.5852980259249136
 30
0.0
 11
3857.1662602863721077
 21
128.2164007938249028
 31
0.0
  0
LINE
  5
8695
  8
0
 10
3857.1687909462721109
 20
128.5852980259249136
 30
0.0
 11
3857.1687909462721109
 21
128.2164007938249028
 31
0.0
  0
LINE
  5
8696
  8
0
 10
3857.187303981471814
 20
128.5852980259249136
 30
0.0
 11
3857.187303981471814
 21
128.2164007938249028
 31
0.0
  0
LINE
  5
8697
  8
0
 10
3857.1900388568719791
 20
128.5852980259249136
 30
0.0
 11
3857.1900388568719791
 21
128.2164007938249028
 31
0.0
  0
LINE
  5
8698
  8
0
 10
3857.2099410447722221
 20
128.5852980259249136
 30
0.0
 11
3857.2099410447722221
 21
128.2164007938249028
 31
0.0
  0
LINE
  5
8699
  8
0
 10
3857.2128668117720736
 20
128.5852980259249136
 30
0.0
 11
3857.2128668117720736
 21
128.2164007938249028
 31
0.0
  0
LINE
  5
869A
  8
0
 10
3857.2340611908712162
 20
128.5852980259249136
 30
0.0
 11
3857.2340611908712162
 21
128.2164007938249028
 31
0.0
  0
LINE
  5
869B
  8
0
 10
3857.2371635953718396
 20
128.5852980259249136
 30
0.0
 11
3857.2371635953718396
 21
128.2164007938249028
 31
0.0
  0
LINE
  5
869C
  8
0
 10
3857.2578739140722064
 20
128.5852980259249136
 30
0.0
 11
3857.2578739140722064
 21
128.2164007938249028
 31
0.0
  0
LINE
  5
869D
  8
0
 10
3857.2595469087727906
 20
128.5852980259249136
 30
0.0
 11
3857.2595469087727906
 21
128.2164007938249028
 31
0.0
  0
LINE
  5
869E
  8
0
 10
3857.262810836171866
 20
128.5852980259249136
 30
0.0
 11
3857.262810836171866
 21
128.2164007938249028
 31
0.0
  0
LINE
  5
869F
  8
0
 10
3857.2830071068719917
 20
128.5852980259249136
 30
0.0
 11
3857.2830071068719917
 21
128.2164007938249028
 31
0.0
  0
LINE
  5
86A0
  8
0
 10
3857.2846778389721294
 20
128.5852980259249136
 30
0.0
 11
3857.2846778389721294
 21
128.2164007938249028
 31
0.0
  0
LINE
  5
86A1
  8
0
 10
3857.2862740346718056
 20
128.5852980259249136
 30
0.0
 11
3857.2862740346718056
 21
128.2164007938249028
 31
0.0
  0
LINE
  5
86A2
  8
0
 10
3857.2896835834721969
 20
128.5852980259249136
 30
0.0
 11
3857.2896835834721969
 21
128.2164007938249028
 31
0.0
  0
LINE
  5
86A3
  8
0
 10
3857.3094634877338649
 20
128.5852980259249136
 30
0.0
 11
3857.3094634877338649
 21
128.2164007938249028
 31
0.0
  0
LINE
  5
86A4
  8
0
 10
3857.3112660939891612
 20
128.5852980259249136
 30
0.0
 11
3857.3112660939891612
 21
128.2164007938249028
 31
0.0
  0
LINE
  5
86A5
  8
0
 10
3857.3141123566779243
 20
128.5852980259249136
 30
0.0
 11
3857.3141123566779243
 21
128.2164007938249028
 31
0.0
  0
LINE
  5
86A6
  8
0
 10
3857.3178204345090307
 20
128.5852980259249136
 30
0.0
 11
3857.3178204345090307
 21
128.2164007938249028
 31
0.0
  0
LINE
  5
86A7
  8
0
 10
3857.3370099304429459
 20
128.5852980259249136
 30
0.0
 11
3857.3370099304429459
 21
128.2164007938249028
 31
0.0
  0
LINE
  5
86A8
  8
0
 10
3857.3383266596720205
 20
128.5852980259249136
 30
0.0
 11
3857.3383266596720205
 21
128.2164007938249028
 31
0.0
  0
LINE
  5
86A9
  8
0
 10
3857.3429262493718852
 20
128.5852980259249136
 30
0.0
 11
3857.3429262493718852
 21
128.2164007938249028
 31
0.0
  0
LINE
  5
86AA
  8
0
 10
3857.3465765794721847
 20
128.5852980259249136
 30
0.0
 11
3857.3465765794721847
 21
128.2164007938249028
 31
0.0
  0
LINE
  5
86AB
  8
0
 10
3857.3661239511179701
 20
128.5852980259249136
 30
0.0
 11
3857.3661239511179701
 21
128.2164007938249028
 31
0.0
  0
LINE
  5
86AC
  8
0
 10
3857.3674406803479542
 20
128.5852980259249136
 30
0.0
 11
3857.3674406803479542
 21
128.2164007938249028
 31
0.0
  0
LINE
  5
86AD
  8
0
 10
3857.3720402700478189
 20
128.5852980259249136
 30
0.0
 11
3857.3720402700478189
 21
128.2164007938249028
 31
0.0
  0
LINE
  5
86AE
  8
0
 10
3857.3756906001481184
 20
128.5852980259249136
 30
0.0
 11
3857.3756906001481184
 21
128.2164007938249028
 31
0.0
  0
LINE
  5
86AF
  8
0
 10
3857.3935079328721258
 20
128.5852980259249136
 30
0.0
 11
3857.3935079328721258
 21
128.2164007938249028
 31
0.0
  0
LINE
  5
86B0
  8
0
 10
3857.3954017060718797
 20
128.5852980259249136
 30
0.0
 11
3857.3954017060718797
 21
128.2164007938249028
 31
0.0
  0
LINE
  5
86B1
  8
0
 10
3857.4029151639720112
 20
128.5852980259249136
 30
0.0
 11
3857.4029151639720112
 21
128.2164007938249028
 31
0.0
  0
LINE
  5
86B2
  8
0
 10
3857.4067352258721257
 20
128.5852980259249136
 30
0.0
 11
3857.4067352258721257
 21
128.2164007938249028
 31
0.0
  0
LINE
  5
86B3
  8
0
 10
3857.4242652661641841
 20
128.5852980259249136
 30
0.0
 11
3857.4242652661641841
 21
128.2164007938249028
 31
0.0
  0
LINE
  5
86B4
  8
0
 10
3857.4337979259721578
 20
128.5852980259249136
 30
0.0
 11
3857.4337979259721578
 21
128.2164007938249028
 31
0.0
  0
LINE
  5
86B5
  8
0
 10
3857.4376751218719619
 20
128.5852980259249136
 30
0.0
 11
3857.4376751218719619
 21
128.2164007938249028
 31
0.0
  0
LINE
  5
86B6
  8
0
 10
3857.4229518882721095
 20
128.5852980259249136
 30
0.0
 11
3857.4229518882721095
 21
128.2164007938249028
 31
0.0
  0
LINE
  5
86B7
  8
0
 10
3857.4528411589722054
 20
128.5852980259249136
 30
0.0
 11
3857.4528411589722054
 21
128.2164007938249028
 31
0.0
  0
LINE
  5
86B8
  8
0
 10
3857.4547920773729857
 20
128.5852980259249136
 30
0.0
 11
3857.4547920773729857
 21
128.2164007938249028
 31
0.0
  0
LINE
  5
86B9
  8
0
 10
3857.4650731625720255
 20
128.5852980259249136
 30
0.0
 11
3857.4650731625720255
 21
128.2164007938249028
 31
0.0
  0
LINE
  5
86BA
  8
0
 10
3857.4689886030719208
 20
128.5852980259249136
 30
0.0
 11
3857.4689886030719208
 21
128.2164007938249028
 31
0.0
  0
LINE
  5
86BB
  8
0
 10
3857.4836476346390555
 20
128.5852980259249136
 30
0.0
 11
3857.4836476346390555
 21
128.2164007938249028
 31
0.0
  0
LINE
  5
86BC
  8
0
 10
3857.4849954196720319
 20
128.5852980259249136
 30
0.0
 11
3857.4849954196720319
 21
128.2164007938249028
 31
0.0
  0
LINE
  5
86BD
  8
0
 10
3857.4965885038718625
 20
128.5852980259249136
 30
0.0
 11
3857.4965885038718625
 21
128.2164007938249028
 31
0.0
  0
LINE
  5
86BE
  8
0
 10
3857.5005231133718553
 20
128.5852980259249136
 30
0.0
 11
3857.5005231133718553
 21
128.2164007938249028
 31
0.0
  0
LINE
  5
86BF
  8
0
 10
3857.5143613786481183
 20
128.5852980259249136
 30
0.0
 11
3857.5143613786481183
 21
128.2164007938249028
 31
0.0
  0
LINE
  5
86C0
  8
0
 10
3857.9671219482238484
 20
128.6672751886248989
 30
0.0
 11
3857.9868069403241861
 21
128.6869601786249007
 31
0.0
  0
LINE
  5
86C1
  8
0
 10
3857.9493659954241593
 20
128.5852980259249136
 30
0.0
 11
3857.9493659954241593
 21
128.6672751886248989
 31
0.0
  0
LINE
  5
86C2
  8
0
 10
3857.967121900922848
 20
128.5852980259249136
 30
0.0
 11
3857.967121900922848
 21
128.2164007938249028
 31
0.0
  0
LINE
  5
86C3
  8
0
 10
3857.9493659954241593
 20
128.1344236311248892
 30
0.0
 11
3857.9493659954241593
 21
128.2164007938249028
 31
0.0
  0
LINE
  5
86C4
  8
0
 10
3857.8089890895230383
 20
128.1344236311248892
 30
0.0
 11
3857.8089890895230383
 21
127.9885949109249026
 31
0.0
  0
LINE
  5
86C5
  8
0
 10
3857.9661563262238815
 20
128.5852980259249136
 30
0.0
 11
3857.9661563262238815
 21
128.2164007938249028
 31
0.0
  0
LINE
  5
86C6
  8
0
 10
3857.9658816944229329
 20
128.5852980259249136
 30
0.0
 11
3857.9658816944229329
 21
128.2164007938249028
 31
0.0
  0
LINE
  5
86C7
  8
0
 10
3857.9629896744240796
 20
128.5852980259249136
 30
0.0
 11
3857.9629896744240796
 21
128.2164007938249028
 31
0.0
  0
LINE
  5
86C8
  8
0
 10
3857.9624417488230392
 20
128.5852980259249136
 30
0.0
 11
3857.9624417488230392
 21
128.2164007938249028
 31
0.0
  0
LINE
  5
86C9
  8
0
 10
3857.9576373731238164
 20
128.5852980259249136
 30
0.0
 11
3857.9576373731238164
 21
128.2164007938249028
 31
0.0
  0
LINE
  5
86CA
  8
0
 10
3857.9568188231241948
 20
128.5852980259249136
 30
0.0
 11
3857.9568188231241948
 21
128.2164007938249028
 31
0.0
  0
LINE
  5
86CB
  8
0
 10
3857.9501254982242244
 20
128.5852980259249136
 30
0.0
 11
3857.9501254982242244
 21
128.2164007938249028
 31
0.0
  0
LINE
  5
86CC
  8
0
 10
3857.9490403118238646
 20
128.5852980259249136
 30
0.0
 11
3857.9490403118238646
 21
128.2164007938249028
 31
0.0
  0
LINE
  5
86CD
  8
0
 10
3857.940490646823946
 20
128.5852980259249136
 30
0.0
 11
3857.940490646823946
 21
128.2164007938249028
 31
0.0
  0
LINE
  5
86CE
  8
0
 10
3857.9391441108241452
 20
128.5852980259249136
 30
0.0
 11
3857.9391441108241452
 21
128.2164007938249028
 31
0.0
  0
LINE
  5
86CF
  8
0
 10
3857.9287797590241098
 20
128.5852980259249136
 30
0.0
 11
3857.9287797590241098
 21
128.2164007938249028
 31
0.0
  0
LINE
  5
86D0
  8
0
 10
3857.9271784336228848
 20
128.5852980259249136
 30
0.0
 11
3857.9271784336228848
 21
128.2164007938249028
 31
0.0
  0
LINE
  5
86D1
  8
0
 10
3857.915049889023976
 20
128.5852980259249136
 30
0.0
 11
3857.915049889023976
 21
128.2164007938249028
 31
0.0
  0
LINE
  5
86D2
  8
0
 10
3857.9132015757240879
 20
128.5852980259249136
 30
0.0
 11
3857.9132015757240879
 21
128.2164007938249028
 31
0.0
  0
LINE
  5
86D3
  8
0
 10
3857.899367927323965
 20
128.5852980259249136
 30
0.0
 11
3857.899367927323965
 21
128.2164007938249028
 31
0.0
  0
LINE
  5
86D4
  8
0
 10
3857.8972816310238159
 20
128.5852980259249136
 30
0.0
 11
3857.8972816310238159
 21
128.2164007938249028
 31
0.0
  0
LINE
  5
86D5
  8
0
 10
3857.8818102749228274
 20
128.5852980259249136
 30
0.0
 11
3857.8818102749228274
 21
128.2164007938249028
 31
0.0
  0
LINE
  5
86D6
  8
0
 10
3857.8794961597241127
 20
128.5852980259249136
 30
0.0
 11
3857.8794961597241127
 21
128.2164007938249028
 31
0.0
  0
LINE
  5
86D7
  8
0
 10
3857.8624624709241289
 20
128.5852980259249136
 30
0.0
 11
3857.8624624709241289
 21
128.2164007938249028
 31
0.0
  0
LINE
  5
86D8
  8
0
 10
3857.8599318110241256
 20
128.5852980259249136
 30
0.0
 11
3857.8599318110241256
 21
128.2164007938249028
 31
0.0
  0
LINE
  5
86D9
  8
0
 10
3857.8414187758230582
 20
128.5852980259249136
 30
0.0
 11
3857.8414187758230582
 21
128.2164007938249028
 31
0.0
  0
LINE
  5
86DA
  8
0
 10
3857.8386839004228932
 20
128.5852980259249136
 30
0.0
 11
3857.8386839004228932
 21
128.2164007938249028
 31
0.0
  0
LINE
  5
86DB
  8
0
 10
3857.8187817125240144
 20
128.5852980259249136
 30
0.0
 11
3857.8187817125240144
 21
128.2164007938249028
 31
0.0
  0
LINE
  5
86DC
  8
0
 10
3857.815855945524163
 20
128.5852980259249136
 30
0.0
 11
3857.815855945524163
 21
128.2164007938249028
 31
0.0
  0
LINE
  5
86DD
  8
0
 10
3857.7946615664241108
 20
128.5852980259249136
 30
0.0
 11
3857.7946615664241108
 21
128.2164007938249028
 31
0.0
  0
LINE
  5
86DE
  8
0
 10
3857.7915591619239422
 20
128.5852980259249136
 30
0.0
 11
3857.7915591619239422
 21
128.2164007938249028
 31
0.0
  0
LINE
  5
86DF
  8
0
 10
3857.7708488432231206
 20
128.5852980259249136
 30
0.0
 11
3857.7708488432231206
 21
128.2164007938249028
 31
0.0
  0
LINE
  5
86E0
  8
0
 10
3857.7691758485239006
 20
128.5852980259249136
 30
0.0
 11
3857.7691758485239006
 21
128.2164007938249028
 31
0.0
  0
LINE
  5
86E1
  8
0
 10
3857.7659119211239158
 20
128.5852980259249136
 30
0.0
 11
3857.7659119211239158
 21
128.2164007938249028
 31
0.0
  0
LINE
  5
86E2
  8
0
 10
3857.7457156504228806
 20
128.5852980259249136
 30
0.0
 11
3857.7457156504228806
 21
128.2164007938249028
 31
0.0
  0
LINE
  5
86E3
  8
0
 10
3857.7440449183231976
 20
128.5852980259249136
 30
0.0
 11
3857.7440449183231976
 21
128.2164007938249028
 31
0.0
  0
LINE
  5
86E4
  8
0
 10
3857.7424487226239762
 20
128.5852980259249136
 30
0.0
 11
3857.7424487226239762
 21
128.2164007938249028
 31
0.0
  0
LINE
  5
86E5
  8
0
 10
3857.7390391738240396
 20
128.5852980259249136
 30
0.0
 11
3857.7390391738240396
 21
128.2164007938249028
 31
0.0
  0
LINE
  5
86E6
  8
0
 10
3857.7192592695610074
 20
128.5852980259249136
 30
0.0
 11
3857.7192592695610074
 21
128.2164007938249028
 31
0.0
  0
LINE
  5
86E7
  8
0
 10
3857.7174566633061659
 20
128.5852980259249136
 30
0.0
 11
3857.7174566633061659
 21
128.2164007938249028
 31
0.0
  0
LINE
  5
86E8
  8
0
 10
3857.7146104006178575
 20
128.5852980259249136
 30
0.0
 11
3857.7146104006178575
 21
128.2164007938249028
 31
0.0
  0
LINE
  5
86E9
  8
0
 10
3857.7109023227858415
 20
128.5852980259249136
 30
0.0
 11
3857.7109023227858415
 21
128.2164007938249028
 31
0.0
  0
LINE
  5
86EA
  8
0
 10
3857.6917128268519264
 20
128.5852980259249136
 30
0.0
 11
3857.6917128268519264
 21
128.2164007938249028
 31
0.0
  0
LINE
  5
86EB
  8
0
 10
3857.6903960976228518
 20
128.5852980259249136
 30
0.0
 11
3857.6903960976228518
 21
128.2164007938249028
 31
0.0
  0
LINE
  5
86EC
  8
0
 10
3857.6857965079238966
 20
128.5852980259249136
 30
0.0
 11
3857.6857965079238966
 21
128.2164007938249028
 31
0.0
  0
LINE
  5
86ED
  8
0
 10
3857.6821461778240518
 20
128.5852980259249136
 30
0.0
 11
3857.6821461778240518
 21
128.2164007938249028
 31
0.0
  0
LINE
  5
86EE
  8
0
 10
3857.6625988061769021
 20
128.5852980259249136
 30
0.0
 11
3857.6625988061769021
 21
128.2164007938249028
 31
0.0
  0
LINE
  5
86EF
  8
0
 10
3857.6612820769478276
 20
128.5852980259249136
 30
0.0
 11
3857.6612820769478276
 21
128.2164007938249028
 31
0.0
  0
LINE
  5
86F0
  8
0
 10
3857.6566824872479629
 20
128.5852980259249136
 30
0.0
 11
3857.6566824872479629
 21
128.2164007938249028
 31
0.0
  0
LINE
  5
86F1
  8
0
 10
3857.6530321571481181
 20
128.5852980259249136
 30
0.0
 11
3857.6530321571481181
 21
128.2164007938249028
 31
0.0
  0
LINE
  5
86F2
  8
0
 10
3857.6352148244241107
 20
128.5852980259249136
 30
0.0
 11
3857.6352148244241107
 21
128.2164007938249028
 31
0.0
  0
LINE
  5
86F3
  8
0
 10
3857.633321051223902
 20
128.5852980259249136
 30
0.0
 11
3857.633321051223902
 21
128.2164007938249028
 31
0.0
  0
LINE
  5
86F4
  8
0
 10
3857.6258075933228611
 20
128.5852980259249136
 30
0.0
 11
3857.6258075933228611
 21
128.2164007938249028
 31
0.0
  0
LINE
  5
86F5
  8
0
 10
3857.6219875314241108
 20
128.5852980259249136
 30
0.0
 11
3857.6219875314241108
 21
128.2164007938249028
 31
0.0
  0
LINE
  5
86F6
  8
0
 10
3857.6044574911311429
 20
128.5852980259249136
 30
0.0
 11
3857.6044574911311429
 21
128.2164007938249028
 31
0.0
  0
LINE
  5
86F7
  8
0
 10
3857.5949248313240787
 20
128.5852980259249136
 30
0.0
 11
3857.5949248313240787
 21
128.2164007938249028
 31
0.0
  0
LINE
  5
86F8
  8
0
 10
3857.5910476354229104
 20
128.5852980259249136
 30
0.0
 11
3857.5910476354229104
 21
128.2164007938249028
 31
0.0
  0
LINE
  5
86F9
  8
0
 10
3857.605770869024127
 20
128.5852980259249136
 30
0.0
 11
3857.605770869024127
 21
128.2164007938249028
 31
0.0
  0
LINE
  5
86FA
  8
0
 10
3857.5758815983240311
 20
128.5852980259249136
 30
0.0
 11
3857.5758815983240311
 21
128.2164007938249028
 31
0.0
  0
LINE
  5
86FB
  8
0
 10
3857.5739306799241604
 20
128.5852980259249136
 30
0.0
 11
3857.5739306799241604
 21
128.2164007938249028
 31
0.0
  0
LINE
  5
86FC
  8
0
 10
3857.5636495947228468
 20
128.5852980259249136
 30
0.0
 11
3857.5636495947228468
 21
128.2164007938249028
 31
0.0
  0
LINE
  5
86FD
  8
0
 10
3857.559734154223861
 20
128.5852980259249136
 30
0.0
 11
3857.559734154223861
 21
128.2164007938249028
 31
0.0
  0
LINE
  5
86FE
  8
0
 10
3857.5450751226571811
 20
128.5852980259249136
 30
0.0
 11
3857.5450751226571811
 21
128.2164007938249028
 31
0.0
  0
LINE
  5
86FF
  8
0
 10
3857.5437273376228404
 20
128.5852980259249136
 30
0.0
 11
3857.5437273376228404
 21
128.2164007938249028
 31
0.0
  0
LINE
  5
8700
  8
0
 10
3857.5321342534239193
 20
128.5852980259249136
 30
0.0
 11
3857.5321342534239193
 21
128.2164007938249028
 31
0.0
  0
LINE
  5
8701
  8
0
 10
3857.5281996439239265
 20
128.5852980259249136
 30
0.0
 11
3857.5281996439239265
 21
128.2164007938249028
 31
0.0
  0
LINE
  5
8702
  8
0
 10
3857.8332636332229413
 20
127.9885949109249026
 30
0.0
 11
3857.8332636332229413
 21
123.6453370339645943
 31
0.0
  0
LINE
  5
8703
  8
0
 10
3857.9868069403241861
 20
128.6869601786249007
 30
0.0
 11
3857.9868069403241861
 21
129.0958074641249027
 31
0.0
  0
LINE
  5
8704
  8
0
 10
3857.0419158169720504
 20
128.6869601786249007
 30
0.0
 11
3857.9868069403241861
 21
128.6869601786249007
 31
0.0
  0
ARC
  5
8705
  8
0
 10
3860.949999521519203
 20
123.3210168192807998
 30
0.0
 40
3.7562155875881329
 50
181.7112386114824005
 51
209.7988245426936942
  0
ARC
  5
8706
  8
0
 10
3859.0651860036700782
 20
122.2416252900023039
 30
0.0
 40
1.5842100464932141
 50
209.7988245426936942
 51
235.7240346585620898
  0
ARC
  5
8707
  8
0
 10
3858.7077261314079806
 20
121.7443122753686993
 30
0.0
 40
0.9720695241695274
 50
236.6261794205913986
 51
262.0313211439848828
  0
ARC
  5
8708
  8
0
 10
3859.0662261912580107
 20
124.9464095498216949
 30
0.0
 40
4.1938886207605837
 50
263.2455839718228958
 51
267.4203963540504105
  0
ARC
  5
8709
  8
0
 10
3858.8530734894311536
 20
122.0981484144671043
 30
0.0
 40
1.3415994739955199
 50
271.0419737571388055
 51
298.4380441297947755
  0
ARC
  5
870A
  8
0
 10
3858.0949890715401125
 20
123.0429755781376997
 30
0.0
 40
2.5426715340020469
 50
303.3264354309376927
 51
332.6680512319451282
  0
ARC
  5
870B
  8
0
 10
3856.4791502322568704
 20
123.5680507195741029
 30
0.0
 40
4.2281875671702478
 50
336.4032647087931878
 51
353.1837591433678085
  0
ARC
  5
870C
  8
0
 10
3852.5816298572640335
 20
124.0682242221885048
 30
0.0
 40
8.1575943086012881
 50
352.9445386871096275
 51
357.0569925041486954
  0
ARC
  5
870D
  8
0
 10
3854.4505127761040058
 20
123.8633586921642973
 30
0.0
 40
5.640186239047102
 50
353.433867266958373
 51
0.1843003430112073
  0
ARC
  5
870E
  8
0
 10
3855.9595286022231448
 20
123.6896634556469934
 30
0.0
 40
4.1212067136201291
 50
339.8788626889245847
 51
353.433867266958373
  0
ARC
  5
870F
  8
0
 10
3858.4857584884011885
 20
122.6584613002830935
 30
0.0
 40
1.3979453583822661
 50
285.9023072746002185
 51
343.9491610115643994
  0
ARC
  5
8710
  8
0
 10
3859.0607482993541453
 20
122.2235548564244993
 30
0.0
 40
0.9295750969274603
 50
212.7599595088364026
 51
258.0827793924307798
  0
ARC
  5
8711
  8
0
 10
3860.4981068698589297
 20
123.1285033037405015
 30
0.0
 40
2.6280543712818369
 50
186.3447168365671871
 51
212.3942881209090956
  0
ARC
  5
8712
  8
0
 10
3863.157420426598037
 20
123.5887737901875028
 30
0.0
 40
5.3244572456716348
 50
179.3913189730780005
 51
188.105154727897002
  0
LINE
  5
8713
  8
0
 10
3860.7408289069721832
 20
128.9625157787293119
 30
0.0
 11
3860.7408289069721832
 21
129.3813070281478872
 31
0.0
  0
LINE
  5
8714
  8
0
 10
3860.7408289069721832
 20
130.2238267131479006
 30
0.0
 11
3860.7408289069721832
 21
130.6097230436041059
 31
0.0
  0
ARC
  5
8715
  8
0
 10
3860.6806013075661212
 20
128.9652081961071985
 30
0.0
 40
0.0602877503444378
 50
322.5536054761045079
 51
357.4403510374725101
  0
ARC
  5
8716
  8
0
 10
3860.680782934914987
 20
130.6109188260095948
 30
0.0
 40
0.0600578775503535
 50
358.8591369622939169
 51
37.4450234001148132
  0
LINE
  5
8717
  8
0
 10
3855.5512510142721112
 20
129.4497870668249107
 30
0.0
 11
3856.2073380208721574
 21
129.3174967209247939
 31
0.0
  0
LINE
  5
8718
  8
0
 10
3856.2073380208721574
 20
129.3174967209247939
 30
0.0
 11
3856.2251958452989129
 21
129.3293614309766042
 31
0.0
  0
LINE
  5
8719
  8
0
 10
3855.5503811801559095
 20
129.5450649150425875
 30
0.0
 11
3855.5390710007791313
 21
129.4889726756155994
 31
0.0
  0
LINE
  5
871A
  8
0
 10
3855.5512510142721112
 20
129.4497870668249107
 30
0.0
 11
3855.5448765881737927
 21
129.4593813493993082
 31
0.0
  0
ARC
  5
871B
  8
0
 10
3855.5776936850638776
 20
129.4811849764303133
 30
0.0
 40
0.0394
 50
168.6000000381212942
 51
213.5999999840805117
  0
ARC
  5
871C
  8
0
 10
3855.9843486157719781
 20
129.9046521638248919
 30
0.0
 40
0.5883291530000125
 50
233.2085325830308022
 51
283.9914674196048168
  0
LINE
  5
871D
  8
0
 10
3855.8605646656219506
 20
129.3332303358249078
 30
0.0
 11
3855.8225909446719015
 21
129.3428602977249113
 31
0.0
  0
LINE
  5
871E
  8
0
 10
3855.8225909446719015
 20
129.3428602977249113
 30
0.0
 11
3855.8326301624410917
 21
129.3428523495176137
 31
0.0
  0
LINE
  5
871F
  8
0
 10
3855.8326301624410917
 20
129.3428523495176137
 30
0.0
 11
3855.8517404617869033
 21
129.338037128784606
 31
0.0
  0
LINE
  5
8720
  8
0
 10
3855.8517404617869033
 20
129.338037128784606
 30
0.0
 11
3855.8605646656219506
 21
129.3332303358249078
 31
0.0
  0
LINE
  5
8721
  8
0
 10
3855.8629290842141017
 20
129.3437306397981956
 30
0.0
 11
3855.8525600793618651
 21
129.3421019787757018
 31
0.0
  0
LINE
  5
8722
  8
0
 10
3855.8525600793618651
 20
129.3421019787757018
 30
0.0
 11
3855.8334511204229784
 21
129.3469238474150131
 31
0.0
  0
LINE
  5
8723
  8
0
 10
3855.8334511204229784
 20
129.3469238474150131
 30
0.0
 11
3855.8247138712499691
 21
129.353387792495198
 31
0.0
  0
LINE
  5
8724
  8
0
 10
3855.8247138712499691
 20
129.353387792495198
 30
0.0
 11
3855.8350180794759581
 21
129.354695098200807
 31
0.0
  0
LINE
  5
8725
  8
0
 10
3855.8350180794759581
 20
129.354695098200807
 30
0.0
 11
3855.8541961506689404
 21
129.3502159879093938
 31
0.0
  0
LINE
  5
8726
  8
0
 10
3855.8541961506689404
 20
129.3502159879093938
 30
0.0
 11
3855.8629290842141017
 21
129.3437306397981956
 31
0.0
  0
LINE
  5
8727
  8
0
 10
3855.8661789200618841
 20
129.3598480297023059
 30
0.0
 11
3855.8554549746800149
 21
129.3564590596654114
 31
0.0
  0
LINE
  5
8728
  8
0
 10
3855.8554549746800149
 20
129.3564590596654114
 30
0.0
 11
3855.8363509086320846
 21
129.3613051947127133
 31
0.0
  0
LINE
  5
8729
  8
0
 10
3855.8363509086320846
 20
129.3613051947127133
 30
0.0
 11
3855.8279748999980256
 21
129.3695606926457913
 31
0.0
  0
LINE
  5
872A
  8
0
 10
3855.8279748999980256
 20
129.3695606926457913
 30
0.0
 11
3855.8387133405972236
 21
129.3730215511698134
 31
0.0
  0
LINE
  5
872B
  8
0
 10
3855.8387133405972236
 20
129.3730215511698134
 30
0.0
 11
3855.8578132278648809
 21
129.368154691888293
 31
0.0
  0
LINE
  5
872C
  8
0
 10
3855.8578132278648809
 20
129.368154691888293
 30
0.0
 11
3855.8661789200618841
 21
129.3598480297023059
 31
0.0
  0
LINE
  5
872D
  8
0
 10
3855.8675514725350695
 20
129.3860097070983102
 30
0.0
 11
3855.870667367058104
 21
129.3821082463676078
 31
0.0
  0
LINE
  5
872E
  8
0
 10
3855.870667367058104
 20
129.3821082463676078
 30
0.0
 11
3855.8595515854158293
 21
129.376775985004798
 31
0.0
  0
LINE
  5
872F
  8
0
 10
3855.8595515854158293
 20
129.376775985004798
 30
0.0
 11
3855.8404548965968388
 21
129.381658706417511
 31
0.0
  0
LINE
  5
8730
  8
0
 10
3855.8404548965968388
 20
129.381658706417511
 30
0.0
 11
3855.832479943924227
 21
129.3919032209493025
 31
0.0
  0
LINE
  5
8731
  8
0
 10
3855.832479943924227
 20
129.3919032209493025
 30
0.0
 11
3855.8383229008309172
 21
129.3919032209493025
 31
0.0
  0
LINE
  5
8732
  8
0
 10
3855.8346541668570353
 20
129.3443466716215084
 30
0.0
 11
3855.8245456476811341
 21
129.3440098757579904
 31
0.0
  0
LINE
  5
8733
  8
0
 10
3855.8245456476811341
 20
129.3440098757579904
 30
0.0
 11
3855.8056223376688649
 21
129.349752460009114
 31
0.0
  0
LINE
  5
8734
  8
0
 10
3855.8056223376688649
 20
129.349752460009114
 30
0.0
 11
3855.7968117962927863
 21
129.3558529162735908
 31
0.0
  0
LINE
  5
8735
  8
0
 10
3855.7968117962927863
 20
129.3558529162735908
 30
0.0
 11
3855.8069252390328074
 21
129.3562141310416109
 31
0.0
  0
LINE
  5
8736
  8
0
 10
3855.8069252390328074
 20
129.3562141310416109
 30
0.0
 11
3855.8258442659171124
 21
129.3504503040032034
 31
0.0
  0
LINE
  5
8737
  8
0
 10
3855.8258442659171124
 20
129.3504503040032034
 30
0.0
 11
3855.8346541668570353
 21
129.3443466716215084
 31
0.0
  0
LINE
  5
8738
  8
0
 10
3855.8373319136999271
 20
129.3576268161523046
 30
0.0
 11
3855.8268824054130164
 21
129.3555989025178121
 31
0.0
  0
LINE
  5
8739
  8
0
 10
3855.8268824054130164
 20
129.3555989025178121
 30
0.0
 11
3855.8079668742598187
 21
129.3613800658681896
 31
0.0
  0
LINE
  5
873A
  8
0
 10
3855.8079668742598187
 20
129.3613800658681896
 30
0.0
 11
3855.7995076639449508
 21
129.3692229301803138
 31
0.0
  0
LINE
  5
873B
  8
0
 10
3855.7995076639449508
 20
129.3692229301803138
 30
0.0
 11
3855.8099685926690654
 21
129.3713074829107939
 31
0.0
  0
LINE
  5
873C
  8
0
 10
3855.8099685926690654
 20
129.3713074829107939
 30
0.0
 11
3855.8288772216528741
 21
129.3654920885900026
 31
0.0
  0
LINE
  5
873D
  8
0
 10
3855.8288772216528741
 20
129.3654920885900026
 30
0.0
 11
3855.8373319136999271
 21
129.3576268161523046
 31
0.0
  0
LINE
  5
873E
  8
0
 10
3855.8411923706121343
 20
129.3767725490546923
 30
0.0
 11
3855.8303738007712127
 21
129.3729142937787913
 31
0.0
  0
LINE
  5
873F
  8
0
 10
3855.8303738007712127
 20
129.3729142937787913
 30
0.0
 11
3855.8114705167099601
 21
129.3787561960238008
 31
0.0
  0
LINE
  5
8740
  8
0
 10
3855.8114705167099601
 20
129.3787561960238008
 30
0.0
 11
3855.8033958459668611
 21
129.3885061638364959
 31
0.0
  0
LINE
  5
8741
  8
0
 10
3855.8033958459668611
 20
129.3885061638364959
 30
0.0
 11
3855.8142361533291478
 21
129.3924722252750996
 31
0.0
  0
LINE
  5
8742
  8
0
 10
3855.8142361533291478
 20
129.3924722252750996
 30
0.0
 11
3855.8331292007960656
 21
129.3865795552418945
 31
0.0
  0
LINE
  5
8743
  8
0
 10
3855.8331292007960656
 20
129.3865795552418945
 30
0.0
 11
3855.8411923706121343
 21
129.3767725490546923
 31
0.0
  0
LINE
  5
8744
  8
0
 10
3855.8069136627841544
 20
129.3476130978972094
 30
0.0
 11
3855.7698781447770671
 21
129.3606690750206951
 31
0.0
  0
LINE
  5
8745
  8
0
 10
3855.7698781447770671
 20
129.3606690750206951
 30
0.0
 11
3855.7792994023229767
 21
129.3600492437990965
 31
0.0
  0
LINE
  5
8746
  8
0
 10
3855.7792994023229767
 20
129.3600492437990965
 30
0.0
 11
3855.7980317422188818
 21
129.3533595527389934
 31
0.0
  0
LINE
  5
8747
  8
0
 10
3855.7980317422188818
 20
129.3533595527389934
 30
0.0
 11
3855.8069136627841544
 21
129.3476130978972094
 31
0.0
  0
LINE
  5
8748
  8
0
 10
3855.8090422033378672
 20
129.3581694829896094
 30
0.0
 11
3855.7988576585821647
 21
129.3574556417754025
 31
0.0
  0
LINE
  5
8749
  8
0
 10
3855.7988576585821647
 20
129.3574556417754025
 30
0.0
 11
3855.7801294542491632
 21
129.3641658429110066
 31
0.0
  0
LINE
  5
874A
  8
0
 10
3855.7801294542491632
 20
129.3641658429110066
 30
0.0
 11
3855.771594153589831
 21
129.3716313409562133
 31
0.0
  0
LINE
  5
874B
  8
0
 10
3855.771594153589831
 20
129.3716313409562133
 30
0.0
 11
3855.7817868176671254
 21
129.3723854494000136
 31
0.0
  0
LINE
  5
874C
  8
0
 10
3855.7817868176671254
 20
129.3723854494000136
 30
0.0
 11
3855.8005065809220469
 21
129.3656333853408
 31
0.0
  0
LINE
  5
874D
  8
0
 10
3855.8005065809220469
 20
129.3656333853408
 30
0.0
 11
3855.8090422033378672
 21
129.3581694829896094
 31
0.0
  0
LINE
  5
874E
  8
0
 10
3855.8123125926840657
 20
129.3743888063247027
 30
0.0
 11
3855.8017755533101081
 21
129.3719267870120859
 31
0.0
  0
LINE
  5
874F
  8
0
 10
3855.8017755533101081
 20
129.3719267870120859
 30
0.0
 11
3855.7830624591729247
 21
129.3787119264248986
 31
0.0
  0
LINE
  5
8750
  8
0
 10
3855.7830624591729247
 20
129.3787119264248986
 30
0.0
 11
3855.7748991278122048
 21
129.388022186501189
 31
0.0
  0
LINE
  5
8751
  8
0
 10
3855.7748991278122048
 20
129.388022186501189
 30
0.0
 11
3855.7854532861879306
 21
129.3905691068065948
 31
0.0
  0
LINE
  5
8752
  8
0
 10
3855.7854532861879306
 20
129.3905691068065948
 30
0.0
 11
3855.8041534575550031
 21
129.3837198777578976
 31
0.0
  0
LINE
  5
8753
  8
0
 10
3855.8041534575550031
 20
129.3837198777578976
 30
0.0
 11
3855.8123125926840657
 21
129.3743888063247027
 31
0.0
  0
LINE
  5
8754
  8
0
 10
3855.7848242530230891
 20
129.4026904405594962
 30
0.0
 11
3855.7872165928929462
 21
129.3993141339236104
 31
0.0
  0
LINE
  5
8755
  8
0
 10
3855.7872165928929462
 20
129.3993141339236104
 30
0.0
 11
3855.8059068616671539
 21
129.39241579329979
 31
0.0
  0
LINE
  5
8756
  8
0
 10
3855.8059068616671539
 20
129.39241579329979
 30
0.0
 11
3855.8160552474100768
 21
129.3963931674711887
 31
0.0
  0
LINE
  5
8757
  8
0
 10
3855.7812950163879577
 20
129.3614027658045131
 30
0.0
 11
3855.771370086171828
 21
129.3619764690247962
 31
0.0
  0
LINE
  5
8758
  8
0
 10
3855.771370086171828
 20
129.3619764690247962
 30
0.0
 11
3855.7528306785397945
 21
129.3696229977794019
 31
0.0
  0
LINE
  5
8759
  8
0
 10
3855.7528306785397945
 20
129.3696229977794019
 30
0.0
 11
3855.7442250876310936
 21
129.3767398946953051
 31
0.0
  0
LINE
  5
875A
  8
0
 10
3855.7442250876310936
 20
129.3767398946953051
 30
0.0
 11
3855.754154487472988
 21
129.3761883583248959
 31
0.0
  0
LINE
  5
875B
  8
0
 10
3855.754154487472988
 20
129.3761883583248959
 30
0.0
 11
3855.7726849561790914
 21
129.3684974980004938
 31
0.0
  0
LINE
  5
875C
  8
0
 10
3855.7726849561790914
 20
129.3684974980004938
 30
0.0
 11
3855.7812950163879577
 21
129.3614027658045131
 31
0.0
  0
LINE
  5
875D
  8
0
 10
3855.7840023299600034
 20
129.3748295450523926
 30
0.0
 11
3855.7737363629171341
 21
129.3737118940412927
 31
0.0
  0
LINE
  5
875E
  8
0
 10
3855.7737363629171341
 20
129.3737118940412927
 30
0.0
 11
3855.7552131956458652
 21
129.3814389659785036
 31
0.0
  0
LINE
  5
875F
  8
0
 10
3855.7552131956458652
 20
129.3814389659785036
 30
0.0
 11
3855.7469702596549723
 21
129.3903544312344138
 31
0.0
  0
LINE
  5
8760
  8
0
 10
3855.7469702596549723
 20
129.3903544312344138
 30
0.0
 11
3855.7572486530721108
 21
129.3915337097249108
 31
0.0
  0
LINE
  5
8761
  8
0
 10
3855.7572486530721108
 20
129.3915337097249108
 30
0.0
 11
3855.7757573856019917
 21
129.3837350496760905
 31
0.0
  0
LINE
  5
8762
  8
0
 10
3855.7757573856019917
 20
129.3837350496760905
 30
0.0
 11
3855.7840023299600034
 21
129.3748295450523926
 31
0.0
  0
LINE
  5
8763
  8
0
 10
3855.7811885574988082
 20
129.4034235253693055
 30
0.0
 11
3855.7879080420239006
 21
129.3941997181337911
 31
0.0
  0
LINE
  5
8764
  8
0
 10
3855.7879080420239006
 20
129.3941997181337911
 30
0.0
 11
3855.7772742680349438
 21
129.3912579482453964
 31
0.0
  0
LINE
  5
8765
  8
0
 10
3855.7772742680349438
 20
129.3912579482453964
 30
0.0
 11
3855.7588653597667872
 21
129.3995516813212987
 31
0.0
  0
LINE
  5
8766
  8
0
 10
3855.7588653597667872
 20
129.3995516813212987
 30
0.0
 11
3855.7511448028358245
 21
129.409481408937296
 31
0.0
  0
LINE
  5
8767
  8
0
 10
3855.7536142795001979
 20
129.3675147872623938
 30
0.0
 11
3855.7173966458722134
 21
129.3845459980248904
 31
0.0
  0
LINE
  5
8768
  8
0
 10
3855.7173966458722134
 20
129.3845459980248904
 30
0.0
 11
3855.7270665212108725
 21
129.3826910117691114
 31
0.0
  0
LINE
  5
8769
  8
0
 10
3855.7270665212108725
 20
129.3826910117691114
 30
0.0
 11
3855.745404533798137
 21
129.3740456748649024
 31
0.0
  0
LINE
  5
876A
  8
0
 10
3855.745404533798137
 20
129.3740456748649024
 30
0.0
 11
3855.7536142795001979
 21
129.3675147872623938
 31
0.0
  0
LINE
  5
876B
  8
0
 10
3855.7562458645238621
 20
129.3780168121492977
 30
0.0
 11
3855.7462449340318926
 21
129.3782135959278037
 31
0.0
  0
LINE
  5
876C
  8
0
 10
3855.7462449340318926
 20
129.3782135959278037
 30
0.0
 11
3855.7279142231400328
 21
129.3868951442653952
 31
0.0
  0
LINE
  5
876D
  8
0
 10
3855.7279142231400328
 20
129.3868951442653952
 30
0.0
 11
3855.719599250806823
 21
129.3954533495274859
 31
0.0
  0
LINE
  5
876E
  8
0
 10
3855.719599250806823
 20
129.3954533495274859
 30
0.0
 11
3855.7296076432839982
 21
129.3952935728389946
 31
0.0
  0
LINE
  5
876F
  8
0
 10
3855.7296076432839982
 20
129.3952935728389946
 30
0.0
 11
3855.7479234316410839
 21
129.3865380165127021
 31
0.0
  0
LINE
  5
8770
  8
0
 10
3855.7479234316410839
 20
129.3865380165127021
 30
0.0
 11
3855.7562458645238621
 21
129.3780168121492977
 31
0.0
  0
LINE
  5
8771
  8
0
 10
3855.7595704162818038
 20
129.3945047511666928
 30
0.0
 11
3855.7492157830661199
 21
129.3929473649949955
 31
0.0
  0
LINE
  5
8772
  8
0
 10
3855.7492157830661199
 20
129.3929473649949955
 30
0.0
 11
3855.7309118036541804
 21
129.4017614874450999
 31
0.0
  0
LINE
  5
8773
  8
0
 10
3855.7309118036541804
 20
129.4017614874450999
 30
0.0
 11
3855.7229850620838079
 21
129.4122451022296048
 31
0.0
  0
LINE
  5
8774
  8
0
 10
3855.7229850620838079
 20
129.4122451022296048
 30
0.0
 11
3855.7313701932471304
 21
129.4134686696455958
 31
0.0
  0
LINE
  5
8775
  8
0
 10
3855.735819719166102
 20
129.4125714878435929
 30
0.0
 11
3855.7516390190580751
 21
129.4049652764551865
 31
0.0
  0
LINE
  5
8776
  8
0
 10
3855.7516390190580751
 20
129.4049652764551865
 30
0.0
 11
3855.7595704162818038
 21
129.3945047511666928
 31
0.0
  0
LINE
  5
8777
  8
0
 10
3855.7290361982618379
 20
129.3839159129109078
 30
0.0
 11
3855.7192982781698447
 21
129.3854170703143041
 31
0.0
  0
LINE
  5
8778
  8
0
 10
3855.7192982781698447
 20
129.3854170703143041
 30
0.0
 11
3855.7011654006792014
 21
129.3950797641907968
 31
0.0
  0
LINE
  5
8779
  8
0
 10
3855.7011654006792014
 20
129.3950797641907968
 30
0.0
 11
3855.6927848461418762
 21
129.4033127170864077
 31
0.0
  0
LINE
  5
877A
  8
0
 10
3855.6927848461418762
 20
129.4033127170864077
 30
0.0
 11
3855.7025247775600292
 21
129.4018215216669034
 31
0.0
  0
LINE
  5
877B
  8
0
 10
3855.7025247775600292
 20
129.4018215216669034
 30
0.0
 11
3855.7206432213861262
 21
129.3920872456129132
 31
0.0
  0
LINE
  5
877C
  8
0
 10
3855.7206432213861262
 20
129.3920872456129132
 30
0.0
 11
3855.7290361982618379
 21
129.3839159129109078
 31
0.0
  0
LINE
  5
877D
  8
0
 10
3855.7318016095209714
 20
129.3976308118693055
 30
0.0
 11
3855.7217192056068598
 21
129.3974235328576867
 31
0.0
  0
LINE
  5
877E
  8
0
 10
3855.7217192056068598
 20
129.3974235328576867
 30
0.0
 11
3855.703612570785026
 21
129.4072163748010098
 31
0.0
  0
LINE
  5
877F
  8
0
 10
3855.703612570785026
 20
129.4072163748010098
 30
0.0
 11
3855.6956115088519255
 21
129.4173314020978012
 31
0.0
  0
LINE
  5
8780
  8
0
 10
3855.6956115088519255
 20
129.4173314020978012
 30
0.0
 11
3855.7057056128910517
 21
129.4175967071194862
 31
0.0
  0
LINE
  5
8781
  8
0
 10
3855.7057056128910517
 20
129.4175967071194862
 30
0.0
 11
3855.7237888508429933
 21
129.4076878291363926
 31
0.0
  0
LINE
  5
8782
  8
0
 10
3855.7237888508429933
 20
129.4076878291363926
 30
0.0
 11
3855.7318016095209714
 21
129.3976308118693055
 31
0.0
  0
LINE
  5
8783
  8
0
 10
3855.7028619614980016
 20
129.3920802921524
 30
0.0
 11
3855.6666903698060196
 21
129.4138144644489898
 31
0.0
  0
LINE
  5
8784
  8
0
 10
3855.6666903698060196
 20
129.4138144644489898
 30
0.0
 11
3855.6760032710790256
 21
129.4111335027357939
 31
0.0
  0
LINE
  5
8785
  8
0
 10
3855.6760032710790256
 20
129.4111335027357939
 30
0.0
 11
3855.6939168980370596
 21
129.4003834479892134
 31
0.0
  0
LINE
  5
8786
  8
0
 10
3855.6939168980370596
 20
129.4003834479892134
 30
0.0
 11
3855.7028619614980016
 21
129.3920802921524
 31
0.0
  0
LINE
  5
8787
  8
0
 10
3855.7045940516641167
 20
129.4035403573128065
 30
0.0
 11
3855.694781311171937
 21
129.4046704590249135
 31
0.0
  0
LINE
  5
8788
  8
0
 10
3855.694781311171937
 20
129.4046704590249135
 30
0.0
 11
3855.6768788783251694
 21
129.4154760304348031
 31
0.0
  0
LINE
  5
8789
  8
0
 10
3855.6768788783251694
 20
129.4154760304348031
 30
0.0
 11
3855.66881201689921
 21
129.4252647281147119
 31
0.0
  0
LINE
  5
878A
  8
0
 10
3855.66881201689921
 20
129.4252647281147119
 30
0.0
 11
3855.6785600192870334
 21
129.4238135608777043
 31
0.0
  0
LINE
  5
878B
  8
0
 10
3855.6785600192870334
 20
129.4238135608777043
 30
0.0
 11
3855.6965089194450229
 21
129.4132384413894101
 31
0.0
  0
LINE
  5
878C
  8
0
 10
3855.6965089194450229
 20
129.4132384413894101
 30
0.0
 11
3855.7045940516641167
 21
129.4035403573128065
 31
0.0
  0
LINE
  5
878D
  8
0
 10
3855.6605572618868791
 20
129.4277470612150864
 30
0.0
 11
3855.6697993814309484
 21
129.4216178900385046
 31
0.0
  0
LINE
  5
878E
  8
0
 10
3855.6697993814309484
 20
129.4216178900385046
 30
0.0
 11
3855.6779490297881239
 21
129.4122397692200082
 31
0.0
  0
LINE
  5
878F
  8
0
 10
3855.6779490297881239
 20
129.4122397692200082
 30
0.0
 11
3855.6684075947700876
 21
129.4147153974689957
 31
0.0
  0
LINE
  5
8790
  8
0
 10
3855.6684075947700876
 20
129.4147153974689957
 30
0.0
 11
3855.650812391351792
 21
129.4265200160047868
 31
0.0
  0
LINE
  5
8791
  8
0
 10
3855.650812391351792
 20
129.4265200160047868
 30
0.0
 11
3855.6473240546129091
 21
129.4304153438513936
 31
0.0
  0
LINE
  5
8792
  8
0
 10
3855.6402246188517893
 20
129.4318468412031109
 30
0.0
 11
3855.6518767898610349
 21
129.4237798642097914
 31
0.0
  0
LINE
  5
8793
  8
0
 10
3855.6518767898610349
 20
129.4237798642097914
 30
0.0
 11
3855.6454498605148729
 21
129.4307932476706071
 31
0.0
  0
LINE
  5
8794
  8
0
 10
3855.8873407778191904
 20
129.3737510254696872
 30
0.0
 11
3855.8680441010851609
 21
129.3776419180090897
 31
0.0
  0
LINE
  5
8795
  8
0
 10
3855.8680441010851609
 20
129.3776419180090897
 30
0.0
 11
3855.8570139669218406
 21
129.3727344206556893
 31
0.0
  0
LINE
  5
8796
  8
0
 10
3855.8570139669218406
 20
129.3727344206556893
 30
0.0
 11
3855.8652979606890767
 21
129.3640225792777017
 31
0.0
  0
LINE
  5
8797
  8
0
 10
3855.8652979606890767
 20
129.3640225792777017
 30
0.0
 11
3855.8845946373498919
 21
129.3601316867159881
 31
0.0
  0
LINE
  5
8798
  8
0
 10
3855.8831028951722146
 20
129.352733469524793
 30
0.0
 11
3855.8638062184181763
 21
129.3566243620147134
 31
0.0
  0
LINE
  5
8799
  8
0
 10
3855.8638062184181763
 20
129.3566243620147134
 30
0.0
 11
3855.8531591782948453
 21
129.3536167991069874
 31
0.0
  0
LINE
  5
879A
  8
0
 10
3855.8531591782948453
 20
129.3536167991069874
 30
0.0
 11
3855.8618176501900052
 21
129.3467621625173933
 31
0.0
  0
LINE
  5
879B
  8
0
 10
3855.8618176501900052
 20
129.3467621625173933
 30
0.0
 11
3855.8811143268831074
 21
129.3428712699783887
 31
0.0
  0
LINE
  5
879C
  8
0
 10
3855.8800793524487744
 20
129.3377383686112125
 30
0.0
 11
3855.8607826757452131
 21
129.3416292610936011
 31
0.0
  0
LINE
  5
879D
  8
0
 10
3855.8607826757452131
 20
129.3416292610936011
 30
0.0
 11
3855.8504851389479882
 21
129.3403550415252141
 31
0.0
  0
LINE
  5
879E
  8
0
 10
3855.8504851389479882
 20
129.3403550415252141
 30
0.0
 11
3855.8594879367719841
 21
129.3352080712249119
 31
0.0
  0
LINE
  5
879F
  8
0
 10
3855.8594879367719841
 20
129.3352080712249119
 30
0.0
 11
3855.8787846133568564
 21
129.3313171787092131
 31
0.0
  0
LINE
  5
87A0
  8
0
 10
3855.8525600793618651
 20
129.3421019787757018
 30
0.0
 11
3855.854441740294078
 21
129.3501586295334107
 31
0.0
  0
LINE
  5
87A1
  8
0
 10
3855.8554549746800149
 20
129.3564590596654114
 30
0.0
 11
3855.8578132278648809
 21
129.368154691888293
 31
0.0
  0
LINE
  5
87A2
  8
0
 10
3855.8595515854158293
 20
129.376775985004798
 30
0.0
 11
3855.8619954889791188
 21
129.387129989894504
 31
0.0
  0
LINE
  5
87A3
  8
0
 10
3855.8652979606890767
 20
129.3640225792777017
 30
0.0
 11
3855.8680441010851609
 21
129.3776419180090897
 31
0.0
  0
LINE
  5
87A4
  8
0
 10
3855.8618176501900052
 20
129.3467621625173933
 30
0.0
 11
3855.8638062184008959
 21
129.3566243620180103
 31
0.0
  0
LINE
  5
87A5
  8
0
 10
3855.8594879367719841
 20
129.3352080712249119
 30
0.0
 11
3855.8607826757452131
 21
129.3416292610936011
 31
0.0
  0
LINE
  5
87A6
  8
0
 10
3855.8334511204229784
 20
129.3469238474150131
 30
0.0
 11
3855.8350180794759581
 21
129.354695098200807
 31
0.0
  0
LINE
  5
87A7
  8
0
 10
3855.8363509086320846
 20
129.3613051947127133
 30
0.0
 11
3855.8387133405972236
 21
129.3730215511698134
 31
0.0
  0
LINE
  5
87A8
  8
0
 10
3855.8404548965968388
 20
129.381658706417511
 30
0.0
 11
3855.842672307840985
 21
129.3910262266601876
 31
0.0
  0
LINE
  5
87A9
  8
0
 10
3855.8245456476811341
 20
129.3440098757579904
 30
0.0
 11
3855.8258442659171124
 21
129.3504503040032034
 31
0.0
  0
LINE
  5
87AA
  8
0
 10
3855.8268824054130164
 20
129.3555989025178121
 30
0.0
 11
3855.8288772216528741
 21
129.3654920885900026
 31
0.0
  0
LINE
  5
87AB
  8
0
 10
3855.8303738007712127
 20
129.3729142937787913
 30
0.0
 11
3855.8331292007960656
 21
129.3865795552418945
 31
0.0
  0
LINE
  5
87AC
  8
0
 10
3855.8114705167099601
 20
129.3787561960238008
 30
0.0
 11
3855.8142361533291478
 21
129.3924722252750996
 31
0.0
  0
LINE
  5
87AD
  8
0
 10
3855.8079668742598187
 20
129.3613800658681896
 30
0.0
 11
3855.8099685926690654
 21
129.3713074829107939
 31
0.0
  0
LINE
  5
87AE
  8
0
 10
3855.8056223376688649
 20
129.349752460009114
 30
0.0
 11
3855.8069252390328074
 21
129.3562141310416109
 31
0.0
  0
LINE
  5
87AF
  8
0
 10
3855.7988576585821647
 20
129.3574556417754025
 30
0.0
 11
3855.8005065809220469
 21
129.3656333853408
 31
0.0
  0
LINE
  5
87B0
  8
0
 10
3855.8017755533101081
 20
129.3719267870120859
 30
0.0
 11
3855.8041534575550031
 21
129.3837198777578976
 31
0.0
  0
LINE
  5
87B1
  8
0
 10
3855.8059068616671539
 20
129.39241579329979
 30
0.0
 11
3855.8078634218932166
 21
129.3980449292349988
 31
0.0
  0
LINE
  5
87B2
  8
0
 10
3855.7872165928929462
 20
129.3993141339236104
 30
0.0
 11
3855.7880620906198601
 21
129.4020375779797973
 31
0.0
  0
LINE
  5
87B3
  8
0
 10
3855.7830624591729247
 20
129.3787119264248986
 30
0.0
 11
3855.7854532861879306
 21
129.3905691068065948
 31
0.0
  0
LINE
  5
87B4
  8
0
 10
3855.7801294542491632
 20
129.3641658429110066
 30
0.0
 11
3855.7817868176671254
 21
129.3723854494000136
 31
0.0
  0
LINE
  5
87B5
  8
0
 10
3855.7772742680349438
 20
129.3912579482453964
 30
0.0
 11
3855.7807174286022018
 21
129.4035185216185084
 31
0.0
  0
LINE
  5
87B6
  8
0
 10
3855.7588653597667872
 20
129.3995516813212987
 30
0.0
 11
3855.7611448640159324
 21
129.4074650429078872
 31
0.0
  0
LINE
  5
87B7
  8
0
 10
3855.7737363629171341
 20
129.3737118940412927
 30
0.0
 11
3855.7757573856019917
 21
129.3837350496760905
 31
0.0
  0
LINE
  5
87B8
  8
0
 10
3855.7552131956458652
 20
129.3814389659785036
 30
0.0
 11
3855.7572486530721108
 21
129.3915337097249108
 31
0.0
  0
LINE
  5
87B9
  8
0
 10
3855.7528306785397945
 20
129.3696229977794019
 30
0.0
 11
3855.754154487472988
 21
129.3761883583248959
 31
0.0
  0
LINE
  5
87BA
  8
0
 10
3855.771370086171828
 20
129.3619764690247962
 30
0.0
 11
3855.7726849561790914
 21
129.3684974980004938
 31
0.0
  0
LINE
  5
87BB
  8
0
 10
3855.7462449340318926
 20
129.3782135959278037
 30
0.0
 11
3855.7479234316410839
 21
129.3865380165127021
 31
0.0
  0
LINE
  5
87BC
  8
0
 10
3855.7492157830661199
 20
129.3929473649949955
 30
0.0
 11
3855.7516390190580751
 21
129.4049652764551865
 31
0.0
  0
LINE
  5
87BD
  8
0
 10
3855.7309118036541804
 20
129.4017614874450999
 30
0.0
 11
3855.7338502841212176
 21
129.4129685956062019
 31
0.0
  0
LINE
  5
87BE
  8
0
 10
3855.7279142231400328
 20
129.3868951442653952
 30
0.0
 11
3855.7296076432839982
 21
129.3952935728389946
 31
0.0
  0
LINE
  5
87BF
  8
0
 10
3855.7217192056068598
 20
129.3974235328576867
 30
0.0
 11
3855.7237888508429933
 21
129.4076878291363926
 31
0.0
  0
LINE
  5
87C0
  8
0
 10
3855.703612570785026
 20
129.4072163748010098
 30
0.0
 11
3855.7057056128910517
 21
129.4175967071194862
 31
0.0
  0
LINE
  5
87C1
  8
0
 10
3855.7011654006792014
 20
129.3950797641907968
 30
0.0
 11
3855.7022050660320929
 21
129.4018704698931117
 31
0.0
  0
LINE
  5
87C2
  8
0
 10
3855.7192982781698447
 20
129.3854170703143041
 30
0.0
 11
3855.7206432213861262
 21
129.3920872456129132
 31
0.0
  0
LINE
  5
87C3
  8
0
 10
3855.6945521542761526
 20
129.4042907969237035
 30
0.0
 11
3855.6965089194450229
 21
129.4132384413894101
 31
0.0
  0
LINE
  5
87C4
  8
0
 10
3855.6768788783251694
 20
129.4154760304348031
 30
0.0
 11
3855.6785600192870334
 21
129.4238135608777043
 31
0.0
  0
LINE
  5
87C5
  8
0
 10
3855.6684075947700876
 20
129.4147153974689957
 30
0.0
 11
3855.6697993814309484
 21
129.4216178900385046
 31
0.0
  0
LINE
  5
87C6
  8
0
 10
3855.8770256134121155
 20
129.3299112265328858
 30
0.0
 11
3855.9157639478148667
 21
129.3240733247972969
 31
0.0
  0
LINE
  5
87C7
  8
0
 10
3855.9157639478148667
 20
129.3240733247972969
 30
0.0
 11
3855.9065060828302194
 21
129.3279563510035928
 31
0.0
  0
LINE
  5
87C8
  8
0
 10
3855.9065060828302194
 20
129.3279563510035928
 30
0.0
 11
3855.8870230289621759
 21
129.3309229153109925
 31
0.0
  0
LINE
  5
87C9
  8
0
 10
3855.8870230289621759
 20
129.3309229153109925
 30
0.0
 11
3855.8770256134121155
 21
129.3299112265328858
 31
0.0
  0
LINE
  5
87CA
  8
0
 10
3855.878914974494819
 20
129.3405073189026098
 30
0.0
 11
3855.8878426464520999
 21
129.3349877653193118
 31
0.0
  0
LINE
  5
87CB
  8
0
 10
3855.8878426464520999
 20
129.3349877653193118
 30
0.0
 11
3855.9073270408148346
 21
129.3320278489005943
 31
0.0
  0
LINE
  5
87CC
  8
0
 10
3855.9073270408148346
 20
129.3320278489005943
 30
0.0
 11
3855.9178864683440224
 21
129.3346009014414051
 31
0.0
  0
LINE
  5
87CD
  8
0
 10
3855.9178864683440224
 20
129.3346009014414051
 30
0.0
 11
3855.9088939998150636
 21
129.3397990996969042
 31
0.0
  0
LINE
  5
87CE
  8
0
 10
3855.9088939998150636
 20
129.3397990996969042
 30
0.0
 11
3855.8894787176118371
 21
129.3431017744823919
 31
0.0
  0
LINE
  5
87CF
  8
0
 10
3855.8894787176118371
 20
129.3431017744823919
 30
0.0
 11
3855.878914974494819
 21
129.3405073189026098
 31
0.0
  0
LINE
  5
87D0
  8
0
 10
3855.8821648103858024
 20
129.3566247087981083
 30
0.0
 11
3855.8907375417579715
 21
129.3493448462114088
 31
0.0
  0
LINE
  5
87D1
  8
0
 10
3855.8907375417579715
 20
129.3493448462114088
 30
0.0
 11
3855.9102268291558175
 21
129.3464091961716065
 31
0.0
  0
LINE
  5
87D2
  8
0
 10
3855.9102268291558175
 20
129.3464091961716065
 30
0.0
 11
3855.9211474969988558
 21
129.3507738016106998
 31
0.0
  0
LINE
  5
87D3
  8
0
 10
3855.9211474969988558
 20
129.3507738016106998
 30
0.0
 11
3855.9125892609299626
 21
129.3581255526671896
 31
0.0
  0
LINE
  5
87D4
  8
0
 10
3855.9125892609299626
 20
129.3581255526671896
 30
0.0
 11
3855.8930957948309697
 21
129.3610404784569141
 31
0.0
  0
LINE
  5
87D5
  8
0
 10
3855.8930957948309697
 20
129.3610404784569141
 30
0.0
 11
3855.8821648103858024
 21
129.3566247087981083
 31
0.0
  0
LINE
  5
87D6
  8
0
 10
3855.8910375626091991
 20
129.3812740806451984
 30
0.0
 11
3855.8866532574188568
 21
129.3788849254559068
 31
0.0
  0
LINE
  5
87D7
  8
0
 10
3855.8866532574188568
 20
129.3788849254559068
 30
0.0
 11
3855.8948341525219803
 21
129.3696617715449975
 31
0.0
  0
LINE
  5
87D8
  8
0
 10
3855.8948341525219803
 20
129.3696617715449975
 30
0.0
 11
3855.9143308169109332
 21
129.3667627079188094
 31
0.0
  0
LINE
  5
87D9
  8
0
 10
3855.9143308169109332
 20
129.3667627079188094
 30
0.0
 11
3855.9256525409768983
 21
129.3731163299038087
 31
0.0
  0
LINE
  5
87DA
  8
0
 10
3855.9256525409768983
 20
129.3731163299038087
 30
0.0
 11
3855.9202661343078944
 21
129.3753805667788015
 31
0.0
  0
LINE
  5
87DB
  8
0
 10
3855.9052193008487848
 20
129.3301182447466999
 30
0.0
 11
3855.9144074585451563
 21
129.325890556309588
 31
0.0
  0
LINE
  5
87DC
  8
0
 10
3855.9144074585451563
 20
129.325890556309588
 30
0.0
 11
3855.9340775016539737
 21
129.3238513555390057
 31
0.0
  0
LINE
  5
87DD
  8
0
 10
3855.9340775016539737
 20
129.3238513555390057
 30
0.0
 11
3855.9445636369819113
 21
129.3260609192637958
 31
0.0
  0
LINE
  5
87DE
  8
0
 10
3855.9445636369819113
 20
129.3260609192637958
 30
0.0
 11
3855.935380403138879
 21
129.3303130265470884
 31
0.0
  0
LINE
  5
87DF
  8
0
 10
3855.935380403138879
 20
129.3303130265470884
 30
0.0
 11
3855.9157060765760434
 21
129.3323309845960125
 31
0.0
  0
LINE
  5
87E0
  8
0
 10
3855.9157060765760434
 20
129.3323309845960125
 30
0.0
 11
3855.9052193008487848
 21
129.3301182447466999
 31
0.0
  0
LINE
  5
87E1
  8
0
 10
3855.9078970477057737
 20
129.3433983892745118
 30
0.0
 11
3855.9167442162051884
 21
129.3374795830837911
 31
0.0
  0
LINE
  5
87E2
  8
0
 10
3855.9167442162051884
 20
129.3374795830837911
 30
0.0
 11
3855.9364220382722124
 21
129.3354789613929086
 31
0.0
  0
LINE
  5
87E3
  8
0
 10
3855.9364220382722124
 20
129.3354789613929086
 30
0.0
 11
3855.947259504718204
 21
129.3394309331536078
 31
0.0
  0
LINE
  5
87E4
  8
0
 10
3855.947259504718204
 20
129.3394309331536078
 30
0.0
 11
3855.9384237566728189
 21
129.3454063784369055
 31
0.0
  0
LINE
  5
87E5
  8
0
 10
3855.9384237566728189
 20
129.3454063784369055
 30
0.0
 11
3855.9187390324259468
 21
129.3473727691597048
 31
0.0
  0
LINE
  5
87E6
  8
0
 10
3855.9187390324259468
 20
129.3473727691597048
 30
0.0
 11
3855.9078970477057737
 21
129.3433983892745118
 31
0.0
  0
LINE
  5
87E7
  8
0
 10
3855.9117575046539059
 20
129.3625441221695098
 30
0.0
 11
3855.920235611483804
 21
129.3547949743606864
 31
0.0
  0
LINE
  5
87E8
  8
0
 10
3855.920235611483804
 20
129.3547949743606864
 30
0.0
 11
3855.939925680676879
 21
129.3528550915573021
 31
0.0
  0
LINE
  5
87E9
  8
0
 10
3855.939925680676879
 20
129.3528550915573021
 30
0.0
 11
3855.9511476865941404
 21
129.3587141668394906
 31
0.0
  0
LINE
  5
87EA
  8
0
 10
3855.9511476865941404
 20
129.3587141668394906
 30
0.0
 11
3855.9426913173128924
 21
129.366571120805304
 31
0.0
  0
LINE
  5
87EB
  8
0
 10
3855.9426913173128924
 20
129.366571120805304
 30
0.0
 11
3855.9229910115500388
 21
129.3684602358154905
 31
0.0
  0
LINE
  5
87EC
  8
0
 10
3855.9229910115500388
 20
129.3684602358154905
 30
0.0
 11
3855.9117575046539059
 21
129.3625441221695098
 31
0.0
  0
LINE
  5
87ED
  8
0
 10
3855.9320580404501015
 20
129.3223795650501984
 30
0.0
 11
3855.9712591144311773
 21
129.3200635487694967
 31
0.0
  0
LINE
  5
87EE
  8
0
 10
3855.9712591144311773
 20
129.3200635487694967
 30
0.0
 11
3855.9623338100000183
 21
129.3231430333532899
 31
0.0
  0
LINE
  5
87EF
  8
0
 10
3855.9623338100000183
 20
129.3231430333532899
 30
0.0
 11
3855.9424727965520105
 21
129.324235127359799
 31
0.0
  0
LINE
  5
87F0
  8
0
 10
3855.9424727965520105
 20
129.324235127359799
 30
0.0
 11
3855.9320580404501015
 21
129.3223795650501984
 31
0.0
  0
LINE
  5
87F1
  8
0
 10
3855.9341865811111347
 20
129.3329359501211968
 30
0.0
 11
3855.9432987130380752
 21
129.3283312163713958
 31
0.0
  0
LINE
  5
87F2
  8
0
 10
3855.9432987130380752
 20
129.3283312163713958
 30
0.0
 11
3855.963163862035799
 21
129.3272596324434005
 31
0.0
  0
LINE
  5
87F3
  8
0
 10
3855.963163862035799
 20
129.3272596324434005
 30
0.0
 11
3855.9739252380559265
 21
129.3308342379536953
 31
0.0
  0
LINE
  5
87F4
  8
0
 10
3855.9739252380559265
 20
129.3308342379536953
 30
0.0
 11
3855.9648212254060127
 21
129.335479238942014
 31
0.0
  0
LINE
  5
87F5
  8
0
 10
3855.9648212254060127
 20
129.335479238942014
 30
0.0
 11
3855.944947635391145
 21
129.3365089599342923
 31
0.0
  0
LINE
  5
87F6
  8
0
 10
3855.944947635391145
 20
129.3365089599342923
 30
0.0
 11
3855.9341865811111347
 21
129.3329359501211968
 31
0.0
  0
LINE
  5
87F7
  8
0
 10
3855.937456970284984
 20
129.3491552734909078
 30
0.0
 11
3855.9462166077478287
 21
129.3428023616116036
 31
0.0
  0
LINE
  5
87F8
  8
0
 10
3855.9462166077478287
 20
129.3428023616116036
 30
0.0
 11
3855.9660968669650174
 21
129.3418057159558998
 31
0.0
  0
LINE
  5
87F9
  8
0
 10
3855.9660968669650174
 20
129.3418057159558998
 30
0.0
 11
3855.9772302122360088
 21
129.3472250835073964
 31
0.0
  0
LINE
  5
87FA
  8
0
 10
3855.9772302122360088
 20
129.3472250835073964
 30
0.0
 11
3855.9684876938508751
 21
129.3536628963638009
 31
0.0
  0
LINE
  5
87FB
  8
0
 10
3855.9684876938508751
 20
129.3536628963638009
 30
0.0
 11
3855.9485945119290591
 21
129.3545954523704893
 31
0.0
  0
LINE
  5
87FC
  8
0
 10
3855.9485945119290591
 20
129.3545954523704893
 30
0.0
 11
3855.937456970284984
 21
129.3491552734909078
 31
0.0
  0
LINE
  5
87FD
  8
0
 10
3855.973764782111175
 20
129.3645933471402998
 30
0.0
 11
3855.9702510006909506
 21
129.3624079234535031
 31
0.0
  0
LINE
  5
87FE
  8
0
 10
3855.9702510006909506
 20
129.3624079234535031
 30
0.0
 11
3855.950347916103965
 21
129.3632913678997056
 31
0.0
  0
LINE
  5
87FF
  8
0
 10
3855.950347916103965
 20
129.3632913678997056
 30
0.0
 11
3855.9425337877269158
 21
129.3708906202450919
 31
0.0
  0
LINE
  5
8800
  8
0
 10
3855.9610186378031358
 20
129.3251641269704919
 30
0.0
 11
3855.9703903841891588
 21
129.3218469376716939
 31
0.0
  0
LINE
  5
8801
  8
0
 10
3855.9703903841891588
 20
129.3218469376716939
 30
0.0
 11
3855.9904443300119965
 21
129.3217116813374901
 31
0.0
  0
LINE
  5
8802
  8
0
 10
3855.9904443300119965
 20
129.3217116813374901
 30
0.0
 11
3856.0011354156531524
 21
129.3249376857446009
 31
0.0
  0
LINE
  5
8803
  8
0
 10
3856.0011354156531524
 20
129.3249376857446009
 30
0.0
 11
3855.9917681388828896
 21
129.3282770418950918
 31
0.0
  0
LINE
  5
8804
  8
0
 10
3855.9917681388828896
 20
129.3282770418950918
 30
0.0
 11
3855.9717052543519458
 21
129.3283679666160992
 31
0.0
  0
LINE
  5
8805
  8
0
 10
3855.9717052543519458
 20
129.3283679666160992
 30
0.0
 11
3855.9610186378031358
 21
129.3251641269704919
 31
0.0
  0
LINE
  5
8806
  8
0
 10
3855.9637259514220204
 20
129.3385909062087933
 30
0.0
 11
3855.972756660964933
 21
129.3335823626821082
 31
0.0
  0
LINE
  5
8807
  8
0
 10
3855.972756660964933
 20
129.3335823626821082
 30
0.0
 11
3855.9928268471358024
 21
129.3335276495330106
 31
0.0
  0
LINE
  5
8808
  8
0
 10
3855.9928268471358024
 20
129.3335276495330106
 30
0.0
 11
3856.0038805878361927
 21
129.3385522222519057
 31
0.0
  0
LINE
  5
8809
  8
0
 10
3856.0038805878361927
 20
129.3385522222519057
 30
0.0
 11
3855.9948623044861051
 21
129.3436223932945097
 31
0.0
  0
LINE
  5
880A
  8
0
 10
3855.9948623044861051
 20
129.3436223932945097
 30
0.0
 11
3855.9747776836620687
 21
129.3436055183146038
 31
0.0
  0
LINE
  5
880B
  8
0
 10
3855.9747776836620687
 20
129.3436055183146038
 30
0.0
 11
3855.9637259514220204
 21
129.3385909062087933
 31
0.0
  0
LINE
  5
880C
  8
0
 10
3855.9774004776340917
 20
129.363860262328501
 30
0.0
 11
3855.9676316633799615
 21
129.3579610793119059
 31
0.0
  0
LINE
  5
880D
  8
0
 10
3855.9676316633799615
 20
129.3579610793119059
 30
0.0
 11
3855.9762945660959303
 21
129.3511284168833981
 31
0.0
  0
LINE
  5
880E
  8
0
 10
3855.9762945660959303
 20
129.3511284168833981
 30
0.0
 11
3855.9964790111271213
 21
129.3516403649020106
 31
0.0
  0
LINE
  5
880F
  8
0
 10
3855.9964790111271213
 20
129.3516403649020106
 30
0.0
 11
3856.0074442322948016
 21
129.3578023787445943
 31
0.0
  0
LINE
  5
8810
  8
0
 10
3855.9889049927260203
 20
129.3200718573322092
 30
0.0
 11
3856.0288925542331526
 21
129.3217374054065942
 31
0.0
  0
LINE
  5
8811
  8
0
 10
3856.0288925542331526
 20
129.3217374054065942
 30
0.0
 11
3856.0192594163909234
 21
129.3237745893484032
 31
0.0
  0
LINE
  5
8812
  8
0
 10
3856.0192594163909234
 20
129.3237745893484032
 30
0.0
 11
3855.9990040755128575
 21
129.322911037534908
 31
0.0
  0
LINE
  5
8813
  8
0
 10
3855.9990040755128575
 20
129.322911037534908
 30
0.0
 11
3855.9889049927260203
 21
129.3200718573322092
 31
0.0
  0
LINE
  5
8814
  8
0
 10
3855.9905487298010485
 20
129.3307730673053868
 30
0.0
 11
3855.9998444758830374
 21
129.3270789585704961
 31
0.0
  0
LINE
  5
8815
  8
0
 10
3855.9998444758830374
 20
129.3270789585704961
 30
0.0
 11
3856.0201071180918007
 21
129.3279787218905028
 31
0.0
  0
LINE
  5
8816
  8
0
 10
3856.0201071180918007
 20
129.3279787218905028
 30
0.0
 11
3856.0310888226249517
 21
129.3326460345803071
 31
0.0
  0
LINE
  5
8817
  8
0
 10
3856.0310888226249517
 20
129.3326460345803071
 30
0.0
 11
3856.0218005384390381
 21
129.3363771504232886
 31
0.0
  0
LINE
  5
8818
  8
0
 10
3856.0218005384390381
 20
129.3363771504232886
 30
0.0
 11
3856.0015229735140565
 21
129.3354033791509039
 31
0.0
  0
LINE
  5
8819
  8
0
 10
3856.0015229735140565
 20
129.3354033791509039
 30
0.0
 11
3855.9905487298010485
 21
129.3307730673053868
 31
0.0
  0
LINE
  5
881A
  8
0
 10
3855.9938732814048308
 20
129.3472610063541026
 30
0.0
 11
3856.0028153247958471
 21
129.3418127276619884
 31
0.0
  0
LINE
  5
881B
  8
0
 10
3856.0028153247958471
 20
129.3418127276619884
 30
0.0
 11
3856.0231046987742047
 21
129.3428450650364141
 31
0.0
  0
LINE
  5
881C
  8
0
 10
3856.0231046987742047
 20
129.3428450650364141
 30
0.0
 11
3856.034474633874197
 21
129.3494377872881103
 31
0.0
  0
LINE
  5
881D
  8
0
 10
3856.034474633874197
 20
129.3494377872881103
 30
0.0
 11
3856.0272188418821315
 21
129.3538151180258922
 31
0.0
  0
LINE
  5
881E
  8
0
 10
3856.0227693159631599
 20
129.3547122998303109
 30
0.0
 11
3856.0052385608410077
 21
129.3538306391116066
 31
0.0
  0
LINE
  5
881F
  8
0
 10
3856.0052385608410077
 20
129.3538306391116066
 30
0.0
 11
3855.9938732814048308
 21
129.3472610063541026
 31
0.0
  0
LINE
  5
8820
  8
0
 10
3856.0179183119830668
 20
129.3256670611334869
 30
0.0
 11
3856.0274770635792265
 21
129.3232773270084124
 31
0.0
  0
LINE
  5
8821
  8
0
 10
3856.0274770635792265
 20
129.3232773270084124
 30
0.0
 11
3856.0479375396557771
 21
129.3251582357733014
 31
0.0
  0
LINE
  5
8822
  8
0
 10
3856.0479375396557771
 20
129.3251582357733014
 30
0.0
 11
3856.0588536616451165
 21
129.3295002961650937
 31
0.0
  0
LINE
  5
8823
  8
0
 10
3856.0588536616451165
 20
129.3295002961650937
 30
0.0
 11
3856.0492969163051384
 21
129.3318999932961901
 31
0.0
  0
LINE
  5
8824
  8
0
 10
3856.0492969163051384
 20
129.3318999932961901
 30
0.0
 11
3856.0288220068828196
 21
129.3299475022892864
 31
0.0
  0
LINE
  5
8825
  8
0
 10
3856.0288220068828196
 20
129.3299475022892864
 30
0.0
 11
3856.0179183119830668
 21
129.3256670611334869
 31
0.0
  0
LINE
  5
8826
  8
0
 10
3856.0206837183641255
 20
129.3393819610753042
 30
0.0
 11
3856.0298979911622155
 21
129.3352837895222081
 31
0.0
  0
LINE
  5
8827
  8
0
 10
3856.0298979911622155
 20
129.3352837895222081
 30
0.0
 11
3856.0503847094942103
 21
129.3372948464376861
 31
0.0
  0
LINE
  5
8828
  8
0
 10
3856.0503847094942103
 20
129.3372948464376861
 30
0.0
 11
3856.0616803244010953
 21
129.343518981167108
 31
0.0
  0
LINE
  5
8829
  8
0
 10
3856.0616803244010953
 20
129.343518981167108
 30
0.0
 11
3856.052477751672086
 21
129.3476751787416106
 31
0.0
  0
LINE
  5
882A
  8
0
 10
3856.052477751672086
 20
129.3476751787416106
 30
0.0
 11
3856.0319676362778409
 21
129.3455480858254987
 31
0.0
  0
LINE
  5
882B
  8
0
 10
3856.0319676362778409
 20
129.3455480858254987
 30
0.0
 11
3856.0206837183641255
 21
129.3393819610753042
 31
0.0
  0
LINE
  5
882C
  8
0
 10
3856.0452112005859817
 20
129.3230505767888872
 30
0.0
 11
3856.0869787886272206
 21
129.3290694537718934
 31
0.0
  0
LINE
  5
882D
  8
0
 10
3856.0869787886272206
 20
129.3290694537718934
 30
0.0
 11
3856.0773546536588583
 21
129.3302068683607899
 31
0.0
  0
LINE
  5
882E
  8
0
 10
3856.0773546536588583
 20
129.3302068683607899
 30
0.0
 11
3856.0566749272838933
 21
129.3272385986784911
 31
0.0
  0
LINE
  5
882F
  8
0
 10
3856.0566749272838933
 20
129.3272385986784911
 30
0.0
 11
3856.0452112005859817
 21
129.3230505767888872
 31
0.0
  0
LINE
  5
8830
  8
0
 10
3856.0480554043620032
 20
129.3342864005105923
 30
0.0
 11
3856.0575393402650661
 21
129.331525609745114
 31
0.0
  0
LINE
  5
8831
  8
0
 10
3856.0575393402650661
 20
129.331525609745114
 30
0.0
 11
3856.0782302607740348
 21
129.3345493960864019
 31
0.0
  0
LINE
  5
8832
  8
0
 10
3856.0782302607740348
 20
129.3345493960864019
 30
0.0
 11
3856.0894600759970672
 21
129.3404472012373105
 31
0.0
  0
LINE
  5
8833
  8
0
 10
3856.0894600759970672
 20
129.3404472012373105
 30
0.0
 11
3856.0799114018709588
 21
129.3428869265019046
 31
0.0
  0
LINE
  5
8834
  8
0
 10
3856.0799114018709588
 20
129.3428869265019046
 30
0.0
 11
3856.0592669485731676
 21
129.3400935921025905
 31
0.0
  0
LINE
  5
8835
  8
0
 10
3856.0592669485731676
 20
129.3400935921025905
 30
0.0
 11
3856.0480554043620032
 21
129.3342864005105923
 31
0.0
  0
LINE
  5
8836
  8
0
 10
3856.0980317732341973
 20
129.3395367264191123
 30
0.0
 11
3856.0871366544211014
 21
129.3374679347417953
 31
0.0
  0
LINE
  5
8837
  8
0
 10
3856.0871366544211014
 20
129.3374679347417953
 30
0.0
 11
3856.0759896259091875
 21
129.3319807064962106
 31
0.0
  0
LINE
  5
8838
  8
0
 10
3856.0759896259091875
 20
129.3319807064962106
 30
0.0
 11
3856.0857448677988941
 21
129.3305654421644988
 31
0.0
  0
LINE
  5
8839
  8
0
 10
3856.0857448677988941
 20
129.3305654421644988
 30
0.0
 11
3856.106539711151072
 21
129.3346292694301098
 31
0.0
  0
LINE
  5
883A
  8
0
 10
3856.106539711151072
 20
129.3346292694301098
 30
0.0
 11
3856.1112649805058936
 21
129.3368684437756997
 31
0.0
  0
LINE
  5
883B
  8
0
 10
3856.1183644162661039
 20
129.3354369464202875
 30
0.0
 11
3856.1044966298559302
 21
129.3325156954740862
 31
0.0
  0
LINE
  5
883C
  8
0
 10
3856.1044966298559302
 20
129.3325156954740862
 30
0.0
 11
3856.1131391746048394
 21
129.3364905399554914
 31
0.0
  0
LINE
  5
883D
  8
0
 10
3855.887340777800091
 20
129.3737510254672998
 30
0.0
 11
3855.8956073203239612
 21
129.3649526355777084
 31
0.0
  0
LINE
  5
883E
  8
0
 10
3855.8956073203239612
 20
129.3649526355777084
 30
0.0
 11
3855.8845946373980951
 21
129.3601316867367927
 31
0.0
  0
LINE
  5
883F
  8
0
 10
3855.8831028951249209
 20
129.3527334694746003
 30
0.0
 11
3855.8917525315800958
 21
129.3458350140523976
 31
0.0
  0
LINE
  5
8840
  8
0
 10
3855.8917525315800958
 20
129.3458350140523976
 30
0.0
 11
3855.8811143268708292
 21
129.3428712699823961
 31
0.0
  0
LINE
  5
8841
  8
0
 10
3855.8800793523669199
 20
129.3377383685705126
 30
0.0
 11
3855.8890784921468367
 21
129.3325732564879047
 31
0.0
  0
LINE
  5
8842
  8
0
 10
3855.8890784921468367
 20
129.3325732564879047
 30
0.0
 11
3855.8787846133568564
 21
129.3313171787092131
 31
0.0
  0
LINE
  5
8843
  8
0
 10
3855.8878426464520999
 20
129.3349877653193118
 30
0.0
 11
3855.889230090322144
 21
129.3431440677169917
 31
0.0
  0
LINE
  5
8844
  8
0
 10
3855.8907375417579715
 20
129.3493448462114088
 30
0.0
 11
3855.8930957948309697
 21
129.3610404784569141
 31
0.0
  0
LINE
  5
8845
  8
0
 10
3855.8948341525219803
 20
129.3696617715449975
 30
0.0
 11
3855.896593546162876
 21
129.3801537978461056
 31
0.0
  0
LINE
  5
8846
  8
0
 10
3855.8845946373980951
 20
129.3601316867367927
 30
0.0
 11
3855.887340777800091
 21
129.3737510254672998
 31
0.0
  0
LINE
  5
8847
  8
0
 10
3855.8811143268708292
 20
129.3428712699823961
 30
0.0
 11
3855.8831028951408371
 21
129.3527334694711897
 31
0.0
  0
LINE
  5
8848
  8
0
 10
3855.8787846133568564
 20
129.3313171787092131
 30
0.0
 11
3855.8800793523669199
 21
129.3377383685705126
 31
0.0
  0
LINE
  5
8849
  8
0
 10
3855.9073270408148346
 20
129.3320278489005943
 30
0.0
 11
3855.9088939998150636
 21
129.3397990996969042
 31
0.0
  0
LINE
  5
884A
  8
0
 10
3855.9102268291558175
 20
129.3464091961716065
 30
0.0
 11
3855.9125892609299626
 21
129.3581255526671896
 31
0.0
  0
LINE
  5
884B
  8
0
 10
3855.9143308169109332
 20
129.3667627079188094
 30
0.0
 11
3855.9159167272991908
 21
129.3762575610701049
 31
0.0
  0
LINE
  5
884C
  8
0
 10
3855.9144074585451563
 20
129.325890556309588
 30
0.0
 11
3855.9157060765760434
 21
129.3323309845960125
 31
0.0
  0
LINE
  5
884D
  8
0
 10
3855.9167442162051884
 20
129.3374795830837911
 30
0.0
 11
3855.9187390324259468
 21
129.3473727691597048
 31
0.0
  0
LINE
  5
884E
  8
0
 10
3855.920235611483804
 20
129.3547949743606864
 30
0.0
 11
3855.9229910115500388
 21
129.3684602358154905
 31
0.0
  0
LINE
  5
884F
  8
0
 10
3855.939925680676879
 20
129.3528550915573021
 30
0.0
 11
3855.9426913173128924
 21
129.366571120805304
 31
0.0
  0
LINE
  5
8850
  8
0
 10
3855.9364220382722124
 20
129.3354789613929086
 30
0.0
 11
3855.9384237566728189
 21
129.3454063784369055
 31
0.0
  0
LINE
  5
8851
  8
0
 10
3855.9340775016539737
 20
129.3238513555390057
 30
0.0
 11
3855.935380403138879
 21
129.3303130265470884
 31
0.0
  0
LINE
  5
8852
  8
0
 10
3855.9432987130380752
 20
129.3283312163713958
 30
0.0
 11
3855.944947635391145
 21
129.3365089599342923
 31
0.0
  0
LINE
  5
8853
  8
0
 10
3855.9462166077478287
 20
129.3428023616116036
 30
0.0
 11
3855.9485945119290591
 21
129.3545954523704893
 31
0.0
  0
LINE
  5
8854
  8
0
 10
3855.950347916103965
 20
129.3632913678997056
 30
0.0
 11
3855.950725613243776
 21
129.3692388584769901
 31
0.0
  0
LINE
  5
8855
  8
0
 10
3855.9702510006909506
 20
129.3624079234535031
 30
0.0
 11
3855.9705269445139493
 21
129.365246209721704
 31
0.0
  0
LINE
  5
8856
  8
0
 10
3855.9660968669650174
 20
129.3418057159558998
 30
0.0
 11
3855.9684876938508751
 21
129.3536628963638009
 31
0.0
  0
LINE
  5
8857
  8
0
 10
3855.963163862035799
 20
129.3272596324434005
 30
0.0
 11
3855.9648212254060127
 21
129.335479238942014
 31
0.0
  0
LINE
  5
8858
  8
0
 10
3855.9762945660959303
 20
129.3511284168833981
 30
0.0
 11
3855.9778716065311528
 21
129.3637652660790991
 31
0.0
  0
LINE
  5
8859
  8
0
 10
3855.9964790111271213
 20
129.3516403649020106
 30
0.0
 11
3855.997444171116058
 21
129.3598187447794032
 31
0.0
  0
LINE
  5
885A
  8
0
 10
3855.972756660964933
 20
129.3335823626821082
 30
0.0
 11
3855.9747776836620687
 21
129.3436055183146038
 31
0.0
  0
LINE
  5
885B
  8
0
 10
3855.9928268471358024
 20
129.3335276495330106
 30
0.0
 11
3855.9948623044861051
 21
129.3436223932945097
 31
0.0
  0
LINE
  5
885C
  8
0
 10
3855.9904443300119965
 20
129.3217116813374901
 30
0.0
 11
3855.9917681388828896
 21
129.3282770418950918
 31
0.0
  0
LINE
  5
885D
  8
0
 10
3855.9703903841891588
 20
129.3218469376716939
 30
0.0
 11
3855.9717052543519458
 21
129.3283679666160992
 31
0.0
  0
LINE
  5
885E
  8
0
 10
3855.9998444758830374
 20
129.3270789585704961
 30
0.0
 11
3856.0015229735140565
 21
129.3354033791509039
 31
0.0
  0
LINE
  5
885F
  8
0
 10
3856.0028153247958471
 20
129.3418127276619884
 30
0.0
 11
3856.0052385608410077
 21
129.3538306391116066
 31
0.0
  0
LINE
  5
8860
  8
0
 10
3856.0231046987742047
 20
129.3428450650364141
 30
0.0
 11
3856.0247387510080443
 21
129.3543151920665935
 31
0.0
  0
LINE
  5
8861
  8
0
 10
3856.0201071180918007
 20
129.3279787218905028
 30
0.0
 11
3856.0218005384390381
 21
129.3363771504232886
 31
0.0
  0
LINE
  5
8862
  8
0
 10
3856.0298979911622155
 20
129.3352837895222081
 30
0.0
 11
3856.0319676362778409
 21
129.3455480858254987
 31
0.0
  0
LINE
  5
8863
  8
0
 10
3856.0503847094942103
 20
129.3372948464376861
 30
0.0
 11
3856.052477751672086
 21
129.3476751787416106
 31
0.0
  0
LINE
  5
8864
  8
0
 10
3856.0479375396557771
 20
129.3251582357733014
 30
0.0
 11
3856.0496106147820683
 21
129.331821223661791
 31
0.0
  0
LINE
  5
8865
  8
0
 10
3856.0274770635792265
 20
129.3232773270084124
 30
0.0
 11
3856.0288220068828196
 21
129.3299475022892864
 31
0.0
  0
LINE
  5
8866
  8
0
 10
3856.0576034665809857
 20
129.3310868113748882
 30
0.0
 11
3856.0592669485731676
 21
129.3400935921025905
 31
0.0
  0
LINE
  5
8867
  8
0
 10
3856.0782302607740348
 20
129.3345493960864019
 30
0.0
 11
3856.0799114018709588
 21
129.3428869265019046
 31
0.0
  0
LINE
  5
8868
  8
0
 10
3856.0857448677988941
 20
129.3305654421644988
 30
0.0
 11
3856.0871366544211014
 21
129.3374679347417953
 31
0.0
  0
LINE
  5
8869
  8
0
 10
3861.9282134114218934
 20
128.5790304116289917
 30
0.0
 11
3861.9282283649508827
 21
131.0261220891106007
 31
0.0
  0
LINE
  5
886B
  8
0
 10
3859.8739039819429308
 20
140.3032708909676955
 30
0.0
 11
3860.8914077405670469
 21
140.3032708909676955
 31
0.0
  0
ENDSEC
  0
EOF
