  0
SECTION
  2
HEADER
  9
$ACADVER
  1
AC1009
  9
$INSBASE
 10
3840.1655406222162128
 20
134.0355274638845913
 30
0.0
  9
$EXTMIN
 10
3835.8393877840608184
 20
124.979618326441198
 30
-0.0000000349181948
  9
$EXTMAX
 10
3853.0855482113151993
 20
154.3476853929645927
 30
0.0000000814935746
  9
$LIMMIN
 10
0.0
 20
0.0
  9
$LIMMAX
 10
11.6929133858000007
 20
8.2677165353999982
  9
$ORTHOMODE
 70
     0
  9
$REGENMODE
 70
     1
  9
$FILLMODE
 70
     1
  9
$QTEXTMODE
 70
     0
  9
$MIRRTEXT
 70
     0
  9
$DRAGMODE
 70
     2
  9
$LTSCALE
 40
0.6431102362
  9
$OSMODE
 70
  4095
  9
$ATTMODE
 70
     1
  9
$TEXTSIZE
 40
0.2
  9
$TRACEWID
 40
0.05
  9
$TEXTSTYLE
  7
STANDARD
  9
$CLAYER
  8
0
  9
$CELTYPE
  6
BYLAYER
  9
$CECOLOR
 62
   256
  9
$DIMSCALE
 40
1.0
  9
$DIMASZ
 40
0.1875
  9
$DIMEXO
 40
0.0625
  9
$DIMDLI
 40
0.4443307087
  9
$DIMRND
 40
0.0
  9
$DIMDLE
 40
0.0
  9
$DIMEXE
 40
0.125
  9
$DIMTP
 40
0.01
  9
$DIMTM
 40
0.01
  9
$DIMTXT
 40
2.0
  9
$DIMCEN
 40
0.1052362205
  9
$DIMTSZ
 40
0.0
  9
$DIMTOL
 70
     1
  9
$DIMLIM
 70
     0
  9
$DIMTIH
 70
     1
  9
$DIMTOH
 70
     1
  9
$DIMSE1
 70
     0
  9
$DIMSE2
 70
     0
  9
$DIMTAD
 70
     0
  9
$DIMZIN
 70
     0
  9
$DIMBLK
  1

  9
$DIMASO
 70
     1
  9
$DIMSHO
 70
     1
  9
$DIMPOST
  1
\X
  9
$DIMAPOST
  1

  9
$DIMALT
 70
     1
  9
$DIMALTD
 70
     2
  9
$DIMALTF
 40
25.3999999999999986
  9
$DIMLFAC
 40
1.0
  9
$DIMTOFL
 70
     0
  9
$DIMTVP
 40
0.0
  9
$DIMTIX
 70
     0
  9
$DIMSOXD
 70
     0
  9
$DIMSAH
 70
     0
  9
$DIMBLK1
  1

  9
$DIMBLK2
  1

  9
$DIMSTYLE
  2
STANDARD
  9
$DIMCLRD
 70
     0
  9
$DIMCLRE
 70
     0
  9
$DIMCLRT
 70
     0
  9
$DIMTFAC
 40
1.0
  9
$DIMGAP
 40
0.09
  9
$LUNITS
 70
     2
  9
$LUPREC
 70
     4
  9
$SKETCHINC
 40
0.1
  9
$FILLETRAD
 40
0.0
  9
$AUNITS
 70
     0
  9
$AUPREC
 70
     0
  9
$MENU
  1
.
  9
$ELEVATION
 40
0.0
  9
$PELEVATION
 40
0.0
  9
$THICKNESS
 40
0.0
  9
$LIMCHECK
 70
     0
  9
$BLIPMODE
 70
     0
  9
$CHAMFERA
 40
0.0
  9
$CHAMFERB
 40
0.0
  9
$SKPOLY
 70
     0
  9
$TDCREATE
 40
2458060.468368056230247
  9
$TDUPDATE
 40
2459199.7297800919041038
  9
$TDINDWG
 40
0.3093241898
  9
$TDUSRTIMER
 40
0.3093241898
  9
$USRTIMER
 70
     1
  9
$ANGBASE
 50
0.0
  9
$ANGDIR
 70
     0
  9
$PDMODE
 70
     0
  9
$PDSIZE
 40
0.3125
  9
$PLINEWID
 40
0.0
  9
$COORDS
 70
     1
  9
$SPLFRAME
 70
     0
  9
$SPLINETYPE
 70
     6
  9
$SPLINESEGS
 70
     8
  9
$ATTDIA
 70
     1
  9
$ATTREQ
 70
     1
  9
$HANDLING
 70
     1
  9
$HANDSEED
  5
8A97
  9
$SURFTAB1
 70
     6
  9
$SURFTAB2
 70
     6
  9
$SURFTYPE
 70
     6
  9
$SURFU
 70
     6
  9
$SURFV
 70
     6
  9
$UCSNAME
  2

  9
$UCSORG
 10
0.0
 20
0.0
 30
0.0
  9
$UCSXDIR
 10
1.0
 20
0.0
 30
0.0
  9
$UCSYDIR
 10
0.0
 20
1.0
 30
0.0
  9
$PUCSNAME
  2

  9
$PUCSORG
 10
0.0
 20
0.0
 30
0.0
  9
$PUCSXDIR
 10
1.0
 20
0.0
 30
0.0
  9
$PUCSYDIR
 10
0.0
 20
1.0
 30
0.0
  9
$USERI1
 70
     0
  9
$USERI2
 70
     0
  9
$USERI3
 70
     0
  9
$USERI4
 70
     0
  9
$USERI5
 70
     0
  9
$USERR1
 40
0.0
  9
$USERR2
 40
0.0
  9
$USERR3
 40
0.0
  9
$USERR4
 40
0.0
  9
$USERR5
 40
0.0
  9
$WORLDVIEW
 70
     1
  9
$SHADEDGE
 70
     3
  9
$SHADEDIF
 70
    70
  9
$TILEMODE
 70
     1
  9
$MAXACTVP
 70
    64
  9
$PLIMCHECK
 70
     0
  9
$PEXTMIN
 10
1.0000000000000000E+20
 20
1.0000000000000000E+20
 30
1.0000000000000000E+20
  9
$PEXTMAX
 10
-1.0000000000000000E+20
 20
-1.0000000000000000E+20
 30
-1.0000000000000000E+20
  9
$PLIMMIN
 10
0.0
 20
0.0
  9
$PLIMMAX
 10
12.0
 20
9.0
  9
$UNITMODE
 70
     0
  9
$VISRETAIN
 70
     1
  9
$PLINEGEN
 70
     0
  9
$PSLTSCALE
 70
     1
  0
ENDSEC
  0
SECTION
  2
TABLES
  0
TABLE
  2
VPORT
 70
     1
  0
VPORT
  2
*ACTIVE
 70
     0
 10
0.0
 20
0.0
 11
1.0
 21
1.0
 12
40.9184006148752886
 22
13.6683896629530306
 13
0.0
 23
0.0
 14
1.0
 24
1.0
 15
0.0
 25
0.0
 16
0.0
 26
0.0
 36
17.1152628219792007
 17
3803.5440673828129547
 27
125.9952621967499056
 37
0.0
 40
29.7421825705555385
 41
2.887234042553191
 42
50.0
 43
0.0
 44
0.0
 50
0.0
 51
0.0
 71
     0
 72
   100
 73
     1
 74
     1
 75
     0
 76
     0
 77
     0
 78
     0
  0
ENDTAB
  0
TABLE
  2
LTYPE
 70
     2
  0
LTYPE
  2
CONTINUOUS
 70
     0
  3
Solid line
 72
    65
 73
     0
 40
0.0
  0
LTYPE
  2
PHANTOM2
 70
     0
  3
___ _ _ ___ _ _ ___ _ _ ___ _ _
 72
    65
 73
     6
 40
1.25
 49
0.625
 49
-0.125
 49
0.125
 49
-0.125
 49
0.125
 49
-0.125
  0
ENDTAB
  0
TABLE
  2
LAYER
 70
     2
  0
LAYER
  2
0
 70
     0
 62
   255
  6
CONTINUOUS
  0
LAYER
  2
DEFPOINTS
 70
     0
 62
     7
  6
CONTINUOUS
  0
ENDTAB
  0
TABLE
  2
STYLE
 70
     1
  0
STYLE
  2
STANDARD
 70
     0
 40
0.0
 41
0.8
 50
0.0
 71
     0
 42
0.2
  3
txt
  4

  0
ENDTAB
  0
TABLE
  2
VIEW
 70
     0
  0
ENDTAB
  0
TABLE
  2
UCS
 70
     0
  0
ENDTAB
  0
TABLE
  2
APPID
 70
     9
  0
APPID
  2
ACAD
 70
     0
  0
APPID
  2
ACAD_MLEADERVER
 70
     0
  0
APPID
  2
ACAD_EXEMPT_FROM_CAD_STANDARDS
 70
     0
  0
APPID
  2
ACAD_NAV_VCDISPLAY
 70
     0
  0
APPID
  2
ACAECLAYERSTANDARD
 70
     0
  0
APPID
  2
ACCMTRANSPARENCY
 70
     0
  0
APPID
  2
ACAD_DSTYLE_DIMJAG
 70
     0
  0
APPID
  2
ACAD_DSTYLE_DIMTALN
 70
     0
  0
APPID
  2
ACDBATTR
 70
     0
  0
ENDTAB
  0
TABLE
  2
DIMSTYLE
 70
     1
  0
DIMSTYLE
  2
STANDARD
 70
     0
  3

  4

  5

  6

  7

 40
1.0
 41
0.1875
 42
0.0625
 43
0.38
 44
0.125
 45
0.0
 46
0.0
 47
0.01
 48
0.01
140
0.15625
141
0.09
142
0.0
143
25.3999999999999986
144
1.0
145
0.0
146
1.0
147
0.09
 71
     1
 72
     0
 73
     1
 74
     1
 75
     0
 76
     0
 77
     0
 78
     4
170
     0
171
     2
172
     0
173
     0
174
     0
175
     0
176
     0
177
     0
178
     0
  0
ENDTAB
  0
ENDSEC
  0
SECTION
  2
BLOCKS
  0
BLOCK
  8
0
  2
$MODEL_SPACE
 70
     0
 10
0.0
 20
0.0
 30
0.0
  3
$MODEL_SPACE
  1

  0
ENDBLK
  5
21
  8
0
  0
BLOCK
 67
     1
  8
0
  2
$PAPER_SPACE
 70
     0
 10
0.0
 20
0.0
 30
0.0
  3
$PAPER_SPACE
  1

  0
ENDBLK
  5
1D
 67
     1
  8
0
  0
ENDSEC
  0
SECTION
  2
ENTITIES
  0
ATTDEF
  5
3930
  8
DEFPOINTS
 10
3840.1616774811318464
 20
134.040706064411097
 30
0.0
 40
0.001
  1
K-99037T-4
  3

  2
MODELNUMBER
 70
     0
1001
ACDBATTR
1070
     0
1070
     1
  0
ATTDEF
  5
3931
  8
DEFPOINTS
 10
3840.1616774811318464
 20
134.0390393977444887
 30
0.0
 40
0.001
  1
REFINIA
  3

  2
TRADENAME
 70
     0
1001
ACDBATTR
1070
     0
1070
     1
  0
ATTDEF
  5
3932
  8
DEFPOINTS
 10
3840.1616774811318464
 20
134.0373727310777952
 30
0.0
 40
0.001
  1
BATH AND SHOWER FAUCET
  3

  2
PRODUCT
 70
     0
1001
ACDBATTR
1070
     0
1070
     1
  0
LINE
  5
8135
  8
0
 10
3840.1655406222162128
 20
132.8182512919227065
 30
0.0
 11
3840.1655406222162128
 21
132.4493540598226957
 31
0.0
  0
LINE
  5
8136
  8
0
 10
3837.1927445950350375
 20
133.1413442813307881
 30
0.0
 11
3839.6930950605387807
 21
133.1413442813307881
 31
0.0
  0
LINE
  5
8137
  8
0
 10
3840.6379861838909164
 20
133.1413442813307881
 30
0.0
 11
3843.1383366493960239
 21
133.1413442813307881
 31
0.0
  0
LINE
  5
8138
  8
0
 10
3837.1834220972491494
 20
134.9007319593276009
 30
0.0
 11
3839.2187478853220455
 21
134.9007319593276009
 31
0.0
  0
ARC
  5
8139
  8
0
 10
3837.2127800999401188
 20
134.0355200205227106
 30
0.0
 40
1.2992125984
 50
41.7553255120864222
 51
316.5087053249334872
  0
ARC
  5
813A
  8
0
 10
3837.2344267070548085
 20
134.0261951165146002
 30
0.0
 40
0.8858320376842733
 50
255.6824864193256133
 51
267.3029974472142953
  0
ARC
  5
813B
  8
0
 10
3837.2855305653401956
 20
134.1036622586817941
 30
0.0
 40
0.9740040629265255
 50
206.3661393621821958
 51
253.89630984971609
  0
ARC
  5
813C
  8
0
 10
3838.2634656393629484
 20
134.5175976864101131
 30
0.0
 40
2.035028735112645
 50
177.5838826153022865
 51
204.5799627925925108
  0
ARC
  5
813D
  8
0
 10
3836.3116238791722026
 20
134.5999541210894108
 30
0.0
 40
0.0814502649308598
 50
119.2266584707403041
 51
177.5838826153022865
  0
ARC
  5
813E
  8
0
 10
3837.2253615248118876
 20
132.8012599804197862
 30
0.0
 40
2.0988653141564599
 50
95.737826743423156
 51
117.0196744834074991
  0
ARC
  5
813F
  8
0
 10
3837.244138073494014
 20
132.7113877786175919
 30
0.0
 40
2.190185921646858
 50
91.5885477484279136
 51
95.9915125601458357
  0
ARC
  5
8140
  8
0
 10
3840.1631630257361394
 20
134.2088673165835075
 30
0.0
 40
0.7345768813876568
 50
256.1914968461325088
 51
270.1852677640225124
  0
ARC
  5
8141
  8
0
 10
3840.1648046992881973
 20
134.2155467346310047
 30
0.0
 40
0.741455087367748
 50
231.388054307344504
 51
256.1914968461325088
  0
ARC
  5
8142
  8
0
 10
3840.4221307571301622
 20
134.5234370003011861
 30
0.0
 40
1.1426549201367751
 50
206.9108621688797882
 51
230.9400004206970038
  0
ARC
  5
8143
  8
0
 10
3840.5524033580190917
 20
134.6220723361828107
 30
0.0
 40
1.303785646146173
 50
194.3681671371772097
 51
208.185059400980208
  0
ARC
  5
8144
  8
0
 10
3839.5965727548150426
 20
134.2965292701576061
 30
0.0
 40
0.3071807202318068
 50
152.3754460488000859
 51
179.6257567894612919
  0
ARC
  5
8145
  8
0
 10
3839.26249769139622
 20
134.394334004472114
 30
0.0
 40
0.0763193306537016
 50
35.785140813087132
 51
70.5054894789052469
  0
ARC
  5
8146
  8
0
 10
3838.9371500012339311
 20
133.3983124901957922
 30
0.0
 40
1.1241099370987491
 50
71.8151336764633044
 51
79.8524062002530286
  0
ARC
  5
8147
  8
0
 10
3833.1081992519812047
 20
67.4029539484908753
 30
0.0
 40
67.3720091131836369
 50
84.8675420332377826
 51
85.4201284415022144
  0
ARC
  5
8148
  8
0
 10
3836.9335960871699172
 20
107.2045941571657011
 30
0.0
 40
27.3993636860770913
 50
86.7482675735933952
 51
89.8540167380852353
  0
ARC
  5
8149
  8
0
 10
3836.5780706148589161
 20
196.8850011986858988
 30
0.0
 40
62.282584644391072
 50
269.6800231581395906
 51
270.3912834188935221
  0
ARC
  5
814A
  8
0
 10
3839.103326128543813
 20
134.692525019629386
 30
0.0
 40
0.1004164467506317
 50
162.9952732373787114
 51
246.4029212380326044
  0
ARC
  5
814B
  8
0
 10
3839.0011814758331639
 20
134.9453301945341082
 30
0.0
 40
0.2235220779830475
 50
271.568522430147425
 51
341.9323632412131815
  0
ARC
  5
814C
  8
0
 10
3837.0252882376607886
 20
135.3372778956405966
 30
0.0
 40
2.236478835229311
 50
348.0973968461645995
 51
357.7404772255039802
  0
LINE
  5
814D
  8
0
 10
3839.2600282045800668
 20
135.8812534672246102
 30
0.0
 11
3839.2600282045800668
 21
135.2491027251992932
 31
0.0
  0
LINE
  5
814E
  8
0
 10
3841.0683796053299375
 20
136.0229857529226933
 30
0.0
 11
3839.2627016391011239
 21
136.0229857529226933
 31
0.0
  0
LINE
  5
814F
  8
0
 10
3839.2600282045800668
 20
135.8812534672246102
 30
0.0
 11
3841.0710530398509945
 21
135.8812534672246102
 31
0.0
  0
LINE
  5
8150
  8
0
 10
3839.2639612018010666
 20
135.8812534672246102
 30
0.0
 11
3839.2639612018010666
 21
135.8891274858262932
 31
0.0
  0
LINE
  5
8151
  8
0
 10
3839.2639612018010666
 20
135.8891274858262932
 30
0.0
 11
3841.0671200426309042
 21
135.8891274858262932
 31
0.0
  0
ARC
  5
8152
  8
0
 10
3840.1655359965197931
 20
135.5099542638996013
 30
0.0
 40
0.9780641301568387
 50
148.362874736649502
 51
157.1899512804268113
  0
ARC
  5
8153
  8
0
 10
3840.0790006062129578
 20
136.0058032502628862
 30
0.0
 40
0.8164797867095298
 50
159.9955635081246896
 51
178.7941433678859084
  0
ARC
  5
8154
  8
0
 10
3840.0710584963858309
 20
136.0076808786880918
 30
0.0
 40
0.8083750929791481
 50
142.6899046919324121
 51
159.9280456951593123
  0
ARC
  5
8155
  8
0
 10
3840.7384350550692034
 20
135.499090327509407
 30
0.0
 40
1.647455434678833
 50
135.3406733646660882
 51
142.6899046919324121
  0
ARC
  5
8156
  8
0
 10
3841.8972022325729085
 20
134.3540216244294925
 30
0.0
 40
3.27654220536823
 50
131.2750398165972001
 51
135.3406733646660882
  0
ARC
  5
8157
  8
0
 10
3840.1668812889770379
 20
136.5756320175927101
 30
0.0
 40
0.2676917408279444
 50
259.8004552426972964
 51
269.7130472982416904
  0
ARC
  5
8158
  8
0
 10
3840.1748518720178254
 20
136.5727566121383916
 30
0.0
 40
0.2664041912447053
 50
232.4618530085762131
 51
258.0035034141973256
  0
ARC
  5
8159
  8
0
 10
3840.4037941610849884
 20
136.8707090585324124
 30
0.0
 40
0.6421570781734847
 50
208.7607814315929886
 51
232.4618530085762131
  0
ARC
  5
815A
  8
0
 10
3840.9342837411768414
 20
137.1618754896848884
 30
0.0
 40
1.24729928064757
 50
192.8303698612913024
 51
208.7607814315929886
  0
ARC
  5
815B
  8
0
 10
3839.821314027939934
 20
136.9083945150370027
 30
0.0
 40
0.1058290939630719
 50
131.2004845333964056
 51
192.8303698612913024
  0
ARC
  5
815C
  8
0
 10
3840.1990128894271948
 20
136.4769599429756113
 30
0.0
 40
0.6792331573758594
 50
108.6929581641576021
 51
131.200484533395894
  0
ARC
  5
815D
  8
0
 10
3840.1538709644428309
 20
136.617873817392308
 30
0.0
 40
0.5312901320403166
 50
93.950034087750339
 51
108.9519692574824035
  0
ARC
  5
815E
  8
0
 10
3840.1664577857231961
 20
136.2464413630005993
 30
0.0
 40
0.9028013434939035
 50
90.0582072761505259
 51
93.1230789125000769
  0
ARC
  5
815F
  8
0
 10
3840.5927316838551633
 20
138.9019240758273099
 30
0.0
 40
2.1672348073391081
 50
251.7429461610192902
 51
258.6317898612109047
  0
ARC
  5
8160
  8
0
 10
3840.158005244864853
 20
137.4856382695606101
 30
0.0
 40
0.6867459989274018
 50
234.1035376335545095
 51
249.1680312738463101
  0
ARC
  5
8161
  8
0
 10
3839.7775620505649385
 20
136.9602078242573953
 30
0.0
 40
0.0380442725049344
 50
133.0228067945826922
 51
234.2797338603074024
  0
ARC
  5
8162
  8
0
 10
3838.9666283888318503
 20
133.709448931550412
 30
0.0
 40
0.8962664036603714
 50
76.8115737052052765
 51
83.8189942146652243
  0
ARC
  5
8163
  8
0
 10
3838.6495397952007806
 20
136.9647342969668102
 30
0.0
 40
2.4390777133597759
 50
282.3475576092998836
 51
292.1614305782546808
  0
ARC
  5
8164
  8
0
 10
3840.3333013138008027
 20
132.6070067126426011
 30
0.0
 40
2.2334624336454398
 50
98.6287111396406431
 51
109.9948057196059068
  0
ARC
  5
8165
  8
0
 10
3839.2117158931760059
 20
134.6499833908654864
 30
0.0
 40
0.216695080898514
 50
90.3460298991288937
 51
160.6193985760851888
  0
LINE
  5
8166
  8
0
 10
3839.8966430408368069
 20
134.8923544388227072
 30
0.0
 11
3840.4344382035937997
 21
134.8923544388227072
 31
0.0
  0
ARC
  5
8167
  8
0
 10
3840.1748094323879741
 20
134.8585586686498914
 30
0.0
 40
0.6667339638082732
 50
90.7965384443124037
 51
111.3926682260234031
  0
ARC
  5
8168
  8
0
 10
3839.9525085100781325
 20
135.4277980097863008
 30
0.0
 40
0.055631621885696
 50
112.0615655120130043
 51
194.9473167781571021
  0
ARC
  5
8169
  8
0
 10
3839.0960854128838946
 20
135.1991639405248122
 30
0.0
 40
0.8307847921279304
 50
340.2702933397795846
 51
14.9473167781570808
  0
ARC
  5
816A
  8
0
 10
3839.8966430408368069
 20
134.9120544388227074
 30
0.0
 40
0.0197
 50
160.2702933397804088
 51
270.0
  0
LINE
  5
816B
  8
0
 10
3851.2895813799400457
 20
144.5363616159409048
 30
0.0
 11
3850.0163679174402205
 21
144.5361117957046133
 31
0.0
  0
LINE
  5
816C
  8
0
 10
3850.6538203712398172
 20
152.5886313757808068
 30
0.0
 11
3850.6538203712398172
 21
152.639565054421297
 31
0.0
  0
ARC
  5
816D
  8
0
 10
3850.6214906119921579
 20
151.9042896707535988
 30
0.0
 40
2.4287115881998509
 50
104.8915346465364991
 51
124.4391674216716979
  0
ARC
  5
816E
  8
0
 10
3850.4726153277720186
 20
152.1213980131886103
 30
0.0
 40
2.1654628795484121
 50
124.4391674216716979
 51
147.2526363260176936
  0
ARC
  5
816F
  8
0
 10
3850.3312965732161501
 20
152.2448812585365943
 30
0.0
 40
1.9799980455941459
 50
148.0459176222088047
 51
178.5935739235254118
  0
ARC
  5
8170
  8
0
 10
3850.3026600193002196
 20
152.3219112868922878
 30
0.0
 40
1.9509721934911159
 50
180.8350257156320993
 51
201.0153340949538858
  0
ARC
  5
8171
  8
0
 10
3850.4473026769669559
 20
152.3544147836043123
 30
0.0
 40
2.0977606889771798
 50
200.4272807258577984
 51
222.3617903886618024
  0
ARC
  5
8172
  8
0
 10
3850.8191315900207883
 20
152.6934867944418954
 30
0.0
 40
2.600976913989288
 50
222.3617903886618024
 51
239.717798859734188
  0
ARC
  5
8173
  8
0
 10
3848.7991403186019852
 20
149.3381617926289096
 30
0.0
 40
1.316165123313509
 50
32.9379667058901191
 51
57.4354961442610232
  0
ARC
  5
8174
  8
0
 10
3848.9135515912957999
 20
149.4883312904127877
 30
0.0
 40
1.140280072015287
 50
3.8250145688911128
 51
29.7294040789169998
  0
ARC
  5
8175
  8
0
 10
3834.4612443148871535
 20
148.7749808249546106
 30
0.0
 40
15.6100210042065797
 50
357.1012453425856847
 51
2.8987546574142771
  0
ARC
  5
8176
  8
0
 10
3710.8875507052430294
 20
149.2505021002450007
 30
0.0
 40
139.16948967609909
 50
358.0748609619241165
 51
359.4792200497079762
  0
ARC
  5
8177
  8
0
 10
3850.0163679174402205
 20
144.5740117957045925
 30
0.0
 40
0.0379
 50
178.0748609619581941
 51
270.0
  0
CIRCLE
  5
8178
  8
0
 10
3850.0824821884070843
 20
153.6030768562887943
 30
0.0
 40
0.022546694579674
  0
CIRCLE
  5
8179
  8
0
 10
3850.0836011410970059
 20
153.6079280263772091
 30
0.0
 40
0.076891192317175
  0
ARC
  5
817A
  8
0
 10
3850.0819135806859776
 20
153.6243017231666101
 30
0.0
 40
0.0919060818577666
 50
23.6451300464643701
 51
151.2583246606282046
  0
ARC
  5
817B
  8
0
 10
3850.0732323729430391
 20
153.6359333431526863
 30
0.0
 40
0.0789314492522434
 50
155.635438088042406
 51
215.185643680726713
  0
ARC
  5
817C
  8
0
 10
3850.0948314381398632
 20
153.633965574277795
 30
0.0
 40
0.0762852350223056
 50
327.2064059352445042
 51
20.8864482006362415
  0
LINE
  5
817D
  8
0
 10
3850.0068925944469811
 20
153.6026313928364004
 30
0.0
 11
3850.0022336951469697
 21
153.670103947159987
 31
0.0
  0
LINE
  5
817E
  8
0
 10
3850.1604909426559971
 20
153.6083904895808985
 30
0.0
 11
3850.1617695792870109
 21
153.6697961994252069
 31
0.0
  0
ARC
  5
817F
  8
0
 10
3850.6536408432079952
 20
151.60698925894539
 30
0.0
 40
2.3257499577629952
 50
89.995577255192714
 51
100.8206080507156059
  0
ARC
  5
8180
  8
0
 10
3850.6415253477362057
 20
151.670377035053491
 30
0.0
 40
2.2612147317972391
 50
100.8206080507156059
 51
114.5998328677212044
  0
ARC
  5
8181
  8
0
 10
3850.5656371465411212
 20
151.8361325198966938
 30
0.0
 40
2.0789130591879852
 50
114.5998328677212044
 51
136.3506598837433899
  0
ARC
  5
8182
  8
0
 10
3850.3246565681029097
 20
152.0660112575804135
 30
0.0
 40
1.745872711446858
 50
136.3506598837433899
 51
157.2097202850771964
  0
ARC
  5
8183
  8
0
 10
3850.2005114990270158
 20
152.118172258168812
 30
0.0
 40
1.611214744143068
 50
157.2097202850771964
 51
176.3267998504431091
  0
ARC
  5
8184
  8
0
 10
3850.4506468184708865
 20
152.1021142180902075
 30
0.0
 40
1.861864975909167
 50
176.3267998504431091
 51
206.8131656873281088
  0
ARC
  5
8185
  8
0
 10
3850.4532019226007833
 20
152.1927468581330061
 30
0.0
 40
1.906696114579931
 50
209.2098966460694953
 51
229.7826795243651929
  0
ARC
  5
8186
  8
0
 10
3850.6246691154160544
 20
152.429061417139792
 30
0.0
 40
2.1979671812030421
 50
230.3471337000094934
 51
262.6481982511641036
  0
ARC
  5
8187
  8
0
 10
3850.5712552569070795
 20
151.65837708117121
 30
0.0
 40
1.4275134892477921
 50
260.815921468076283
 51
268.7010786183942059
  0
ARC
  5
8188
  8
0
 10
3850.5384558214418576
 20
150.2118328265771936
 30
0.0
 40
0.0194025703305059
 50
337.0464715168092766
 51
88.7010786183942059
  0
ARC
  5
8189
  8
0
 10
3851.1792892366470369
 20
150.0058441451949136
 30
0.0
 40
0.6538037208628164
 50
162.3327419169536938
 51
176.7184845321060038
  0
ARC
  5
818A
  8
0
 10
3850.9381939293389223
 20
150.0278586885683865
 30
0.0
 40
0.4119247548774217
 50
177.8560163351440053
 51
194.7839525124030047
  0
ARC
  5
818B
  8
0
 10
3850.7032878921959309
 20
149.9791120154056898
 30
0.0
 40
0.172831700625529
 50
199.0342624710000052
 51
227.6572825154082977
  0
ARC
  5
818C
  8
0
 10
3850.6631458424089942
 20
149.9335940955124897
 30
0.0
 40
0.1121542116645775
 50
227.1519968890985979
 51
255.6456598404797091
  0
ARC
  5
818D
  8
0
 10
3850.6594333042598919
 20
149.9625330994718126
 30
0.0
 40
0.1396852655765559
 50
260.0681289564240046
 51
267.6970800826321124
  0
ARC
  5
818E
  8
0
 10
3851.0459935514131757
 20
150.0899462632492884
 30
0.0
 40
0.5025746837878281
 50
161.3023008340489071
 51
166.4299736914009031
  0
ARC
  5
818F
  8
0
 10
3804.6094585810260469
 20
168.363181743207889
 30
0.0
 40
49.4005579938616393
 50
338.4915761096044093
 51
338.7584913329653205
  0
ARC
  5
8190
  8
0
 10
3850.088269784905151
 20
153.6524732605803933
 30
0.0
 40
0.042561695187851
 50
236.4524625157521029
 51
290.1821998159663281
  0
CIRCLE
  5
8191
  8
0
 10
3849.6737991340100962
 20
153.2271963149979968
 30
0.0
 40
0.022546694579674
  0
CIRCLE
  5
8192
  8
0
 10
3849.6749180866981987
 20
153.2320474850864116
 30
0.0
 40
0.076891192317175
  0
ARC
  5
8193
  8
0
 10
3849.6732305262889895
 20
153.2484211818758126
 30
0.0
 40
0.0919060818577666
 50
23.6451300464643701
 51
151.2583246606282046
  0
ARC
  5
8194
  8
0
 10
3849.6645493185451414
 20
153.2600528018620025
 30
0.0
 40
0.0789314492522434
 50
155.635438088042406
 51
215.185643680726713
  0
ARC
  5
8195
  8
0
 10
3849.686148383742875
 20
153.2580850329869975
 30
0.0
 40
0.0762852350223056
 50
327.2064059352445042
 51
20.8864482006362415
  0
LINE
  5
8196
  8
0
 10
3849.5982095400490834
 20
153.2267508515456029
 30
0.0
 11
3849.593550640749072
 21
153.2942234058693032
 31
0.0
  0
LINE
  5
8197
  8
0
 10
3849.7518078882580994
 20
153.232509948290101
 30
0.0
 11
3849.7530865248891132
 21
153.2939156581344093
 31
0.0
  0
ARC
  5
8198
  8
0
 10
3849.6795867305081629
 20
153.2765927192897095
 30
0.0
 40
0.042561695187851
 50
236.4524625157521029
 51
290.1821998159663281
  0
CIRCLE
  5
8199
  8
0
 10
3849.1582182385109263
 20
153.0036696939712897
 30
0.0
 40
0.022546694579674
  0
CIRCLE
  5
819A
  8
0
 10
3849.1593371911990289
 20
153.0085208640597045
 30
0.0
 40
0.076891192317175
  0
ARC
  5
819B
  8
0
 10
3849.1576496307898196
 20
153.0248945608491056
 30
0.0
 40
0.0919060818577666
 50
23.6451300464643701
 51
151.2583246606282046
  0
ARC
  5
819C
  8
0
 10
3849.1489684230459716
 20
153.0365261808352955
 30
0.0
 40
0.0789314492522434
 50
155.635438088042406
 51
215.185643680726713
  0
ARC
  5
819D
  8
0
 10
3849.1705674882441599
 20
153.0345584119602904
 30
0.0
 40
0.0762852350223056
 50
327.2064059352445042
 51
20.8864482006362415
  0
LINE
  5
819E
  8
0
 10
3849.0826286445499136
 20
153.0032242305188106
 30
0.0
 11
3849.0779697452499022
 21
153.0706967848425961
 31
0.0
  0
LINE
  5
819F
  8
0
 10
3849.2362269927580201
 20
153.0089833272633939
 30
0.0
 11
3849.2375056293899434
 21
153.0703890371077023
 31
0.0
  0
ARC
  5
81A0
  8
0
 10
3849.1640058350080835
 20
153.0530660982628888
 30
0.0
 40
0.042561695187851
 50
236.4524625157521029
 51
290.1821998159663281
  0
CIRCLE
  5
81A1
  8
0
 10
3849.0647999503421488
 20
152.4846948826003938
 30
0.0
 40
0.022546694579674
  0
CIRCLE
  5
81A2
  8
0
 10
3849.0659189030311609
 20
152.4895460526888087
 30
0.0
 40
0.076891192317175
  0
ARC
  5
81A3
  8
0
 10
3849.0642313426210421
 20
152.5059197494782097
 30
0.0
 40
0.0919060818577666
 50
23.6451300464643701
 51
151.2583246606282046
  0
ARC
  5
81A4
  8
0
 10
3849.0555501348771941
 20
152.5175513694643996
 30
0.0
 40
0.0789314492522434
 50
155.635438088042406
 51
215.185643680726713
  0
ARC
  5
81A5
  8
0
 10
3849.0771492000749276
 20
152.5155836005893946
 30
0.0
 40
0.0762852350223056
 50
327.2064059352445042
 51
20.8864482006362415
  0
LINE
  5
81A6
  8
0
 10
3848.9892103563811361
 20
152.484249419148
 30
0.0
 11
3848.9845514570802152
 21
152.5517219734717003
 31
0.0
  0
LINE
  5
81A7
  8
0
 10
3849.142808704590152
 20
152.4900085158924981
 30
0.0
 11
3849.1440873412211658
 21
152.5514142257368064
 31
0.0
  0
CIRCLE
  5
81A8
  8
0
 10
3848.8069440439630853
 20
152.0347341721980001
 30
0.0
 40
0.022546694579674
  0
CIRCLE
  5
81A9
  8
0
 10
3848.8080629966511879
 20
152.0395853422863865
 30
0.0
 40
0.076891192317175
  0
ARC
  5
81AA
  8
0
 10
3848.8063754362419786
 20
152.0559590390757876
 30
0.0
 40
0.0919060818577666
 50
23.6451300464643701
 51
151.2583246606282046
  0
ARC
  5
81AB
  8
0
 10
3848.7976942284981305
 20
152.0675906590620059
 30
0.0
 40
0.0789314492522434
 50
155.635438088042406
 51
215.185643680726713
  0
ARC
  5
81AC
  8
0
 10
3848.8192932936949546
 20
152.0656228901870008
 30
0.0
 40
0.0762852350223056
 50
327.2064059352445042
 51
20.8864482006362415
  0
LINE
  5
81AD
  8
0
 10
3848.7313544500020726
 20
152.0342887087456063
 30
0.0
 11
3848.7266955507011517
 21
152.1017612630693066
 31
0.0
  0
LINE
  5
81AE
  8
0
 10
3848.884952798210179
 20
152.0400478054901043
 30
0.0
 11
3848.8862314348411928
 21
152.1014535153344127
 31
0.0
  0
CIRCLE
  5
81AF
  8
0
 10
3849.0658064537228711
 20
151.5659664026989901
 30
0.0
 40
0.022546694579674
  0
CIRCLE
  5
81B0
  8
0
 10
3849.0669254064127927
 20
151.570817572787405
 30
0.0
 40
0.076891192317175
  0
ARC
  5
81B1
  8
0
 10
3849.0652378460022192
 20
151.587191269576806
 30
0.0
 40
0.0919060818577666
 50
23.6451300464643701
 51
151.2583246606282046
  0
ARC
  5
81B2
  8
0
 10
3849.0565566382588258
 20
151.5988228895629959
 30
0.0
 40
0.0789314492522434
 50
155.635438088042406
 51
215.185643680726713
  0
ARC
  5
81B3
  8
0
 10
3849.0781557034561047
 20
151.5968551206879908
 30
0.0
 40
0.0762852350223056
 50
327.2064059352445042
 51
20.8864482006362415
  0
LINE
  5
81B4
  8
0
 10
3848.9902168597632226
 20
151.565520939246511
 30
0.0
 11
3848.985557960461847
 21
151.6329934935702966
 31
0.0
  0
LINE
  5
81B5
  8
0
 10
3849.1438152079699648
 20
151.5712800359910943
 30
0.0
 11
3849.1450938446018881
 21
151.6326857458354027
 31
0.0
  0
CIRCLE
  5
81B6
  8
0
 10
3849.1581158439771571
 20
151.0684919370457067
 30
0.0
 40
0.022546694579674
  0
CIRCLE
  5
81B7
  8
0
 10
3849.1592347966670786
 20
151.0733431071342068
 30
0.0
 40
0.076891192317175
  0
ARC
  5
81B8
  8
0
 10
3849.1575472362560504
 20
151.0897168039234941
 30
0.0
 40
0.0919060818577666
 50
23.6451300464643701
 51
151.2583246606282046
  0
ARC
  5
81B9
  8
0
 10
3849.1488660285122023
 20
151.1013484239097124
 30
0.0
 40
0.0789314492522434
 50
155.635438088042406
 51
215.185643680726713
  0
ARC
  5
81BA
  8
0
 10
3849.1704650937099359
 20
151.0993806550347074
 30
0.0
 40
0.0762852350223056
 50
327.2064059352445042
 51
20.8864482006362415
  0
LINE
  5
81BB
  8
0
 10
3849.0825262500161443
 20
151.0680464735933128
 30
0.0
 11
3849.0778673507170424
 21
151.1355190279170131
 31
0.0
  0
LINE
  5
81BC
  8
0
 10
3849.2361245982237961
 20
151.0738055703378109
 30
0.0
 11
3849.2374032348570836
 21
151.1352112801820908
 31
0.0
  0
CIRCLE
  5
81BD
  8
0
 10
3849.6753442859899224
 20
150.820536114479296
 30
0.0
 40
0.022546694579674
  0
CIRCLE
  5
81BE
  8
0
 10
3849.6764632386789344
 20
150.8253872845677961
 30
0.0
 40
0.076891192317175
  0
ARC
  5
81BF
  8
0
 10
3849.6747756782701799
 20
150.8417609813571119
 30
0.0
 40
0.0919060818577666
 50
23.6451300464643701
 51
151.2583246606282046
  0
ARC
  5
81C0
  8
0
 10
3849.6660944705258771
 20
150.8533926013433017
 30
0.0
 40
0.0789314492522434
 50
155.635438088042406
 51
215.185643680726713
  0
ARC
  5
81C1
  8
0
 10
3849.6876935357240654
 20
150.8514248324682967
 30
0.0
 40
0.0762852350223056
 50
327.2064059352445042
 51
20.8864482006362415
  0
LINE
  5
81C2
  8
0
 10
3849.5997546920289096
 20
150.8200906510269022
 30
0.0
 11
3849.5950957927288982
 21
150.8875632053506024
 31
0.0
  0
LINE
  5
81C3
  8
0
 10
3849.7533530402379256
 20
150.8258497477714002
 30
0.0
 11
3849.7546316768698489
 21
150.8872554576157086
 31
0.0
  0
CIRCLE
  5
81C4
  8
0
 10
3850.0836725505100731
 20
150.469360969894808
 30
0.0
 40
0.022546694579674
  0
CIRCLE
  5
81C5
  8
0
 10
3850.0847915031999946
 20
150.4742121399833081
 30
0.0
 40
0.076891192317175
  0
ARC
  5
81C6
  8
0
 10
3850.0831039427898759
 20
150.4905858367727092
 30
0.0
 40
0.0919060818577666
 50
23.6451300464643701
 51
151.2583246606282046
  0
ARC
  5
81C7
  8
0
 10
3850.0744227350460278
 20
150.5022174567588138
 30
0.0
 40
0.0789314492522434
 50
155.635438088042406
 51
215.185643680726713
  0
ARC
  5
81C8
  8
0
 10
3850.0960218002442161
 20
150.5002496878838087
 30
0.0
 40
0.0762852350223056
 50
327.2064059352445042
 51
20.8864482006362415
  0
LINE
  5
81C9
  8
0
 10
3850.0080829565499698
 20
150.4689155064424995
 30
0.0
 11
3850.0034240572499584
 21
150.536388060766086
 31
0.0
  0
LINE
  5
81CA
  8
0
 10
3850.1616813047580763
 20
150.4746746031869975
 30
0.0
 11
3850.1629599413899996
 21
150.5360803130313059
 31
0.0
  0
CIRCLE
  5
81CB
  8
0
 10
3850.2206793092827866
 20
150.8266888504529106
 30
0.0
 40
0.021738018308359
  0
ARC
  5
81CC
  8
0
 10
3850.2160880455330698
 20
150.8313968366126119
 30
0.0
 40
0.0509608382593787
 50
184.7452851400232987
 51
258.2277792134722176
  0
ARC
  5
81CD
  8
0
 10
3850.2194004696489174
 20
150.847291009605101
 30
0.0
 40
0.0671965054348802
 50
258.2277792134722176
 51
313.0224331647918916
  0
ARC
  5
81CE
  8
0
 10
3850.2283568108941836
 20
150.8303647537937024
 30
0.0
 40
0.0489671820438567
 50
318.8838542816070003
 51
1.498910064108224
  0
ARC
  5
81CF
  8
0
 10
3850.1972496336052245
 20
150.8636635446814012
 30
0.0
 40
0.0333630158544987
 50
137.9582220616416066
 51
178.6962657815350042
  0
ARC
  5
81D0
  8
0
 10
3850.2177939835210054
 20
150.8397829185070975
 30
0.0
 40
0.0647348964044323
 50
22.2473484099426386
 51
134.4359162760503921
  0
ARC
  5
81D1
  8
0
 10
3850.2652858096757882
 20
150.8600805534071867
 30
0.0
 40
0.0131184348418912
 50
347.7167615044695026
 51
18.7250426243582808
  0
ARC
  5
81D2
  8
0
 10
3850.1977838538350625
 20
150.8541963380586992
 30
0.0
 40
0.04212530430314
 50
166.0105402295853878
 51
219.5327742416021124
  0
ARC
  5
81D3
  8
0
 10
3850.2198662098098794
 20
150.8388880813448907
 30
0.0
 40
0.0679232614866563
 50
10.7321679752602996
 51
157.9569887528656977
  0
ARC
  5
81D4
  8
0
 10
3850.2475892456691327
 20
150.8497114591640127
 30
0.0
 40
0.0390548110428201
 50
318.6223628351211232
 51
2.6786164985400198
  0
LINE
  5
81D5
  8
0
 10
3850.1653018850561239
 20
150.8271810401132882
 30
0.0
 11
3850.1638952544822132
 21
150.8644226364046119
 31
0.0
  0
LINE
  5
81D6
  8
0
 10
3850.2773072374830008
 20
150.8316456340045875
 30
0.0
 11
3850.2781039353822052
 21
150.8572896779045891
 31
0.0
  0
ARC
  5
81D7
  8
0
 10
3850.221669208809999
 20
150.8202652538743109
 30
0.0
 40
0.0567899928375159
 50
11.5600065130469005
 51
173.0052581353172911
  0
CIRCLE
  5
81D8
  8
0
 10
3850.0080682435977906
 20
151.2041578976983089
 30
0.0
 40
0.021738018308359
  0
ARC
  5
81D9
  8
0
 10
3850.0034769798480738
 20
151.2088658838580102
 30
0.0
 40
0.0509608382593787
 50
184.7452851400232987
 51
258.2277792134722176
  0
ARC
  5
81DA
  8
0
 10
3850.0067894039630119
 20
151.224760056850414
 30
0.0
 40
0.0671965054348802
 50
258.2277792134722176
 51
313.0224331647918916
  0
ARC
  5
81DB
  8
0
 10
3850.0157457452091876
 20
151.2078338010391008
 30
0.0
 40
0.0489671820438567
 50
318.8838542816070003
 51
1.498910064108224
  0
ARC
  5
81DC
  8
0
 10
3849.9846385679197738
 20
151.2411325919267995
 30
0.0
 40
0.0333630158544987
 50
137.9582220616416066
 51
178.6962657815350042
  0
ARC
  5
81DD
  8
0
 10
3850.0051829178350999
 20
151.2172519657524106
 30
0.0
 40
0.0647348964044323
 50
22.2473484099426386
 51
134.4359162760503921
  0
ARC
  5
81DE
  8
0
 10
3850.0526747439907922
 20
151.2375496006524997
 30
0.0
 40
0.0131184348418912
 50
347.7167615044695026
 51
18.7250426243582808
  0
ARC
  5
81DF
  8
0
 10
3849.9851727881477927
 20
151.2316653853040975
 30
0.0
 40
0.04212530430314
 50
166.0105402295853878
 51
219.5327742416021124
  0
ARC
  5
81E0
  8
0
 10
3850.0072551441248834
 20
151.216357128590289
 30
0.0
 40
0.0679232614866563
 50
10.7321679752602996
 51
157.9569887528656977
  0
ARC
  5
81E1
  8
0
 10
3850.0349781799841367
 20
151.227180506409411
 30
0.0
 40
0.0390548110428201
 50
318.6223628351211232
 51
2.6786164985400198
  0
LINE
  5
81E2
  8
0
 10
3849.9526908193711279
 20
151.2046500873586012
 30
0.0
 11
3849.9512841887972172
 21
151.2418916836500102
 31
0.0
  0
LINE
  5
81E3
  8
0
 10
3850.0646961717970953
 20
151.2091146812499005
 30
0.0
 11
3850.0654928696981187
 21
151.2347587251499021
 31
0.0
  0
ARC
  5
81E4
  8
0
 10
3850.0090581431240935
 20
151.1977343011197092
 30
0.0
 40
0.0567899928375159
 50
11.5600065130469005
 51
173.0052581353172911
  0
CIRCLE
  5
81E5
  8
0
 10
3850.3969136396040085
 20
151.2828977729647875
 30
0.0
 40
0.021738018308359
  0
ARC
  5
81E6
  8
0
 10
3850.3923223758529275
 20
151.2876057591244887
 30
0.0
 40
0.0509608382593787
 50
184.7452851400232987
 51
258.2277792134722176
  0
ARC
  5
81E7
  8
0
 10
3850.3956347999678655
 20
151.3034999321168925
 30
0.0
 40
0.0671965054348802
 50
258.2277792134722176
 51
313.0224331647918916
  0
ARC
  5
81E8
  8
0
 10
3850.4045911412149508
 20
151.2865736763056077
 30
0.0
 40
0.0489671820438567
 50
318.8838542816070003
 51
1.498910064108224
  0
ARC
  5
81E9
  8
0
 10
3850.3734839639259917
 20
151.3198724671933064
 30
0.0
 40
0.0333630158544987
 50
137.9582220616416066
 51
178.6962657815350042
  0
ARC
  5
81EA
  8
0
 10
3850.3940283138408631
 20
151.2959918410188891
 30
0.0
 40
0.0647348964044323
 50
22.2473484099426386
 51
134.4359162760503921
  0
ARC
  5
81EB
  8
0
 10
3850.4415201399970101
 20
151.3162894759190067
 30
0.0
 40
0.0131184348418912
 50
347.7167615044695026
 51
18.7250426243582808
  0
ARC
  5
81EC
  8
0
 10
3850.3740181841549202
 20
151.3104052605706045
 30
0.0
 40
0.04212530430314
 50
166.0105402295853878
 51
219.5327742416021124
  0
ARC
  5
81ED
  8
0
 10
3850.3961005401311013
 20
151.2950970038567959
 30
0.0
 40
0.0679232614866563
 50
10.7321679752602996
 51
157.9569887528656977
  0
ARC
  5
81EE
  8
0
 10
3850.4238235759889903
 20
151.3059203816758895
 30
0.0
 40
0.0390548110428201
 50
318.6223628351211232
 51
2.6786164985400198
  0
LINE
  5
81EF
  8
0
 10
3850.3415362153768911
 20
151.2833899626251082
 30
0.0
 11
3850.3401295848029804
 21
151.3206315589164888
 31
0.0
  0
LINE
  5
81F0
  8
0
 10
3850.4535415678028585
 20
151.2878545565164927
 30
0.0
 11
3850.4543382657038819
 21
151.3134986004164091
 31
0.0
  0
ARC
  5
81F1
  8
0
 10
3850.3979035391312209
 20
151.2764741763861878
 30
0.0
 40
0.0567899928375159
 50
11.5600065130469005
 51
173.0052581353172911
  0
CIRCLE
  5
81F2
  8
0
 10
3849.5227056370849823
 20
151.2752814789056117
 30
0.0
 40
0.021738018308359
  0
ARC
  5
81F3
  8
0
 10
3849.5181143733348108
 20
151.2799894650651993
 30
0.0
 40
0.0509608382593787
 50
184.7452851400232987
 51
258.2277792134722176
  0
ARC
  5
81F4
  8
0
 10
3849.5214267974502036
 20
151.2958836380576884
 30
0.0
 40
0.0671965054348802
 50
258.2277792134722176
 51
313.0224331647918916
  0
ARC
  5
81F5
  8
0
 10
3849.5303831386950151
 20
151.2789573822462899
 30
0.0
 40
0.0489671820438567
 50
318.8838542816070003
 51
1.498910064108224
  0
ARC
  5
81F6
  8
0
 10
3849.499275961406056
 20
151.3122561731341023
 30
0.0
 40
0.0333630158544987
 50
137.9582220616416066
 51
178.6962657815350042
  0
ARC
  5
81F7
  8
0
 10
3849.5198203113232012
 20
151.2883755469597133
 30
0.0
 40
0.0647348964044323
 50
22.2473484099426386
 51
134.4359162760503921
  0
ARC
  5
81F8
  8
0
 10
3849.5673121374779839
 20
151.3086731818598025
 30
0.0
 40
0.0131184348418912
 50
347.7167615044695026
 51
18.7250426243582808
  0
ARC
  5
81F9
  8
0
 10
3849.499810181635894
 20
151.3027889665112866
 30
0.0
 40
0.04212530430314
 50
166.0105402295853878
 51
219.5327742416021124
  0
ARC
  5
81FA
  8
0
 10
3849.5218925376120751
 20
151.2874807097975918
 30
0.0
 40
0.0679232614866563
 50
10.7321679752602996
 51
157.9569887528656977
  0
ARC
  5
81FB
  8
0
 10
3849.5496155734699641
 20
151.2983040876167138
 30
0.0
 40
0.0390548110428201
 50
318.6223628351211232
 51
2.6786164985400198
  0
LINE
  5
81FC
  8
0
 10
3849.4673282128578649
 20
151.275773668565904
 30
0.0
 11
3849.4659215822839542
 21
151.3130152648571993
 31
0.0
  0
LINE
  5
81FD
  8
0
 10
3849.5793335652838323
 20
151.2802382624572033
 30
0.0
 11
3849.5801302631839462
 21
151.3058823063572049
 31
0.0
  0
ARC
  5
81FE
  8
0
 10
3849.5236955366121947
 20
151.268857882327012
 30
0.0
 40
0.0567899928375159
 50
11.5600065130469005
 51
173.0052581353172911
  0
CIRCLE
  5
81FF
  8
0
 10
3849.9816030528481861
 20
151.5501493942037996
 30
0.0
 40
0.021738018308359
  0
ARC
  5
8200
  8
0
 10
3849.9770117890980146
 20
151.5548573803635009
 30
0.0
 40
0.0509608382593787
 50
184.7452851400232987
 51
258.2277792134722176
  0
ARC
  5
8201
  8
0
 10
3849.9803242132129526
 20
151.5707515533559899
 30
0.0
 40
0.0671965054348802
 50
258.2277792134722176
 51
313.0224331647918916
  0
ARC
  5
8202
  8
0
 10
3849.9892805544591283
 20
151.5538252975445914
 30
0.0
 40
0.0489671820438567
 50
318.8838542816070003
 51
1.498910064108224
  0
ARC
  5
8203
  8
0
 10
3849.9581733771701693
 20
151.5871240884322901
 30
0.0
 40
0.0333630158544987
 50
137.9582220616416066
 51
178.6962657815350042
  0
ARC
  5
8204
  8
0
 10
3849.9787177270850407
 20
151.5632434622579012
 30
0.0
 40
0.0647348964044323
 50
22.2473484099426386
 51
134.4359162760503921
  0
ARC
  5
8205
  8
0
 10
3850.0262095532411877
 20
151.5835410971581041
 30
0.0
 40
0.0131184348418912
 50
347.7167615044695026
 51
18.7250426243582808
  0
ARC
  5
8206
  8
0
 10
3849.9587075973981882
 20
151.5776568818095882
 30
0.0
 40
0.04212530430314
 50
166.0105402295853878
 51
219.5327742416021124
  0
ARC
  5
8207
  8
0
 10
3849.9807899533761884
 20
151.5623486250958933
 30
0.0
 40
0.0679232614866563
 50
10.7321679752602996
 51
157.9569887528656977
  0
ARC
  5
8208
  8
0
 10
3850.0085129892340774
 20
151.5731720029149017
 30
0.0
 40
0.0390548110428201
 50
318.6223628351211232
 51
2.6786164985400198
  0
LINE
  5
8209
  8
0
 10
3849.9262256286210686
 20
151.5506415838642056
 30
0.0
 11
3849.9248189980471579
 21
151.5878831801555009
 31
0.0
  0
LINE
  5
820A
  8
0
 10
3850.038230981047036
 20
151.5551061777555049
 30
0.0
 11
3850.0390276789480595
 21
151.5807502216555065
 31
0.0
  0
ARC
  5
820B
  8
0
 10
3849.9825929523740342
 20
151.5437257976251999
 30
0.0
 40
0.0567899928375159
 50
11.5600065130469005
 51
173.0052581353172911
  0
CIRCLE
  5
820C
  8
0
 10
3849.6075755206929898
 20
151.693304961395711
 30
0.0
 40
0.021738018308359
  0
ARC
  5
820D
  8
0
 10
3849.6029842569428183
 20
151.6980129475554122
 30
0.0
 40
0.0509608382593787
 50
184.7452851400232987
 51
258.2277792134722176
  0
ARC
  5
820E
  8
0
 10
3849.6062966810582111
 20
151.7139071205479013
 30
0.0
 40
0.0671965054348802
 50
258.2277792134722176
 51
313.0224331647918916
  0
ARC
  5
820F
  8
0
 10
3849.6152530223030226
 20
151.6969808647365028
 30
0.0
 40
0.0489671820438567
 50
318.8838542816070003
 51
1.498910064108224
  0
ARC
  5
8210
  8
0
 10
3849.584145845014973
 20
151.7302796556242015
 30
0.0
 40
0.0333630158544987
 50
137.9582220616416066
 51
178.6962657815350042
  0
ARC
  5
8211
  8
0
 10
3849.6046901949312087
 20
151.7063990294498126
 30
0.0
 40
0.0647348964044323
 50
22.2473484099426386
 51
134.4359162760503921
  0
ARC
  5
8212
  8
0
 10
3849.6521820210859914
 20
151.726696664349987
 30
0.0
 40
0.0131184348418912
 50
347.7167615044695026
 51
18.7250426243582808
  0
ARC
  5
8213
  8
0
 10
3849.5846800652439015
 20
151.7208124490014995
 30
0.0
 40
0.04212530430314
 50
166.0105402295853878
 51
219.5327742416021124
  0
ARC
  5
8214
  8
0
 10
3849.6067624212200826
 20
151.705504192287691
 30
0.0
 40
0.0679232614866563
 50
10.7321679752602996
 51
157.9569887528656977
  0
ARC
  5
8215
  8
0
 10
3849.6344854570788812
 20
151.716327570106813
 30
0.0
 40
0.0390548110428201
 50
318.6223628351211232
 51
2.6786164985400198
  0
LINE
  5
8216
  8
0
 10
3849.5521980964658724
 20
151.6937971510560885
 30
0.0
 11
3849.5507914658919617
 21
151.7310387473474123
 31
0.0
  0
LINE
  5
8217
  8
0
 10
3849.6642034488918398
 20
151.6982617449473878
 30
0.0
 11
3849.6650001467919537
 21
151.7239057888473894
 31
0.0
  0
ARC
  5
8218
  8
0
 10
3849.6085654202202022
 20
151.6868813648171113
 30
0.0
 40
0.0567899928375159
 50
11.5600065130469005
 51
173.0052581353172911
  0
CIRCLE
  5
8219
  8
0
 10
3849.8185412970588004
 20
151.9879039974262014
 30
0.0
 40
0.021738018308359
  0
ARC
  5
821A
  8
0
 10
3849.8139500333081742
 20
151.9926119835859026
 30
0.0
 40
0.0509608382593787
 50
184.7452851400232987
 51
258.2277792134722176
  0
ARC
  5
821B
  8
0
 10
3849.8172624574231122
 20
152.0085061565783064
 30
0.0
 40
0.0671965054348802
 50
258.2277792134722176
 51
313.0224331647918916
  0
ARC
  5
821C
  8
0
 10
3849.8262187986701974
 20
151.9915799007669932
 30
0.0
 40
0.0489671820438567
 50
318.8838542816070003
 51
1.498910064108224
  0
ARC
  5
821D
  8
0
 10
3849.7951116213807836
 20
152.0248786916546919
 30
0.0
 40
0.0333630158544987
 50
137.9582220616416066
 51
178.6962657815350042
  0
ARC
  5
821E
  8
0
 10
3849.8156559712961098
 20
152.000998065480303
 30
0.0
 40
0.0647348964044323
 50
22.2473484099426386
 51
134.4359162760503921
  0
ARC
  5
821F
  8
0
 10
3849.863147797451802
 20
152.0212957003803922
 30
0.0
 40
0.0131184348418912
 50
347.7167615044695026
 51
18.7250426243582808
  0
ARC
  5
8220
  8
0
 10
3849.7956458416088026
 20
152.01541148503199
 30
0.0
 40
0.04212530430314
 50
166.0105402295853878
 51
219.5327742416021124
  0
ARC
  5
8221
  8
0
 10
3849.8177281975849837
 20
152.0001032283182099
 30
0.0
 40
0.0679232614866563
 50
10.7321679752602996
 51
157.9569887528656977
  0
ARC
  5
8222
  8
0
 10
3849.8454512334437823
 20
152.0109266061373035
 30
0.0
 40
0.0390548110428201
 50
318.6223628351211232
 51
2.6786164985400198
  0
LINE
  5
8223
  8
0
 10
3849.7631638728321377
 20
151.9883961870864937
 30
0.0
 11
3849.7617572422582271
 21
152.0256377833779027
 31
0.0
  0
LINE
  5
8224
  8
0
 10
3849.8751692252581051
 20
151.9928607809779066
 30
0.0
 11
3849.8759659231582191
 21
152.0185048248779083
 31
0.0
  0
ARC
  5
8225
  8
0
 10
3849.8195311965851033
 20
151.9814804008476017
 30
0.0
 40
0.0567899928375159
 50
11.5600065130469005
 51
173.0052581353172911
  0
CIRCLE
  5
8226
  8
0
 10
3849.2418284982818477
 20
152.0170319784045887
 30
0.0
 40
0.021738018308359
  0
ARC
  5
8227
  8
0
 10
3849.237237234532131
 20
152.0217399645642047
 30
0.0
 40
0.0509608382593787
 50
184.7452851400232987
 51
258.2277792134722176
  0
ARC
  5
8228
  8
0
 10
3849.240549658647069
 20
152.0376341375566938
 30
0.0
 40
0.0671965054348802
 50
258.2277792134722176
 51
313.0224331647918916
  0
ARC
  5
8229
  8
0
 10
3849.24950599989279
 20
152.0207078817452953
 30
0.0
 40
0.0489671820438567
 50
318.8838542816070003
 51
1.498910064108224
  0
ARC
  5
822A
  8
0
 10
3849.2183988226051952
 20
152.0540066726331077
 30
0.0
 40
0.0333630158544987
 50
137.9582220616416066
 51
178.6962657815350042
  0
ARC
  5
822B
  8
0
 10
3849.2389431725200666
 20
152.0301260464586903
 30
0.0
 40
0.0647348964044323
 50
22.2473484099426386
 51
134.4359162760503921
  0
ARC
  5
822C
  8
0
 10
3849.2864349986762136
 20
152.0504236813588079
 30
0.0
 40
0.0131184348418912
 50
347.7167615044695026
 51
18.7250426243582808
  0
ARC
  5
822D
  8
0
 10
3849.2189330428332141
 20
152.0445394660104057
 30
0.0
 40
0.04212530430314
 50
166.0105402295853878
 51
219.5327742416021124
  0
ARC
  5
822E
  8
0
 10
3849.24101539880985
 20
152.0292312092965972
 30
0.0
 40
0.0679232614866563
 50
10.7321679752602996
 51
157.9569887528656977
  0
ARC
  5
822F
  8
0
 10
3849.2687384346681938
 20
152.0400545871156908
 30
0.0
 40
0.0390548110428201
 50
318.6223628351211232
 51
2.6786164985400198
  0
LINE
  5
8230
  8
0
 10
3849.1864510740560945
 20
152.0175241680649094
 30
0.0
 11
3849.1850444434821839
 21
152.0547657643562047
 31
0.0
  0
LINE
  5
8231
  8
0
 10
3849.2984564264811524
 20
152.0219887619562087
 30
0.0
 11
3849.2992531243821759
 21
152.0476328058562103
 31
0.0
  0
ARC
  5
8232
  8
0
 10
3849.2428183978090601
 20
152.010608381825989
 30
0.0
 40
0.0567899928375159
 50
11.5600065130469005
 51
173.0052581353172911
  0
CIRCLE
  5
8233
  8
0
 10
3849.6086456359089425
 20
152.2980313622315123
 30
0.0
 40
0.021738018308359
  0
ARC
  5
8234
  8
0
 10
3849.6040543721592257
 20
152.3027393483912135
 30
0.0
 40
0.0509608382593787
 50
184.7452851400232987
 51
258.2277792134722176
  0
ARC
  5
8235
  8
0
 10
3849.6073667962741638
 20
152.3186335213835889
 30
0.0
 40
0.0671965054348802
 50
258.2277792134722176
 51
313.0224331647918916
  0
ARC
  5
8236
  8
0
 10
3849.6163231375189753
 20
152.3017072655723041
 30
0.0
 40
0.0489671820438567
 50
318.8838542816070003
 51
1.498910064108224
  0
ARC
  5
8237
  8
0
 10
3849.5852159602309257
 20
152.3350060564600028
 30
0.0
 40
0.0333630158544987
 50
137.9582220616416066
 51
178.6962657815350042
  0
ARC
  5
8238
  8
0
 10
3849.6057603101471614
 20
152.3111254302856139
 30
0.0
 40
0.0647348964044323
 50
22.2473484099426386
 51
134.4359162760503921
  0
ARC
  5
8239
  8
0
 10
3849.6532521363019441
 20
152.3314230651857031
 30
0.0
 40
0.0131184348418912
 50
347.7167615044695026
 51
18.7250426243582808
  0
ARC
  5
823A
  8
0
 10
3849.5857501804598542
 20
152.3255388498373009
 30
0.0
 40
0.04212530430314
 50
166.0105402295853878
 51
219.5327742416021124
  0
ARC
  5
823B
  8
0
 10
3849.6078325364360353
 20
152.3102305931234923
 30
0.0
 40
0.0679232614866563
 50
10.7321679752602996
 51
157.9569887528656977
  0
ARC
  5
823C
  8
0
 10
3849.6355555722939243
 20
152.3210539709425859
 30
0.0
 40
0.0390548110428201
 50
318.6223628351211232
 51
2.6786164985400198
  0
LINE
  5
823D
  8
0
 10
3849.5532682116818251
 20
152.2985235518918046
 30
0.0
 11
3849.5518615811079144
 21
152.3357651481832136
 31
0.0
  0
LINE
  5
823E
  8
0
 10
3849.6652735641091567
 20
152.3029881457831038
 30
0.0
 11
3849.6660702620088159
 21
152.3286321896831055
 31
0.0
  0
ARC
  5
823F
  8
0
 10
3849.6096355354361549
 20
152.2916077656529126
 30
0.0
 40
0.0567899928375159
 50
11.5600065130469005
 51
173.0052581353172911
  0
CIRCLE
  5
8240
  8
0
 10
3849.9825102396871443
 20
152.4232596220302014
 30
0.0
 40
0.021738018308359
  0
ARC
  5
8241
  8
0
 10
3849.9779189759369729
 20
152.4279676081899026
 30
0.0
 40
0.0509608382593787
 50
184.7452851400232987
 51
258.2277792134722176
  0
ARC
  5
8242
  8
0
 10
3849.9812314000519109
 20
152.4438617811823065
 30
0.0
 40
0.0671965054348802
 50
258.2277792134722176
 51
313.0224331647918916
  0
ARC
  5
8243
  8
0
 10
3849.9901877412989961
 20
152.4269355253709932
 30
0.0
 40
0.0489671820438567
 50
318.8838542816070003
 51
1.498910064108224
  0
ARC
  5
8244
  8
0
 10
3849.9590805640100371
 20
152.4602343162586919
 30
0.0
 40
0.0333630158544987
 50
137.9582220616416066
 51
178.6962657815350042
  0
ARC
  5
8245
  8
0
 10
3849.9796249139249085
 20
152.436353690084303
 30
0.0
 40
0.0647348964044323
 50
22.2473484099426386
 51
134.4359162760503921
  0
ARC
  5
8246
  8
0
 10
3850.0271167400810555
 20
152.4566513249843922
 30
0.0
 40
0.0131184348418912
 50
347.7167615044695026
 51
18.7250426243582808
  0
ARC
  5
8247
  8
0
 10
3849.9596147842389655
 20
152.45076710963599
 30
0.0
 40
0.04212530430314
 50
166.0105402295853878
 51
219.5327742416021124
  0
ARC
  5
8248
  8
0
 10
3849.9824948064078853
 20
152.443513846455204
 30
0.0
 40
0.0660973210768996
 50
3.9850906549204441
 51
164.7040660732081108
  0
ARC
  5
8249
  8
0
 10
3850.0094201760730357
 20
152.4462822307413035
 30
0.0
 40
0.0390548110428201
 50
318.6223628351211232
 51
2.6786164985400198
  0
LINE
  5
824A
  8
0
 10
3849.9271328154609364
 20
152.4237518116904937
 30
0.0
 11
3849.9257261848870257
 21
152.460993407981789
 31
0.0
  0
LINE
  5
824B
  8
0
 10
3850.0391381678869038
 20
152.4282164055819067
 30
0.0
 11
3850.0399348657870178
 21
152.4538604494819083
 31
0.0
  0
ARC
  5
824C
  8
0
 10
3849.983500139213902
 20
152.4168360254516017
 30
0.0
 40
0.0567899928375159
 50
11.5600065130469005
 51
173.0052581353172911
  0
CIRCLE
  5
824D
  8
0
 10
3849.5187007591039219
 20
152.7425734693484003
 30
0.0
 40
0.021738018308359
  0
ARC
  5
824E
  8
0
 10
3849.5141094953528409
 20
152.7472814555081015
 30
0.0
 40
0.0509608382593787
 50
184.7452851400232987
 51
258.2277792134722176
  0
ARC
  5
824F
  8
0
 10
3849.5174219194677789
 20
152.7631756285005054
 30
0.0
 40
0.0671965054348802
 50
258.2277792134722176
 51
313.0224331647918916
  0
ARC
  5
8250
  8
0
 10
3849.5263782607139547
 20
152.7462493726891921
 30
0.0
 40
0.0489671820438567
 50
318.8838542816070003
 51
1.498910064108224
  0
ARC
  5
8251
  8
0
 10
3849.4952710834259051
 20
152.7795481635768908
 30
0.0
 40
0.0333630158544987
 50
137.9582220616416066
 51
178.6962657815350042
  0
ARC
  5
8252
  8
0
 10
3849.5158154333407765
 20
152.7556675374025019
 30
0.0
 40
0.0647348964044323
 50
22.2473484099426386
 51
134.4359162760503921
  0
ARC
  5
8253
  8
0
 10
3849.563307259496014
 20
152.7759651723027048
 30
0.0
 40
0.0131184348418912
 50
347.7167615044695026
 51
18.7250426243582808
  0
ARC
  5
8254
  8
0
 10
3849.4958053036548336
 20
152.7700809569541889
 30
0.0
 40
0.04212530430314
 50
166.0105402295853878
 51
219.5327742416021124
  0
ARC
  5
8255
  8
0
 10
3849.5186853258228439
 20
152.7628276937734881
 30
0.0
 40
0.0660973210768996
 50
3.9850906549204441
 51
164.7040660732081108
  0
ARC
  5
8256
  8
0
 10
3849.5456106954889037
 20
152.7655960780595024
 30
0.0
 40
0.0390548110428201
 50
318.6223628351211232
 51
2.6786164985400198
  0
LINE
  5
8257
  8
0
 10
3849.4633233348768044
 20
152.7430656590088063
 30
0.0
 11
3849.4619167043028938
 21
152.7803072553001016
 31
0.0
  0
LINE
  5
8258
  8
0
 10
3849.5753286873032266
 20
152.7475302529001056
 30
0.0
 11
3849.5761253852028858
 21
152.7731742968001072
 31
0.0
  0
ARC
  5
8259
  8
0
 10
3849.5196906586302248
 20
152.7361498727698006
 30
0.0
 40
0.0567899928375159
 50
11.5600065130469005
 51
173.0052581353172911
  0
CIRCLE
  5
825A
  8
0
 10
3850.0082231691949346
 20
152.7866053644495139
 30
0.0
 40
0.021738018308359
  0
ARC
  5
825B
  8
0
 10
3850.0036319054438536
 20
152.7913133506091015
 30
0.0
 40
0.0509608382593787
 50
184.7452851400232987
 51
258.2277792134722176
  0
ARC
  5
825C
  8
0
 10
3850.0069443295587917
 20
152.8072075236015905
 30
0.0
 40
0.0671965054348802
 50
258.2277792134722176
 51
313.0224331647918916
  0
ARC
  5
825D
  8
0
 10
3850.0159006708049674
 20
152.7902812677903057
 30
0.0
 40
0.0489671820438567
 50
318.8838542816070003
 51
1.498910064108224
  0
ARC
  5
825E
  8
0
 10
3849.9847934935169178
 20
152.8235800586778907
 30
0.0
 40
0.0333630158544987
 50
137.9582220616416066
 51
178.6962657815350042
  0
ARC
  5
825F
  8
0
 10
3850.0053378434331535
 20
152.7996994325035871
 30
0.0
 40
0.0647348964044323
 50
22.2473484099426386
 51
134.4359162760503921
  0
ARC
  5
8260
  8
0
 10
3850.0528296695879362
 20
152.8199970674037047
 30
0.0
 40
0.0131184348418912
 50
347.7167615044695026
 51
18.7250426243582808
  0
ARC
  5
8261
  8
0
 10
3849.9853277137458463
 20
152.8141128520553025
 30
0.0
 40
0.04212530430314
 50
166.0105402295853878
 51
219.5327742416021124
  0
ARC
  5
8262
  8
0
 10
3850.0082077359138566
 20
152.8068595888744881
 30
0.0
 40
0.0660973210768996
 50
3.9850906549204441
 51
164.7040660732081108
  0
ARC
  5
8263
  8
0
 10
3850.0351331055799164
 20
152.8096279731605875
 30
0.0
 40
0.0390548110428201
 50
318.6223628351211232
 51
2.6786164985400198
  0
LINE
  5
8264
  8
0
 10
3849.9528457449678172
 20
152.7870975541098062
 30
0.0
 11
3849.9514391143939065
 21
152.8243391504011015
 31
0.0
  0
LINE
  5
8265
  8
0
 10
3850.0648510973937846
 20
152.7915621480011055
 30
0.0
 11
3850.0656477952938985
 21
152.8172061919011071
 31
0.0
  0
ARC
  5
8266
  8
0
 10
3850.009213068722147
 20
152.7801817678709142
 30
0.0
 40
0.0567899928375159
 50
11.5600065130469005
 51
173.0052581353172911
  0
CIRCLE
  5
8267
  8
0
 10
3850.3984903923019374
 20
152.6918888421328973
 30
0.0
 40
0.021738018308359
  0
ARC
  5
8268
  8
0
 10
3850.3938991285508564
 20
152.6965968282925132
 30
0.0
 40
0.0509608382593787
 50
184.7452851400232987
 51
258.2277792134722176
  0
ARC
  5
8269
  8
0
 10
3850.3972115526671587
 20
152.7124910012850023
 30
0.0
 40
0.0671965054348802
 50
258.2277792134722176
 51
313.0224331647918916
  0
ARC
  5
826A
  8
0
 10
3850.4061678939128797
 20
152.6955647454736891
 30
0.0
 40
0.0489671820438567
 50
318.8838542816070003
 51
1.498910064108224
  0
ARC
  5
826B
  8
0
 10
3850.3750607166230111
 20
152.7288635363613878
 30
0.0
 40
0.0333630158544987
 50
137.9582220616416066
 51
178.6962657815350042
  0
ARC
  5
826C
  8
0
 10
3850.3956050665401563
 20
152.7049829101869989
 30
0.0
 40
0.0647348964044323
 50
22.2473484099426386
 51
134.4359162760503921
  0
ARC
  5
826D
  8
0
 10
3850.443096892694939
 20
152.7252805450870881
 30
0.0
 40
0.0131184348418912
 50
347.7167615044695026
 51
18.7250426243582808
  0
ARC
  5
826E
  8
0
 10
3850.3755949368528491
 20
152.7193963297386858
 30
0.0
 40
0.04212530430314
 50
166.0105402295853878
 51
219.5327742416021124
  0
ARC
  5
826F
  8
0
 10
3850.3984749590208594
 20
152.7121430665578998
 30
0.0
 40
0.0660973210768996
 50
3.9850906549204441
 51
164.7040660732081108
  0
ARC
  5
8270
  8
0
 10
3850.4254003286869192
 20
152.7149114508439993
 30
0.0
 40
0.0390548110428201
 50
318.6223628351211232
 51
2.6786164985400198
  0
LINE
  5
8271
  8
0
 10
3850.3431129680739105
 20
152.6923810317931895
 30
0.0
 11
3850.3417063375009093
 21
152.7296226280845985
 31
0.0
  0
LINE
  5
8272
  8
0
 10
3850.4551183205007874
 20
152.6968456256844888
 30
0.0
 11
3850.4559150184009013
 21
152.7224896695844905
 31
0.0
  0
ARC
  5
8273
  8
0
 10
3850.3994802918291498
 20
152.6854652455542976
 30
0.0
 40
0.0567899928375159
 50
11.5600065130469005
 51
173.0052581353172911
  0
CIRCLE
  5
8274
  8
0
 10
3850.2211295169117875
 20
153.1968204749524034
 30
0.0
 40
0.021738018308359
  0
ARC
  5
8275
  8
0
 10
3850.2165382531620708
 20
153.201528461111991
 30
0.0
 40
0.0509608382593787
 50
184.7452851400232987
 51
258.2277792134722176
  0
ARC
  5
8276
  8
0
 10
3850.2198506772770088
 20
153.2174226341045085
 30
0.0
 40
0.0671965054348802
 50
258.2277792134722176
 51
313.0224331647918916
  0
ARC
  5
8277
  8
0
 10
3850.2288070185231845
 20
153.2004963782931952
 30
0.0
 40
0.0489671820438567
 50
318.8838542816070003
 51
1.498910064108224
  0
ARC
  5
8278
  8
0
 10
3850.1976998412342255
 20
153.2337951691808939
 30
0.0
 40
0.0333630158544987
 50
137.9582220616416066
 51
178.6962657815350042
  0
ARC
  5
8279
  8
0
 10
3850.2182441911490969
 20
153.209914543006505
 30
0.0
 40
0.0647348964044323
 50
22.2473484099426386
 51
134.4359162760503921
  0
ARC
  5
827A
  8
0
 10
3850.2657360173047891
 20
153.2302121779065942
 30
0.0
 40
0.0131184348418912
 50
347.7167615044695026
 51
18.7250426243582808
  0
ARC
  5
827B
  8
0
 10
3850.1982340614617897
 20
153.224327962558192
 30
0.0
 40
0.04212530430314
 50
166.0105402295853878
 51
219.5327742416021124
  0
ARC
  5
827C
  8
0
 10
3850.2211140836320737
 20
153.217074699377406
 30
0.0
 40
0.0660973210768996
 50
3.9850906549204441
 51
164.7040660732081108
  0
ARC
  5
827D
  8
0
 10
3850.2480394532981336
 20
153.2198430836635055
 30
0.0
 40
0.0390548110428201
 50
318.6223628351211232
 51
2.6786164985400198
  0
LINE
  5
827E
  8
0
 10
3850.1657520926851248
 20
153.1973126646126957
 30
0.0
 11
3850.1643454621112141
 21
153.2345542609041047
 31
0.0
  0
LINE
  5
827F
  8
0
 10
3850.2777574451110922
 20
153.201777258503995
 30
0.0
 11
3850.2785541430121157
 21
153.2274213024039966
 31
0.0
  0
ARC
  5
8280
  8
0
 10
3850.2221194164380904
 20
153.1903968783738037
 30
0.0
 40
0.0567899928375159
 50
11.5600065130469005
 51
173.0052581353172911
  0
ARC
  5
8281
  8
0
 10
3850.3253590455828999
 20
151.5723686961902956
 30
0.0
 40
0.0772421551635513
 50
9.7237749881804536
 51
140.2676005666588992
  0
ARC
  5
8282
  8
0
 10
3850.3201233301479078
 20
151.589863756345693
 30
0.0
 40
0.0814897070865583
 50
323.7258831513929067
 51
356.8703426165978954
  0
ARC
  5
8283
  8
0
 10
3850.2560695294628204
 20
151.69158407455771
 30
0.0
 40
0.1982807872564475
 50
291.3262401712206042
 51
310.8724507798107766
  0
ARC
  5
8284
  8
0
 10
3850.2337799460460701
 20
151.7486766277521042
 30
0.0
 40
0.2595701432587711
 50
275.967666413176687
 51
291.3262401712206042
  0
ARC
  5
8285
  8
0
 10
3850.2595427003648183
 20
151.5022225895926908
 30
0.0
 40
0.01177322553141
 50
194.526692701034591
 51
275.967666413176687
  0
ARC
  5
8286
  8
0
 10
3850.4027187139799935
 20
151.5393215963983948
 30
0.0
 40
0.159677610796992
 50
148.9244304975516116
 51
194.526692701034591
  0
ARC
  5
8287
  8
0
 10
3850.2493768110630299
 20
151.5212842836440927
 30
0.0
 40
0.0116674360778425
 50
199.8777287457687919
 51
251.7248678555905883
  0
ARC
  5
8288
  8
0
 10
3850.4249631245229466
 20
151.5677824549001969
 30
0.0
 40
0.1932636980551557
 50
165.0963068635462037
 51
195.1366050173108135
  0
ARC
  5
8289
  8
0
 10
3850.335665810277078
 20
151.5826973112721987
 30
0.0
 40
0.1034884666049633
 50
120.5205623390195058
 51
160.3551831351003898
  0
ARC
  5
828A
  8
0
 10
3850.3250471058349831
 20
151.5923763787941141
 30
0.0
 40
0.0898574905162607
 50
14.2491734626353104
 51
117.8211416572811032
  0
ARC
  5
828B
  8
0
 10
3850.3461426162848511
 20
151.6063550438354071
 30
0.0
 40
0.0664974097348449
 50
320.420997137698123
 51
7.030210773706921
  0
LINE
  5
828C
  8
0
 10
3850.4014914989488716
 20
151.5854147714130136
 30
0.0
 11
3850.4004415663011969
 21
151.6412644543628119
 31
0.0
  0
ARC
  5
828D
  8
0
 10
3850.5102063592557897
 20
151.5854176388482131
 30
0.0
 40
0.2667001419279196
 50
168.355249342296986
 51
185.1526763784831928
  0
CIRCLE
  5
828E
  8
0
 10
3850.3270253690211575
 20
151.5827491221193952
 30
0.0
 40
0.0265175048431895
  0
ARC
  5
828F
  8
0
 10
3850.2054240505622147
 20
151.6960914300125864
 30
0.0
 40
0.2282155655580605
 50
128.6892407998338115
 51
151.3372907438784978
  0
ARC
  5
8290
  8
0
 10
3850.1349227091150169
 20
151.7841253624183082
 30
0.0
 40
0.1154307598411029
 50
106.8399518654508
 51
128.6892407998338115
  0
ARC
  5
8291
  8
0
 10
3850.1232157404137979
 20
151.8228032221850015
 30
0.0
 40
0.0750199945388244
 50
2.008317312088745
 51
106.8399518654508
  0
ARC
  5
8292
  8
0
 10
3850.1296626031271444
 20
151.8345773063566071
 30
0.0
 40
0.0691345677669118
 50
283.4671172347174775
 51
352.3987022273793173
  0
ARC
  5
8293
  8
0
 10
3850.1136447634680735
 20
151.9807213034700908
 30
0.0
 40
0.2157813743018599
 50
245.5008573878214975
 51
278.5601118092710067
  0
ARC
  5
8294
  8
0
 10
3850.0553892485131655
 20
151.8711134715742048
 30
0.0
 40
0.0921947965966758
 50
240.9782239185618948
 51
250.2034670470677042
  0
ARC
  5
8295
  8
0
 10
3850.0165930159641903
 20
151.8011859065246085
 30
0.0
 40
0.0122259775870786
 50
159.0514112140972998
 51
240.978223918561099
  0
ARC
  5
8296
  8
0
 10
3850.114194189778118
 20
152.0226444656977094
 30
0.0
 40
0.2381053864921379
 50
239.6551155671456002
 51
242.5164680612662096
  0
ARC
  5
8297
  8
0
 10
3849.9992417153289352
 20
151.8262801790644971
 30
0.0
 40
0.0105685665108914
 50
165.9867582850737904
 51
239.6551155671419906
  0
ARC
  5
8298
  8
0
 10
3850.172734565301198
 20
151.7390078494692034
 30
0.0
 40
0.2045302262232433
 50
134.7092709819550009
 51
153.9465921619753885
  0
ARC
  5
8299
  8
0
 10
3850.1606245615030275
 20
151.7593384508288921
 30
0.0
 40
0.18165139199687
 50
115.5439354367733955
 51
136.5062924273771046
  0
ARC
  5
829A
  8
0
 10
3850.1203755768460724
 20
151.8322346677456949
 30
0.0
 40
0.0986458051309383
 50
41.1767452088371329
 51
112.7073314348912021
  0
ARC
  5
829B
  8
0
 10
3850.1425388569941788
 20
151.8536808165183913
 30
0.0
 40
0.0678618051480256
 50
319.4744497133168011
 51
39.8678090675465597
  0
LINE
  5
829C
  8
0
 10
3850.0043808300661112
 20
151.8017664610430018
 30
0.0
 11
3850.0039932550857884
 21
151.8545889191377114
 31
0.0
  0
LINE
  5
829D
  8
0
 10
3850.198189653945974
 20
151.825432265813987
 30
0.0
 11
3850.1985844714340601
 21
151.8919445552270133
 31
0.0
  0
CIRCLE
  5
829E
  8
0
 10
3850.1257287967000593
 20
151.8289616097993076
 30
0.0
 40
0.0279336977377999
  0
ARC
  5
829F
  8
0
 10
3850.1110531901740615
 20
151.9813545741999121
 30
0.0
 40
0.2282155655580605
 50
93.8279701993473765
 51
116.4760201433826978
  0
ARC
  5
82A0
  8
0
 10
3850.1035235647418631
 20
152.093887756601589
 30
0.0
 40
0.1154307598411029
 50
71.9786812649500689
 51
93.8279701993473765
  0
ARC
  5
82A1
  8
0
 10
3850.1160254773130873
 20
152.1323160291929071
 30
0.0
 40
0.0750199945388244
 50
327.1470467116058103
 51
71.9786812649500689
  0
ARC
  5
82A2
  8
0
 10
3850.1280453406911874
 20
152.1382921467726135
 30
0.0
 40
0.0691345677669118
 50
248.605846634227504
 51
317.5374316268903954
  0
ARC
  5
82A3
  8
0
 10
3850.1984367331911017
 20
152.26736457195139
 30
0.0
 40
0.2157813743018599
 50
210.6395867873254986
 51
243.6988412087883944
  0
ARC
  5
82A4
  8
0
 10
3850.0879849548750826
 20
152.2107254820728031
 30
0.0
 40
0.0921947965966758
 50
206.1169533180745077
 51
215.3421964465838983
  0
ARC
  5
82A5
  8
0
 10
3850.0161811632178797
 20
152.1755228185712099
 30
0.0
 40
0.0122259775870786
 50
124.1901406136106942
 51
206.1169533180616043
  0
ARC
  5
82A6
  8
0
 10
3850.2228504757649716
 20
152.3014500904886859
 30
0.0
 40
0.2381053864921379
 50
204.7938449666640963
 51
207.6551974607822046
  0
ARC
  5
82A7
  8
0
 10
3850.0162874234570154
 20
152.2060314871231128
 30
0.0
 40
0.0105685665108914
 50
131.1254876845912065
 51
204.7938449666523013
  0
ARC
  5
82A8
  8
0
 10
3850.108760865557997
 20
152.0352541730246969
 30
0.0
 40
0.2045302262232433
 50
99.8480003814519534
 51
119.085321561496599
  0
ARC
  5
82A9
  8
0
 10
3850.1104449380209189
 20
152.058858186318389
 30
0.0
 40
0.18165139199687
 50
80.6826648362836067
 51
101.6450218268846015
  0
ARC
  5
82AA
  8
0
 10
3850.1190859467119481
 20
152.1416783057065061
 30
0.0
 40
0.0986458051309383
 50
6.3154746083543394
 51
77.8460608344191627
  0
ARC
  5
82AB
  8
0
 10
3850.149530203158065
 20
152.1466073556630931
 30
0.0
 40
0.0678618051480256
 50
284.6131791128186137
 51
5.0065384670639279
  0
LINE
  5
82AC
  8
0
 10
3850.0064924352750495
 20
152.1829795657706086
 30
0.0
 11
3850.0363672755879634
 21
152.2265439573056085
 31
0.0
  0
LINE
  5
82AD
  8
0
 10
3850.1790471935019013
 20
152.09161881959119
 30
0.0
 11
3850.2173890061599195
 21
152.1459690351005065
 31
0.0
  0
CIRCLE
  5
82AE
  8
0
 10
3850.1216076177129253
 20
152.1359327816680036
 30
0.0
 40
0.0279336977377999
  0
ARC
  5
82AF
  8
0
 10
3850.2473375431191016
 20
152.2777556336797886
 30
0.0
 40
0.2024577181686314
 50
46.035293509074279
 51
86.129924512932206
  0
ARC
  5
82B0
  8
0
 10
3850.3374290067581569
 20
152.3855605770478121
 30
0.0
 40
0.0631167598771563
 50
301.4486704232833745
 51
36.9238152537353486
  0
ARC
  5
82B1
  8
0
 10
3850.3270116637418141
 20
152.3976023449451134
 30
0.0
 40
0.0788677917463914
 50
220.2249866405275043
 51
303.3411372877095005
  0
ARC
  5
82B2
  8
0
 10
3850.4179663191471263
 20
152.4332692067131063
 30
0.0
 40
0.1742187041722466
 50
167.3953107448473929
 51
209.8063634345710113
  0
ARC
  5
82B3
  8
0
 10
3850.2592707420330953
 20
152.468121211739998
 30
0.0
 40
0.0117586557041471
 50
81.5320976329463463
 51
164.3777023135639865
  0
CIRCLE
  5
82B4
  8
0
 10
3850.3283556771589247
 20
152.381457550078693
 30
0.0
 40
0.0268324157917019
  0
ARC
  5
82B5
  8
0
 10
3850.4328528315240874
 20
152.4671047474978991
 30
0.0
 40
0.2011020197578954
 50
180.6240970018843939
 51
206.6555002675841024
  0
ARC
  5
82B6
  8
0
 10
3850.3950684529131649
 20
152.4666931630798956
 30
0.0
 40
0.1633153995246159
 50
163.7132589638316915
 51
180.6240970018843939
  0
ARC
  5
82B7
  8
0
 10
3850.2483783364041301
 20
152.5095515088752904
 30
0.0
 40
0.010492534461638
 50
78.4839660511497641
 51
163.7132589638270019
  0
ARC
  5
82B8
  8
0
 10
3850.2286067972540877
 20
152.2694033441296142
 30
0.0
 40
0.2513822895129214
 50
50.6812589982545703
 51
85.0098652342628469
  0
ARC
  5
82B9
  8
0
 10
3850.3319271637360544
 20
152.4045400348354065
 30
0.0
 40
0.0815678578541515
 50
14.08982463948659
 51
46.6775514703979795
  0
ARC
  5
82BA
  8
0
 10
3850.3407583035577773
 20
152.4092213034518863
 30
0.0
 40
0.0719025301942729
 50
321.2340321069900142
 51
12.1845500860180795
  0
LINE
  5
82BB
  8
0
 10
3850.4005457666348775
 20
152.3855605770478121
 30
0.0
 11
3850.400763137031845
 21
152.4482998819019031
 31
0.0
  0
LINE
  5
82BC
  8
0
 10
3850.2440277502992103
 20
152.4431449927899962
 30
0.0
 11
3850.2445327919640476
 21
152.519313940303789
 31
0.0
  0
LINE
  5
82BD
  8
0
 10
3850.2480525414921431
 20
152.4716451244219968
 30
0.0
 11
3850.2479249306848033
 21
152.5200342424255098
 31
0.0
  0
ARC
  5
82BE
  8
0
 10
3850.6346970526478799
 20
151.6385633823074954
 30
0.0
 40
2.69879998457378
 50
75.5025844438248441
 51
89.6119619369942058
  0
ARC
  5
82BF
  8
0
 10
3850.6861501304870217
 20
151.9042896707535988
 30
0.0
 40
2.4287115881998509
 50
55.5608325783283306
 51
75.1084653534634441
  0
ARC
  5
82C0
  8
0
 10
3850.8350254147080705
 20
152.1213980131886103
 30
0.0
 40
2.1654628795484121
 50
32.7473636739823206
 51
55.5608325783283306
  0
ARC
  5
82C1
  8
0
 10
3850.2639127792390354
 20
152.0777327395261977
 30
0.0
 40
2.6832683844385441
 50
4.611802504278808
 51
26.9248529421420706
  0
ARC
  5
82C2
  8
0
 10
3850.7021295311251379
 20
152.3226673322419913
 30
0.0
 40
2.2365545849803872
 50
341.7499612390834045
 51
359.2522337807923236
  0
ARC
  5
82C3
  8
0
 10
3850.8603380655122237
 20
152.3544147836043123
 30
0.0
 40
2.0977606889771798
 50
317.6382096113381976
 51
339.5727192741421732
  0
ARC
  5
82C4
  8
0
 10
3850.4885091524588461
 20
152.6934867944418954
 30
0.0
 40
2.600976913989288
 50
300.2822011402657836
 51
317.6382096113381976
  0
ARC
  5
82C5
  8
0
 10
3852.5085004238758302
 20
149.3381617926289096
 30
0.0
 40
1.316165123313509
 50
122.5645038557390052
 51
147.0620332941099093
  0
ARC
  5
82C6
  8
0
 10
3852.394089151182925
 20
149.4883312904127877
 30
0.0
 40
1.140280072015287
 50
150.270595921082986
 51
176.1749854311088939
  0
ARC
  5
82C7
  8
0
 10
3866.8463964275920262
 20
148.7749808249546106
 30
0.0
 40
15.6100210042065797
 50
177.1012453425857132
 51
182.8987546574142016
  0
ARC
  5
82C8
  8
0
 10
3990.4200900372361502
 20
149.2505021002450007
 30
0.0
 40
139.16948967609909
 50
180.5207799502919954
 51
181.9251390380759119
  0
ARC
  5
82C9
  8
0
 10
3851.2862535620479321
 20
144.5793201473651095
 30
0.0
 40
0.043087234699491
 50
274.4296180721531755
 51
354.6263342762583193
  0
CIRCLE
  5
82CA
  8
0
 10
3851.2251585540720953
 20
153.6030768562887943
 30
0.0
 40
0.022546694579674
  0
CIRCLE
  5
82CB
  8
0
 10
3851.2240396013830832
 20
153.6079280263772091
 30
0.0
 40
0.076891192317175
  0
ARC
  5
82CC
  8
0
 10
3851.225727161793202
 20
153.6243017231666101
 30
0.0
 40
0.0919060818577666
 50
28.7416753393718487
 51
156.3548699535355979
  0
ARC
  5
82CD
  8
0
 10
3851.2344083695361405
 20
153.6359333431526863
 30
0.0
 40
0.0789314492522434
 50
324.8143563192733723
 51
24.3645619119576295
  0
ARC
  5
82CE
  8
0
 10
3851.2128093043388617
 20
153.633965574277795
 30
0.0
 40
0.0762852350223056
 50
159.1135517993637052
 51
212.7935940647554105
  0
LINE
  5
82CF
  8
0
 10
3851.3007481480321985
 20
153.6026313928364004
 30
0.0
 11
3851.3054070473331194
 21
153.670103947159987
 31
0.0
  0
LINE
  5
82D0
  8
0
 10
3851.147149799824092
 20
153.6083904895808985
 30
0.0
 11
3851.1458711631921688
 21
153.6697961994252069
 31
0.0
  0
ARC
  5
82D1
  8
0
 10
3850.6539998992720939
 20
151.60698925894539
 30
0.0
 40
2.3257499577629952
 50
79.179391949310002
 51
90.004422744807286
  0
ARC
  5
82D2
  8
0
 10
3850.6661153947429739
 20
151.670377035053491
 30
0.0
 40
2.2612147317972391
 50
65.4001671322787956
 51
79.179391949310002
  0
ARC
  5
82D3
  8
0
 10
3850.7420035959371489
 20
151.8361325198966938
 30
0.0
 40
2.0789130591879852
 50
43.6493401162565391
 51
65.4001671322787956
  0
ARC
  5
82D4
  8
0
 10
3850.9829841743758152
 20
152.0660112575804135
 30
0.0
 40
1.745872711446858
 50
22.7902797149227609
 51
43.6493401162565391
  0
ARC
  5
82D5
  8
0
 10
3851.1071292434521638
 20
152.118172258168812
 30
0.0
 40
1.611214744143068
 50
3.6732001495568838
 51
22.7902797149227609
  0
ARC
  5
82D6
  8
0
 10
3850.8569939240078384
 20
152.1021142180902075
 30
0.0
 40
1.861864975909167
 50
333.1868343126719196
 51
3.6732001495568838
  0
ARC
  5
82D7
  8
0
 10
3850.8544388198788511
 20
152.1927468581330061
 30
0.0
 40
1.906696114579931
 50
310.2173204756342102
 51
330.7901033539304763
  0
ARC
  5
82D8
  8
0
 10
3850.6829716270631252
 20
152.429061417139792
 30
0.0
 40
2.1979671812030421
 50
277.3518017488358964
 51
309.6528662999904213
  0
ARC
  5
82D9
  8
0
 10
3850.7363854855721002
 20
151.65837708117121
 30
0.0
 40
1.4275134892477921
 50
271.2989213816057941
 51
279.1840785319236034
  0
ARC
  5
82DA
  8
0
 10
3850.7691849210377768
 20
150.2118328265771936
 30
0.0
 40
0.0194025703305059
 50
91.2989213816058083
 51
202.9535284831906949
  0
ARC
  5
82DB
  8
0
 10
3850.1283515058330522
 20
150.0058441451949136
 30
0.0
 40
0.6538037208628164
 50
3.2815154678940148
 51
17.6672580830462884
  0
ARC
  5
82DC
  8
0
 10
3850.3694468131420763
 20
150.0278586885683865
 30
0.0
 40
0.4119247548774217
 50
345.2160474875968816
 51
2.1439836648559409
  0
ARC
  5
82DD
  8
0
 10
3850.604352850282794
 20
149.9791120154056898
 30
0.0
 40
0.172831700625529
 50
312.3427174845916738
 51
340.9657375290000232
  0
ARC
  5
82DE
  8
0
 10
3850.6444949000701854
 20
149.9335940955124897
 30
0.0
 40
0.1121542116645775
 50
284.3543401595201772
 51
312.8480031109014021
  0
ARC
  5
82DF
  8
0
 10
3850.6502137307711564
 20
149.9438135377143055
 30
0.0
 40
0.1209066917434482
 50
271.7093837633836984
 51
280.525407197592699
  0
ARC
  5
82E0
  8
0
 10
3850.2616471910669134
 20
150.0899462632492884
 30
0.0
 40
0.5025746837878281
 50
13.57002630859904
 51
18.697699165951061
  0
ARC
  5
82E1
  8
0
 10
3896.6981821614531327
 20
168.363181743207889
 30
0.0
 40
49.4005579938616393
 50
201.241508667034708
 51
201.5084238903955907
  0
ARC
  5
82E2
  8
0
 10
3851.2193709575740286
 20
153.6524732605803933
 30
0.0
 40
0.042561695187851
 50
249.8178001840337004
 51
303.5475374842479255
  0
CIRCLE
  5
82E3
  8
0
 10
3851.6338416084699929
 20
153.2271963149979968
 30
0.0
 40
0.022546694579674
  0
CIRCLE
  5
82E4
  8
0
 10
3851.6327226557800714
 20
153.2320474850864116
 30
0.0
 40
0.076891192317175
  0
ARC
  5
82E5
  8
0
 10
3851.6344102161901901
 20
153.2484211818758126
 30
0.0
 40
0.0919060818577666
 50
28.7416753393718487
 51
156.3548699535355979
  0
ARC
  5
82E6
  8
0
 10
3851.6430914239340382
 20
153.2600528018620025
 30
0.0
 40
0.0789314492522434
 50
324.8143563192733723
 51
24.3645619119576295
  0
ARC
  5
82E7
  8
0
 10
3851.6214923587358498
 20
153.2580850329869975
 30
0.0
 40
0.0762852350223056
 50
159.1135517993637052
 51
212.7935940647554105
  0
LINE
  5
82E8
  8
0
 10
3851.7094312024300962
 20
153.2267508515456029
 30
0.0
 11
3851.7140901017301076
 21
153.2942234058693032
 31
0.0
  0
LINE
  5
82E9
  8
0
 10
3851.5558328542210802
 20
153.232509948290101
 30
0.0
 11
3851.5545542175900664
 21
153.2939156581344093
 31
0.0
  0
ARC
  5
82EA
  8
0
 10
3851.6280540119710167
 20
153.2765927192897095
 30
0.0
 40
0.042561695187851
 50
249.8178001840337004
 51
303.5475374842479255
  0
CIRCLE
  5
82EB
  8
0
 10
3852.1494225039677985
 20
153.0036696939712897
 30
0.0
 40
0.022546694579674
  0
CIRCLE
  5
82EC
  8
0
 10
3852.1483035512801507
 20
153.0085208640597045
 30
0.0
 40
0.076891192317175
  0
ARC
  5
82ED
  8
0
 10
3852.1499911116889052
 20
153.0248945608491056
 30
0.0
 40
0.0919060818577666
 50
28.7416753393718487
 51
156.3548699535355979
  0
ARC
  5
82EE
  8
0
 10
3852.158672319433208
 20
153.0365261808352955
 30
0.0
 40
0.0789314492522434
 50
324.8143563192733723
 51
24.3645619119576295
  0
ARC
  5
82EF
  8
0
 10
3852.1370732542350197
 20
153.0345584119602904
 30
0.0
 40
0.0762852350223056
 50
159.1135517993637052
 51
212.7935940647554105
  0
LINE
  5
82F0
  8
0
 10
3852.2250120979288113
 20
153.0032242305188106
 30
0.0
 11
3852.2296709972301869
 21
153.0706967848425961
 31
0.0
  0
LINE
  5
82F1
  8
0
 10
3852.0714137497211595
 20
153.0089833272633939
 30
0.0
 11
3852.0701351130887815
 21
153.0703890371077023
 31
0.0
  0
ARC
  5
82F2
  8
0
 10
3852.1436349074701866
 20
153.0530660982628888
 30
0.0
 40
0.042561695187851
 50
249.8178001840337004
 51
303.5475374842479255
  0
CIRCLE
  5
82F3
  8
0
 10
3852.2428407921379403
 20
152.4846948826003938
 30
0.0
 40
0.022546694579674
  0
CIRCLE
  5
82F4
  8
0
 10
3852.2417218394489282
 20
152.4895460526888087
 30
0.0
 40
0.076891192317175
  0
ARC
  5
82F5
  8
0
 10
3852.243409399859047
 20
152.5059197494782097
 30
0.0
 40
0.0919060818577666
 50
28.7416753393718487
 51
156.3548699535355979
  0
ARC
  5
82F6
  8
0
 10
3852.2520906076019855
 20
152.5175513694643996
 30
0.0
 40
0.0789314492522434
 50
324.8143563192733723
 51
24.3645619119576295
  0
ARC
  5
82F7
  8
0
 10
3852.2304915424051615
 20
152.5155836005893946
 30
0.0
 40
0.0762852350223056
 50
159.1135517993637052
 51
212.7935940647554105
  0
LINE
  5
82F8
  8
0
 10
3852.3184303860980435
 20
152.484249419148
 30
0.0
 11
3852.3230892853989644
 21
152.5517219734717003
 31
0.0
  0
LINE
  5
82F9
  8
0
 10
3852.1648320378899371
 20
152.4900085158924981
 30
0.0
 11
3852.1635534012580138
 21
152.5514142257368064
 31
0.0
  0
CIRCLE
  5
82FA
  8
0
 10
3852.5006966985170038
 20
152.0347341721980001
 30
0.0
 40
0.022546694579674
  0
CIRCLE
  5
82FB
  8
0
 10
3852.4995777458279917
 20
152.0395853422863865
 30
0.0
 40
0.076891192317175
  0
ARC
  5
82FC
  8
0
 10
3852.501265306237201
 20
152.0559590390757876
 30
0.0
 40
0.0919060818577666
 50
28.7416753393718487
 51
156.3548699535355979
  0
ARC
  5
82FD
  8
0
 10
3852.5099465139819586
 20
152.0675906590620059
 30
0.0
 40
0.0789314492522434
 50
324.8143563192733723
 51
24.3645619119576295
  0
ARC
  5
82FE
  8
0
 10
3852.488347448784225
 20
152.0656228901870008
 30
0.0
 40
0.0762852350223056
 50
159.1135517993637052
 51
212.7935940647554105
  0
LINE
  5
82FF
  8
0
 10
3852.5762862924780165
 20
152.0342887087456063
 30
0.0
 11
3852.5809451917771185
 21
152.1017612630693066
 31
0.0
  0
LINE
  5
8300
  8
0
 10
3852.4226879442690006
 20
152.0400478054901043
 30
0.0
 11
3852.4214093076379868
 21
152.1014535153344127
 31
0.0
  0
CIRCLE
  5
8301
  8
0
 10
3852.2418342887558538
 20
151.5659664026989901
 30
0.0
 40
0.022546694579674
  0
CIRCLE
  5
8302
  8
0
 10
3852.2407153360668417
 20
151.570817572787405
 30
0.0
 40
0.076891192317175
  0
ARC
  5
8303
  8
0
 10
3852.2424028964769604
 20
151.587191269576806
 30
0.0
 40
0.0919060818577666
 50
28.7416753393718487
 51
156.3548699535355979
  0
ARC
  5
8304
  8
0
 10
3852.2510841042208085
 20
151.5988228895629959
 30
0.0
 40
0.0789314492522434
 50
324.8143563192733723
 51
24.3645619119576295
  0
ARC
  5
8305
  8
0
 10
3852.2294850390230749
 20
151.5968551206879908
 30
0.0
 40
0.0762852350223056
 50
159.1135517993637052
 51
212.7935940647554105
  0
LINE
  5
8306
  8
0
 10
3852.3174238827168665
 20
151.565520939246511
 30
0.0
 11
3852.3220827820168779
 21
151.6329934935702966
 31
0.0
  0
LINE
  5
8307
  8
0
 10
3852.1638255345078505
 20
151.5712800359910943
 30
0.0
 11
3852.1625468978768367
 21
151.6326857458354027
 31
0.0
  0
CIRCLE
  5
8308
  8
0
 10
3852.1495248985020226
 20
151.0684919370457067
 30
0.0
 40
0.022546694579674
  0
CIRCLE
  5
8309
  8
0
 10
3852.1484059458130105
 20
151.0733431071342068
 30
0.0
 40
0.076891192317175
  0
ARC
  5
830A
  8
0
 10
3852.1500935062231292
 20
151.0897168039234941
 30
0.0
 40
0.0919060818577666
 50
28.7416753393718487
 51
156.3548699535355979
  0
ARC
  5
830B
  8
0
 10
3852.1587747139669773
 20
151.1013484239097124
 30
0.0
 40
0.0789314492522434
 50
324.8143563192733723
 51
24.3645619119576295
  0
ARC
  5
830C
  8
0
 10
3852.137175648768789
 20
151.0993806550347074
 30
0.0
 40
0.0762852350223056
 50
159.1135517993637052
 51
212.7935940647554105
  0
LINE
  5
830D
  8
0
 10
3852.2251144924621258
 20
151.0680464735933128
 30
0.0
 11
3852.2297733917621372
 21
151.1355190279170131
 31
0.0
  0
LINE
  5
830E
  8
0
 10
3852.0715161442540193
 20
151.0738055703378109
 30
0.0
 11
3852.0702375076230055
 21
151.1352112801820908
 31
0.0
  0
CIRCLE
  5
830F
  8
0
 10
3851.6322964564888025
 20
150.820536114479296
 30
0.0
 40
0.022546694579674
  0
CIRCLE
  5
8310
  8
0
 10
3851.6311775037997904
 20
150.8253872845677961
 30
0.0
 40
0.076891192317175
  0
ARC
  5
8311
  8
0
 10
3851.6328650642089997
 20
150.8417609813571119
 30
0.0
 40
0.0919060818577666
 50
28.7416753393718487
 51
156.3548699535355979
  0
ARC
  5
8312
  8
0
 10
3851.641546271954212
 20
150.8533926013433017
 30
0.0
 40
0.0789314492522434
 50
324.8143563192733723
 51
24.3645619119576295
  0
ARC
  5
8313
  8
0
 10
3851.6199472067560237
 20
150.8514248324682967
 30
0.0
 40
0.0762852350223056
 50
159.1135517993637052
 51
212.7935940647554105
  0
LINE
  5
8314
  8
0
 10
3851.7078860504498152
 20
150.8200906510269022
 30
0.0
 11
3851.7125449497498266
 21
150.8875632053506024
 31
0.0
  0
LINE
  5
8315
  8
0
 10
3851.5542877022407993
 20
150.8258497477714002
 30
0.0
 11
3851.553009065608876
 21
150.8872554576157086
 31
0.0
  0
CIRCLE
  5
8316
  8
0
 10
3851.2239681919681971
 20
150.469360969894808
 30
0.0
 40
0.022546694579674
  0
CIRCLE
  5
8317
  8
0
 10
3851.2228492392800945
 20
150.4742121399833081
 30
0.0
 40
0.076891192317175
  0
ARC
  5
8318
  8
0
 10
3851.224536799688849
 20
150.4905858367727092
 30
0.0
 40
0.0919060818577666
 50
28.7416753393718487
 51
156.3548699535355979
  0
ARC
  5
8319
  8
0
 10
3851.2332180074331518
 20
150.5022174567588138
 30
0.0
 40
0.0789314492522434
 50
324.8143563192733723
 51
24.3645619119576295
  0
ARC
  5
831A
  8
0
 10
3851.2116189422349635
 20
150.5002496878838087
 30
0.0
 40
0.0762852350223056
 50
159.1135517993637052
 51
212.7935940647554105
  0
LINE
  5
831B
  8
0
 10
3851.2995577859278455
 20
150.4689155064424995
 30
0.0
 11
3851.3042166852301307
 21
150.536388060766086
 31
0.0
  0
LINE
  5
831C
  8
0
 10
3851.1459594377211033
 20
150.4746746031869975
 30
0.0
 11
3851.1446808010900895
 21
150.5360803130313059
 31
0.0
  0
CIRCLE
  5
831D
  8
0
 10
3851.0869614331959383
 20
150.8266888504529106
 30
0.0
 40
0.021738018308359
  0
ARC
  5
831E
  8
0
 10
3851.0915526969461098
 20
150.8313968366126119
 30
0.0
 40
0.0509608382593787
 50
281.7722207865277824
 51
355.2547148599766729
  0
ARC
  5
831F
  8
0
 10
3851.0882402728320812
 20
150.847291009605101
 30
0.0
 40
0.0671965054348802
 50
226.9775668352075968
 51
281.7722207865277824
  0
ARC
  5
8320
  8
0
 10
3851.079283931584996
 20
150.8303647537937024
 30
0.0
 40
0.0489671820438567
 50
178.5010899358933898
 51
221.1161457183929997
  0
ARC
  5
8321
  8
0
 10
3851.1103911088739551
 20
150.8636635446814012
 30
0.0
 40
0.0333630158544987
 50
1.3037342184649989
 51
42.0417779383583508
  0
ARC
  5
8322
  8
0
 10
3851.0898467589581742
 20
150.8397829185070975
 30
0.0
 40
0.0647348964044323
 50
45.5640837239501124
 51
157.7526515900574111
  0
ARC
  5
8323
  8
0
 10
3851.0423549328029367
 20
150.8600805534071867
 30
0.0
 40
0.0131184348418912
 50
161.2749573756416908
 51
192.2832384955304974
  0
ARC
  5
8324
  8
0
 10
3851.1098568886441171
 20
150.8541963380586992
 30
0.0
 40
0.04212530430314
 50
320.4672257583978876
 51
13.9894597704145998
  0
ARC
  5
8325
  8
0
 10
3851.0877745326688455
 20
150.8388880813448907
 30
0.0
 40
0.0679232614866563
 50
22.0430112471342916
 51
169.2678320247397039
  0
ARC
  5
8326
  8
0
 10
3851.0600514968109565
 20
150.8497114591640127
 30
0.0
 40
0.0390548110428201
 50
177.3213835014599908
 51
221.3776371648789905
  0
LINE
  5
8327
  8
0
 10
3851.1423388574230557
 20
150.8271810401132882
 30
0.0
 11
3851.1437454879969664
 21
150.8644226364046119
 31
0.0
  0
LINE
  5
8328
  8
0
 10
3851.0303335049970883
 20
150.8316456340045875
 30
0.0
 11
3851.0295368070969744
 21
150.8572896779045891
 31
0.0
  0
ARC
  5
8329
  8
0
 10
3851.0859715336691806
 20
150.8202652538743109
 30
0.0
 40
0.0567899928375159
 50
6.9947418646826822
 51
168.4399934869547053
  0
CIRCLE
  5
832A
  8
0
 10
3851.2995724988809343
 20
151.2041578976983089
 30
0.0
 40
0.021738018308359
  0
ARC
  5
832B
  8
0
 10
3851.3041637626320153
 20
151.2088658838580102
 30
0.0
 40
0.0509608382593787
 50
281.7722207865277824
 51
355.2547148599766729
  0
ARC
  5
832C
  8
0
 10
3851.3008513385161677
 20
151.224760056850414
 30
0.0
 40
0.0671965054348802
 50
226.9775668352075968
 51
281.7722207865277824
  0
ARC
  5
832D
  8
0
 10
3851.2918949972709015
 20
151.2078338010391008
 30
0.0
 40
0.0489671820438567
 50
178.5010899358933898
 51
221.1161457183929997
  0
ARC
  5
832E
  8
0
 10
3851.3230021745589511
 20
151.2411325919267995
 30
0.0
 40
0.0333630158544987
 50
1.3037342184649989
 51
42.0417779383583508
  0
ARC
  5
832F
  8
0
 10
3851.3024578246431702
 20
151.2172519657524106
 30
0.0
 40
0.0647348964044323
 50
45.5640837239501124
 51
157.7526515900574111
  0
ARC
  5
8330
  8
0
 10
3851.2549659984888422
 20
151.2375496006524997
 30
0.0
 40
0.0131184348418912
 50
161.2749573756416908
 51
192.2832384955304974
  0
ARC
  5
8331
  8
0
 10
3851.3224679543300226
 20
151.2316653853040975
 30
0.0
 40
0.04212530430314
 50
320.4672257583978876
 51
13.9894597704145998
  0
ARC
  5
8332
  8
0
 10
3851.3003855983538415
 20
151.216357128590289
 30
0.0
 40
0.0679232614866563
 50
22.0430112471342916
 51
169.2678320247397039
  0
ARC
  5
8333
  8
0
 10
3851.2726625624959524
 20
151.227180506409411
 30
0.0
 40
0.0390548110428201
 50
177.3213835014599908
 51
221.3776371648789905
  0
LINE
  5
8334
  8
0
 10
3851.3549499231080517
 20
151.2046500873586012
 30
0.0
 11
3851.3563565536819624
 21
151.2418916836500102
 31
0.0
  0
LINE
  5
8335
  8
0
 10
3851.2429445706820843
 20
151.2091146812499005
 30
0.0
 11
3851.2421478727810609
 21
151.2347587251499021
 31
0.0
  0
ARC
  5
8336
  8
0
 10
3851.2985825993550861
 20
151.1977343011197092
 30
0.0
 40
0.0567899928375159
 50
6.9947418646826822
 51
168.4399934869547053
  0
CIRCLE
  5
8337
  8
0
 10
3850.9107271028760806
 20
151.2828977729647875
 30
0.0
 40
0.021738018308359
  0
ARC
  5
8338
  8
0
 10
3850.9153183666257974
 20
151.2876057591244887
 30
0.0
 40
0.0509608382593787
 50
281.7722207865277824
 51
355.2547148599766729
  0
ARC
  5
8339
  8
0
 10
3850.9120059425108593
 20
151.3034999321168925
 30
0.0
 40
0.0671965054348802
 50
226.9775668352075968
 51
281.7722207865277824
  0
ARC
  5
833A
  8
0
 10
3850.9030496012637741
 20
151.2865736763056077
 30
0.0
 40
0.0489671820438567
 50
178.5010899358933898
 51
221.1161457183929997
  0
ARC
  5
833B
  8
0
 10
3850.9341567785531879
 20
151.3198724671933064
 30
0.0
 40
0.0333630158544987
 50
1.3037342184649989
 51
42.0417779383583508
  0
ARC
  5
833C
  8
0
 10
3850.9136124286378617
 20
151.2959918410188891
 30
0.0
 40
0.0647348964044323
 50
45.5640837239501124
 51
157.7526515900574111
  0
ARC
  5
833D
  8
0
 10
3850.8661206024821695
 20
151.3162894759190067
 30
0.0
 40
0.0131184348418912
 50
161.2749573756416908
 51
192.2832384955304974
  0
ARC
  5
833E
  8
0
 10
3850.9336225583238047
 20
151.3104052605706045
 30
0.0
 40
0.04212530430314
 50
320.4672257583978876
 51
13.9894597704145998
  0
ARC
  5
833F
  8
0
 10
3850.9115402023480783
 20
151.2950970038567959
 30
0.0
 40
0.0679232614866563
 50
22.0430112471342916
 51
169.2678320247397039
  0
ARC
  5
8340
  8
0
 10
3850.8838171664901893
 20
151.3059203816758895
 30
0.0
 40
0.0390548110428201
 50
177.3213835014599908
 51
221.3776371648789905
  0
LINE
  5
8341
  8
0
 10
3850.9661045271031981
 20
151.2833899626251082
 30
0.0
 11
3850.9675111576761992
 21
151.3206315589164888
 31
0.0
  0
LINE
  5
8342
  8
0
 10
3850.8540991746767759
 20
151.2878545565164927
 30
0.0
 11
3850.8533024767762072
 21
151.3134986004164091
 31
0.0
  0
ARC
  5
8343
  8
0
 10
3850.9097372033488682
 20
151.2764741763861878
 30
0.0
 40
0.0567899928375159
 50
6.9947418646826822
 51
168.4399934869547053
  0
CIRCLE
  5
8344
  8
0
 10
3851.7849351053941973
 20
151.2752814789056117
 30
0.0
 40
0.021738018308359
  0
ARC
  5
8345
  8
0
 10
3851.7895263691448235
 20
151.2799894650651993
 30
0.0
 40
0.0509608382593787
 50
281.7722207865277824
 51
355.2547148599766729
  0
ARC
  5
8346
  8
0
 10
3851.786213945028976
 20
151.2958836380576884
 30
0.0
 40
0.0671965054348802
 50
226.9775668352075968
 51
281.7722207865277824
  0
ARC
  5
8347
  8
0
 10
3851.7772576037841645
 20
151.2789573822462899
 30
0.0
 40
0.0489671820438567
 50
178.5010899358933898
 51
221.1161457183929997
  0
ARC
  5
8348
  8
0
 10
3851.8083647810722141
 20
151.3122561731341023
 30
0.0
 40
0.0333630158544987
 50
1.3037342184649989
 51
42.0417779383583508
  0
ARC
  5
8349
  8
0
 10
3851.7878204311568879
 20
151.2883755469597133
 30
0.0
 40
0.0647348964044323
 50
45.5640837239501124
 51
157.7526515900574111
  0
ARC
  5
834A
  8
0
 10
3851.7403286050021052
 20
151.3086731818598025
 30
0.0
 40
0.0131184348418912
 50
161.2749573756416908
 51
192.2832384955304974
  0
ARC
  5
834B
  8
0
 10
3851.8078305608441951
 20
151.3027889665112866
 30
0.0
 40
0.04212530430314
 50
320.4672257583978876
 51
13.9894597704145998
  0
ARC
  5
834C
  8
0
 10
3851.7857482048671045
 20
151.2874807097975918
 30
0.0
 40
0.0679232614866563
 50
22.0430112471342916
 51
169.2678320247397039
  0
ARC
  5
834D
  8
0
 10
3851.7580251690092155
 20
151.2983040876167138
 30
0.0
 40
0.0390548110428201
 50
177.3213835014599908
 51
221.3776371648789905
  0
LINE
  5
834E
  8
0
 10
3851.8403125296222242
 20
151.275773668565904
 30
0.0
 11
3851.8417191601952254
 21
151.3130152648571993
 31
0.0
  0
LINE
  5
834F
  8
0
 10
3851.7283071771948926
 20
151.2802382624572033
 30
0.0
 11
3851.7275104792947786
 21
151.3058823063572049
 31
0.0
  0
ARC
  5
8350
  8
0
 10
3851.7839452058678944
 20
151.268857882327012
 30
0.0
 40
0.0567899928375159
 50
6.9947418646826822
 51
168.4399934869547053
  0
CIRCLE
  5
8351
  8
0
 10
3851.3260376896309936
 20
151.5501493942037996
 30
0.0
 40
0.021738018308359
  0
ARC
  5
8352
  8
0
 10
3851.3306289533820745
 20
151.5548573803635009
 30
0.0
 40
0.0509608382593787
 50
281.7722207865277824
 51
355.2547148599766729
  0
ARC
  5
8353
  8
0
 10
3851.3273165292671365
 20
151.5707515533559899
 30
0.0
 40
0.0671965054348802
 50
226.9775668352075968
 51
281.7722207865277824
  0
ARC
  5
8354
  8
0
 10
3851.3183601880200513
 20
151.5538252975445914
 30
0.0
 40
0.0489671820438567
 50
178.5010899358933898
 51
221.1161457183929997
  0
ARC
  5
8355
  8
0
 10
3851.3494673653090103
 20
151.5871240884322901
 30
0.0
 40
0.0333630158544987
 50
1.3037342184649989
 51
42.0417779383583508
  0
ARC
  5
8356
  8
0
 10
3851.3289230153927747
 20
151.5632434622579012
 30
0.0
 40
0.0647348964044323
 50
45.5640837239501124
 51
157.7526515900574111
  0
ARC
  5
8357
  8
0
 10
3851.2814311892389014
 20
151.5835410971581041
 30
0.0
 40
0.0131184348418912
 50
161.2749573756416908
 51
192.2832384955304974
  0
ARC
  5
8358
  8
0
 10
3851.3489331450800819
 20
151.5776568818095882
 30
0.0
 40
0.04212530430314
 50
320.4672257583978876
 51
13.9894597704145998
  0
ARC
  5
8359
  8
0
 10
3851.3268507891039008
 20
151.5623486250958933
 30
0.0
 40
0.0679232614866563
 50
22.0430112471342916
 51
169.2678320247397039
  0
ARC
  5
835A
  8
0
 10
3851.2991277532460117
 20
151.5731720029149017
 30
0.0
 40
0.0390548110428201
 50
177.3213835014599908
 51
221.3776371648789905
  0
LINE
  5
835B
  8
0
 10
3851.381415113858111
 20
151.5506415838642056
 30
0.0
 11
3851.3828217444320217
 21
151.5878831801555009
 31
0.0
  0
LINE
  5
835C
  8
0
 10
3851.2694097614321436
 20
151.5551061777555049
 30
0.0
 11
3851.2686130635311201
 21
151.5807502216555065
 31
0.0
  0
ARC
  5
835D
  8
0
 10
3851.3250477901051454
 20
151.5437257976251999
 30
0.0
 40
0.0567899928375159
 50
6.9947418646826822
 51
168.4399934869547053
  0
CIRCLE
  5
835E
  8
0
 10
3851.7000652217861898
 20
151.693304961395711
 30
0.0
 40
0.021738018308359
  0
ARC
  5
835F
  8
0
 10
3851.7046564855359065
 20
151.6980129475554122
 30
0.0
 40
0.0509608382593787
 50
281.7722207865277824
 51
355.2547148599766729
  0
ARC
  5
8360
  8
0
 10
3851.7013440614209685
 20
151.7139071205479013
 30
0.0
 40
0.0671965054348802
 50
226.9775668352075968
 51
281.7722207865277824
  0
ARC
  5
8361
  8
0
 10
3851.692387720176157
 20
151.6969808647365028
 30
0.0
 40
0.0489671820438567
 50
178.5010899358933898
 51
221.1161457183929997
  0
ARC
  5
8362
  8
0
 10
3851.7234948974642066
 20
151.7302796556242015
 30
0.0
 40
0.0333630158544987
 50
1.3037342184649989
 51
42.0417779383583508
  0
ARC
  5
8363
  8
0
 10
3851.7029505475488804
 20
151.7063990294498126
 30
0.0
 40
0.0647348964044323
 50
45.5640837239501124
 51
157.7526515900574111
  0
ARC
  5
8364
  8
0
 10
3851.6554587213931882
 20
151.726696664349987
 30
0.0
 40
0.0131184348418912
 50
161.2749573756416908
 51
192.2832384955304974
  0
ARC
  5
8365
  8
0
 10
3851.7229606772348234
 20
151.7208124490014995
 30
0.0
 40
0.04212530430314
 50
320.4672257583978876
 51
13.9894597704145998
  0
ARC
  5
8366
  8
0
 10
3851.700878321259097
 20
151.705504192287691
 30
0.0
 40
0.0679232614866563
 50
22.0430112471342916
 51
169.2678320247397039
  0
ARC
  5
8367
  8
0
 10
3851.6731552854012079
 20
151.716327570106813
 30
0.0
 40
0.0390548110428201
 50
177.3213835014599908
 51
221.3776371648789905
  0
LINE
  5
8368
  8
0
 10
3851.7554426460142167
 20
151.6937971510560885
 30
0.0
 11
3851.7568492765872179
 21
151.7310387473474123
 31
0.0
  0
LINE
  5
8369
  8
0
 10
3851.6434372935868851
 20
151.6982617449473878
 30
0.0
 11
3851.6426405956872259
 21
151.7239057888473894
 31
0.0
  0
ARC
  5
836A
  8
0
 10
3851.6990753222598869
 20
151.6868813648171113
 30
0.0
 40
0.0567899928375159
 50
6.9947418646826822
 51
168.4399934869547053
  0
CIRCLE
  5
836B
  8
0
 10
3851.4890994454208339
 20
151.9879039974262014
 30
0.0
 40
0.021738018308359
  0
ARC
  5
836C
  8
0
 10
3851.4936907091710054
 20
151.9926119835859026
 30
0.0
 40
0.0509608382593787
 50
281.7722207865277824
 51
355.2547148599766729
  0
ARC
  5
836D
  8
0
 10
3851.4903782850560674
 20
152.0085061565783064
 30
0.0
 40
0.0671965054348802
 50
226.9775668352075968
 51
281.7722207865277824
  0
ARC
  5
836E
  8
0
 10
3851.4814219438089822
 20
151.9915799007669932
 30
0.0
 40
0.0489671820438567
 50
178.5010899358933898
 51
221.1161457183929997
  0
ARC
  5
836F
  8
0
 10
3851.5125291210979412
 20
152.0248786916546919
 30
0.0
 40
0.0333630158544987
 50
1.3037342184649989
 51
42.0417779383583508
  0
ARC
  5
8370
  8
0
 10
3851.4919847711830698
 20
152.000998065480303
 30
0.0
 40
0.0647348964044323
 50
45.5640837239501124
 51
157.7526515900574111
  0
ARC
  5
8371
  8
0
 10
3851.4444929450278323
 20
152.0212957003803922
 30
0.0
 40
0.0131184348418912
 50
161.2749573756416908
 51
192.2832384955304974
  0
ARC
  5
8372
  8
0
 10
3851.5119949008690128
 20
152.01541148503199
 30
0.0
 40
0.04212530430314
 50
320.4672257583978876
 51
13.9894597704145998
  0
ARC
  5
8373
  8
0
 10
3851.4899125448941959
 20
152.0001032283182099
 30
0.0
 40
0.0679232614866563
 50
22.0430112471342916
 51
169.2678320247397039
  0
ARC
  5
8374
  8
0
 10
3851.4621895090349426
 20
152.0109266061373035
 30
0.0
 40
0.0390548110428201
 50
177.3213835014599908
 51
221.3776371648789905
  0
LINE
  5
8375
  8
0
 10
3851.5444768696479514
 20
151.9883961870864937
 30
0.0
 11
3851.5458835002218621
 21
152.0256377833779027
 31
0.0
  0
LINE
  5
8376
  8
0
 10
3851.432471517221984
 20
151.9928607809779066
 30
0.0
 11
3851.4316748193209605
 21
152.0185048248779083
 31
0.0
  0
ARC
  5
8377
  8
0
 10
3851.4881095458940763
 20
151.9814804008476017
 30
0.0
 40
0.0567899928375159
 50
6.9947418646826822
 51
168.4399934869547053
  0
CIRCLE
  5
8378
  8
0
 10
3852.0658122441968771
 20
152.0170319784045887
 30
0.0
 40
0.021738018308359
  0
ARC
  5
8379
  8
0
 10
3852.0704035079470486
 20
152.0217399645642047
 30
0.0
 40
0.0509608382593787
 50
281.7722207865277824
 51
355.2547148599766729
  0
ARC
  5
837A
  8
0
 10
3852.0670910838321106
 20
152.0376341375566938
 30
0.0
 40
0.0671965054348802
 50
226.9775668352075968
 51
281.7722207865277824
  0
ARC
  5
837B
  8
0
 10
3852.0581347425859349
 20
152.0207078817452953
 30
0.0
 40
0.0489671820438567
 50
178.5010899358933898
 51
221.1161457183929997
  0
ARC
  5
837C
  8
0
 10
3852.0892419198748939
 20
152.0540066726331077
 30
0.0
 40
0.0333630158544987
 50
1.3037342184649989
 51
42.0417779383583508
  0
ARC
  5
837D
  8
0
 10
3852.068697569959113
 20
152.0301260464586903
 30
0.0
 40
0.0647348964044323
 50
45.5640837239501124
 51
157.7526515900574111
  0
ARC
  5
837E
  8
0
 10
3852.0212057438038755
 20
152.0504236813588079
 30
0.0
 40
0.0131184348418912
 50
161.2749573756416908
 51
192.2832384955304974
  0
ARC
  5
837F
  8
0
 10
3852.0887076996459655
 20
152.0445394660104057
 30
0.0
 40
0.04212530430314
 50
320.4672257583978876
 51
13.9894597704145998
  0
ARC
  5
8380
  8
0
 10
3852.0666253436688748
 20
152.0292312092965972
 30
0.0
 40
0.0679232614866563
 50
22.0430112471342916
 51
169.2678320247397039
  0
ARC
  5
8381
  8
0
 10
3852.0389023078109858
 20
152.0400545871156908
 30
0.0
 40
0.0390548110428201
 50
177.3213835014599908
 51
221.3776371648789905
  0
LINE
  5
8382
  8
0
 10
3852.1211896684230851
 20
152.0175241680649094
 30
0.0
 11
3852.1225962989969958
 21
152.0547657643562047
 31
0.0
  0
LINE
  5
8383
  8
0
 10
3852.0091843159980272
 20
152.0219887619562087
 30
0.0
 11
3852.0083876180970037
 21
152.0476328058562103
 31
0.0
  0
ARC
  5
8384
  8
0
 10
3852.0648223446701195
 20
152.010608381825989
 30
0.0
 40
0.0567899928375159
 50
6.9947418646826822
 51
168.4399934869547053
  0
CIRCLE
  5
8385
  8
0
 10
3851.6989951065697824
 20
152.2980313622315123
 30
0.0
 40
0.021738018308359
  0
ARC
  5
8386
  8
0
 10
3851.7035863703208634
 20
152.3027393483912135
 30
0.0
 40
0.0509608382593787
 50
281.7722207865277824
 51
355.2547148599766729
  0
ARC
  5
8387
  8
0
 10
3851.7002739462050158
 20
152.3186335213835889
 30
0.0
 40
0.0671965054348802
 50
226.9775668352075968
 51
281.7722207865277824
  0
ARC
  5
8388
  8
0
 10
3851.6913176049588401
 20
152.3017072655723041
 30
0.0
 40
0.0489671820438567
 50
178.5010899358933898
 51
221.1161457183929997
  0
ARC
  5
8389
  8
0
 10
3851.7224247822477992
 20
152.3350060564600028
 30
0.0
 40
0.0333630158544987
 50
1.3037342184649989
 51
42.0417779383583508
  0
ARC
  5
838A
  8
0
 10
3851.7018804323320182
 20
152.3111254302856139
 30
0.0
 40
0.0647348964044323
 50
45.5640837239501124
 51
157.7526515900574111
  0
ARC
  5
838B
  8
0
 10
3851.654388606178145
 20
152.3314230651857031
 30
0.0
 40
0.0131184348418912
 50
161.2749573756416908
 51
192.2832384955304974
  0
ARC
  5
838C
  8
0
 10
3851.7218905620188707
 20
152.3255388498373009
 30
0.0
 40
0.04212530430314
 50
320.4672257583978876
 51
13.9894597704145998
  0
ARC
  5
838D
  8
0
 10
3851.6998082060417801
 20
152.3102305931234923
 30
0.0
 40
0.0679232614866563
 50
22.0430112471342916
 51
169.2678320247397039
  0
ARC
  5
838E
  8
0
 10
3851.672085170183891
 20
152.3210539709425859
 30
0.0
 40
0.0390548110428201
 50
177.3213835014599908
 51
221.3776371648789905
  0
LINE
  5
838F
  8
0
 10
3851.7543725307968998
 20
152.2985235518918046
 30
0.0
 11
3851.7557791613708105
 21
152.3357651481832136
 31
0.0
  0
LINE
  5
8390
  8
0
 10
3851.6423671783709324
 20
152.3029881457831038
 30
0.0
 11
3851.6415704804708184
 21
152.3286321896831055
 31
0.0
  0
ARC
  5
8391
  8
0
 10
3851.6980052070430247
 20
152.2916077656529126
 30
0.0
 40
0.0567899928375159
 50
6.9947418646826822
 51
168.4399934869547053
  0
CIRCLE
  5
8392
  8
0
 10
3851.3251305027920353
 20
152.4232596220302014
 30
0.0
 40
0.021738018308359
  0
ARC
  5
8393
  8
0
 10
3851.3297217665408425
 20
152.4279676081899026
 30
0.0
 40
0.0509608382593787
 50
281.7722207865277824
 51
355.2547148599766729
  0
ARC
  5
8394
  8
0
 10
3851.3264093424259045
 20
152.4438617811823065
 30
0.0
 40
0.0671965054348802
 50
226.9775668352075968
 51
281.7722207865277824
  0
ARC
  5
8395
  8
0
 10
3851.3174530011801835
 20
152.4269355253709932
 30
0.0
 40
0.0489671820438567
 50
178.5010899358933898
 51
221.1161457183929997
  0
ARC
  5
8396
  8
0
 10
3851.3485601784700521
 20
152.4602343162586919
 30
0.0
 40
0.0333630158544987
 50
1.3037342184649989
 51
42.0417779383583508
  0
ARC
  5
8397
  8
0
 10
3851.3280158285529069
 20
152.436353690084303
 30
0.0
 40
0.0647348964044323
 50
45.5640837239501124
 51
157.7526515900574111
  0
ARC
  5
8398
  8
0
 10
3851.2805240023981241
 20
152.4566513249843922
 30
0.0
 40
0.0131184348418912
 50
161.2749573756416908
 51
192.2832384955304974
  0
ARC
  5
8399
  8
0
 10
3851.3480259582402141
 20
152.45076710963599
 30
0.0
 40
0.04212530430314
 50
320.4672257583978876
 51
13.9894597704145998
  0
ARC
  5
839A
  8
0
 10
3851.3251459360722038
 20
152.443513846455204
 30
0.0
 40
0.0660973210768996
 50
15.2959339267918395
 51
176.0149093450795021
  0
ARC
  5
839B
  8
0
 10
3851.2982205664061439
 20
152.4462822307413035
 30
0.0
 40
0.0390548110428201
 50
177.3213835014599908
 51
221.3776371648789905
  0
LINE
  5
839C
  8
0
 10
3851.3805079270177885
 20
152.4237518116904937
 30
0.0
 11
3851.3819145575921539
 21
152.460993407981789
 31
0.0
  0
LINE
  5
839D
  8
0
 10
3851.268502574591821
 20
152.4282164055819067
 30
0.0
 11
3851.2677058766921618
 21
152.4538604494819083
 31
0.0
  0
ARC
  5
839E
  8
0
 10
3851.3241406032639134
 20
152.4168360254516017
 30
0.0
 40
0.0567899928375159
 50
6.9947418646826822
 51
168.4399934869547053
  0
CIRCLE
  5
839F
  8
0
 10
3851.788939983374803
 20
152.7425734693484003
 30
0.0
 40
0.021738018308359
  0
ARC
  5
83A0
  8
0
 10
3851.793531247125884
 20
152.7472814555081015
 30
0.0
 40
0.0509608382593787
 50
281.7722207865277824
 51
355.2547148599766729
  0
ARC
  5
83A1
  8
0
 10
3851.7902188230109459
 20
152.7631756285005054
 30
0.0
 40
0.0671965054348802
 50
226.9775668352075968
 51
281.7722207865277824
  0
ARC
  5
83A2
  8
0
 10
3851.7812624817652249
 20
152.7462493726891921
 30
0.0
 40
0.0489671820438567
 50
178.5010899358933898
 51
221.1161457183929997
  0
ARC
  5
83A3
  8
0
 10
3851.812369659054184
 20
152.7795481635768908
 30
0.0
 40
0.0333630158544987
 50
1.3037342184649989
 51
42.0417779383583508
  0
ARC
  5
83A4
  8
0
 10
3851.7918253091370389
 20
152.7556675374025019
 30
0.0
 40
0.0647348964044323
 50
45.5640837239501124
 51
157.7526515900574111
  0
ARC
  5
83A5
  8
0
 10
3851.7443334829831656
 20
152.7759651723027048
 30
0.0
 40
0.0131184348418912
 50
161.2749573756416908
 51
192.2832384955304974
  0
ARC
  5
83A6
  8
0
 10
3851.8118354388238913
 20
152.7700809569541889
 30
0.0
 40
0.04212530430314
 50
320.4672257583978876
 51
13.9894597704145998
  0
ARC
  5
83A7
  8
0
 10
3851.788955416655881
 20
152.7628276937734881
 30
0.0
 40
0.0660973210768996
 50
15.2959339267918395
 51
176.0149093450795021
  0
ARC
  5
83A8
  8
0
 10
3851.7620300469898211
 20
152.7655960780595024
 30
0.0
 40
0.0390548110428201
 50
177.3213835014599908
 51
221.3776371648789905
  0
LINE
  5
83A9
  8
0
 10
3851.8443174076028299
 20
152.7430656590088063
 30
0.0
 11
3851.8457240381758311
 21
152.7803072553001016
 31
0.0
  0
LINE
  5
83AA
  8
0
 10
3851.732312055175953
 20
152.7475302529001056
 30
0.0
 11
3851.7315153572758391
 21
152.7731742968001072
 31
0.0
  0
ARC
  5
83AB
  8
0
 10
3851.7879500838480453
 20
152.7361498727698006
 30
0.0
 40
0.0567899928375159
 50
6.9947418646826822
 51
168.4399934869547053
  0
CIRCLE
  5
83AC
  8
0
 10
3851.2994175732837903
 20
152.7866053644495139
 30
0.0
 40
0.021738018308359
  0
ARC
  5
83AD
  8
0
 10
3851.3040088370348712
 20
152.7913133506091015
 30
0.0
 40
0.0509608382593787
 50
281.7722207865277824
 51
355.2547148599766729
  0
ARC
  5
83AE
  8
0
 10
3851.3006964129199332
 20
152.8072075236015905
 30
0.0
 40
0.0671965054348802
 50
226.9775668352075968
 51
281.7722207865277824
  0
ARC
  5
83AF
  8
0
 10
3851.291740071672848
 20
152.7902812677903057
 30
0.0
 40
0.0489671820438567
 50
178.5010899358933898
 51
221.1161457183929997
  0
ARC
  5
83B0
  8
0
 10
3851.3228472489618071
 20
152.8235800586778907
 30
0.0
 40
0.0333630158544987
 50
1.3037342184649989
 51
42.0417779383583508
  0
ARC
  5
83B1
  8
0
 10
3851.3023028990469356
 20
152.7996994325035871
 30
0.0
 40
0.0647348964044323
 50
45.5640837239501124
 51
157.7526515900574111
  0
ARC
  5
83B2
  8
0
 10
3851.2548110728907886
 20
152.8199970674037047
 30
0.0
 40
0.0131184348418912
 50
161.2749573756416908
 51
192.2832384955304974
  0
ARC
  5
83B3
  8
0
 10
3851.3223130287328786
 20
152.8141128520553025
 30
0.0
 40
0.04212530430314
 50
320.4672257583978876
 51
13.9894597704145998
  0
ARC
  5
83B4
  8
0
 10
3851.2994330065648683
 20
152.8068595888744881
 30
0.0
 40
0.0660973210768996
 50
15.2959339267918395
 51
176.0149093450795021
  0
ARC
  5
83B5
  8
0
 10
3851.2725076368988084
 20
152.8096279731605875
 30
0.0
 40
0.0390548110428201
 50
177.3213835014599908
 51
221.3776371648789905
  0
LINE
  5
83B6
  8
0
 10
3851.3547949975109077
 20
152.7870975541098062
 30
0.0
 11
3851.3562016280848184
 21
152.8243391504011015
 31
0.0
  0
LINE
  5
83B7
  8
0
 10
3851.2427896450849403
 20
152.7915621480011055
 30
0.0
 11
3851.2419929471848263
 21
152.8172061919011071
 31
0.0
  0
ARC
  5
83B8
  8
0
 10
3851.2984276737570326
 20
152.7801817678709142
 30
0.0
 40
0.0567899928375159
 50
6.9947418646826822
 51
168.4399934869547053
  0
CIRCLE
  5
83B9
  8
0
 10
3850.9091503501767875
 20
152.6918888421328973
 30
0.0
 40
0.021738018308359
  0
ARC
  5
83BA
  8
0
 10
3850.9137416139278685
 20
152.6965968282925132
 30
0.0
 40
0.0509608382593787
 50
281.7722207865277824
 51
355.2547148599766729
  0
ARC
  5
83BB
  8
0
 10
3850.9104291898129304
 20
152.7124910012850023
 30
0.0
 40
0.0671965054348802
 50
226.9775668352075968
 51
281.7722207865277824
  0
ARC
  5
83BC
  8
0
 10
3850.9014728485672094
 20
152.6955647454736891
 30
0.0
 40
0.0489671820438567
 50
178.5010899358933898
 51
221.1161457183929997
  0
ARC
  5
83BD
  8
0
 10
3850.9325800258548043
 20
152.7288635363613878
 30
0.0
 40
0.0333630158544987
 50
1.3037342184649989
 51
42.0417779383583508
  0
ARC
  5
83BE
  8
0
 10
3850.9120356759399328
 20
152.7049829101869989
 30
0.0
 40
0.0647348964044323
 50
45.5640837239501124
 51
157.7526515900574111
  0
ARC
  5
83BF
  8
0
 10
3850.8645438497837858
 20
152.7252805450870881
 30
0.0
 40
0.0131184348418912
 50
161.2749573756416908
 51
192.2832384955304974
  0
ARC
  5
83C0
  8
0
 10
3850.9320458056267853
 20
152.7193963297386858
 30
0.0
 40
0.04212530430314
 50
320.4672257583978876
 51
13.9894597704145998
  0
ARC
  5
83C1
  8
0
 10
3850.9091657834578655
 20
152.7121430665578998
 30
0.0
 40
0.0660973210768996
 50
15.2959339267918395
 51
176.0149093450795021
  0
ARC
  5
83C2
  8
0
 10
3850.8822404137918056
 20
152.7149114508439993
 30
0.0
 40
0.0390548110428201
 50
177.3213835014599908
 51
221.3776371648789905
  0
LINE
  5
83C3
  8
0
 10
3850.9645277744039049
 20
152.6923810317931895
 30
0.0
 11
3850.9659344049778156
 21
152.7296226280845985
 31
0.0
  0
LINE
  5
83C4
  8
0
 10
3850.8525224219779375
 20
152.6968456256844888
 30
0.0
 11
3850.8517257240778235
 21
152.7224896695844905
 31
0.0
  0
ARC
  5
83C5
  8
0
 10
3850.9081604506500298
 20
152.6854652455542976
 30
0.0
 40
0.0567899928375159
 50
6.9947418646826822
 51
168.4399934869547053
  0
CIRCLE
  5
83C6
  8
0
 10
3851.0865112255669374
 20
153.1968204749524034
 30
0.0
 40
0.021738018308359
  0
ARC
  5
83C7
  8
0
 10
3851.0911024893180183
 20
153.201528461111991
 30
0.0
 40
0.0509608382593787
 50
281.7722207865277824
 51
355.2547148599766729
  0
ARC
  5
83C8
  8
0
 10
3851.0877900652021708
 20
153.2174226341045085
 30
0.0
 40
0.0671965054348802
 50
226.9775668352075968
 51
281.7722207865277824
  0
ARC
  5
83C9
  8
0
 10
3851.0788337239569046
 20
153.2004963782931952
 30
0.0
 40
0.0489671820438567
 50
178.5010899358933898
 51
221.1161457183929997
  0
ARC
  5
83CA
  8
0
 10
3851.1099409012449541
 20
153.2337951691808939
 30
0.0
 40
0.0333630158544987
 50
1.3037342184649989
 51
42.0417779383583508
  0
ARC
  5
83CB
  8
0
 10
3851.0893965513291732
 20
153.209914543006505
 30
0.0
 40
0.0647348964044323
 50
45.5640837239501124
 51
157.7526515900574111
  0
ARC
  5
83CC
  8
0
 10
3851.0419047251748452
 20
153.2302121779065942
 30
0.0
 40
0.0131184348418912
 50
161.2749573756416908
 51
192.2832384955304974
  0
ARC
  5
83CD
  8
0
 10
3851.1094066810160257
 20
153.224327962558192
 30
0.0
 40
0.04212530430314
 50
320.4672257583978876
 51
13.9894597704145998
  0
ARC
  5
83CE
  8
0
 10
3851.0865266588480154
 20
153.217074699377406
 30
0.0
 40
0.0660973210768996
 50
15.2959339267918395
 51
176.0149093450795021
  0
ARC
  5
83CF
  8
0
 10
3851.0596012891819555
 20
153.2198430836635055
 30
0.0
 40
0.0390548110428201
 50
177.3213835014599908
 51
221.3776371648789905
  0
LINE
  5
83D0
  8
0
 10
3851.1418886497940548
 20
153.1973126646126957
 30
0.0
 11
3851.1432952803679655
 21
153.2345542609041047
 31
0.0
  0
LINE
  5
83D1
  8
0
 10
3851.0298832973680874
 20
153.201777258503995
 30
0.0
 11
3851.0290865994670639
 21
153.2274213024039966
 31
0.0
  0
ARC
  5
83D2
  8
0
 10
3851.0855213260410892
 20
153.1903968783738037
 30
0.0
 40
0.0567899928375159
 50
6.9947418646826822
 51
168.4399934869547053
  0
ARC
  5
83D3
  8
0
 10
3850.9822816968971892
 20
151.5723686961902956
 30
0.0
 40
0.0772421551635513
 50
39.7323994333411434
 51
170.2762250118194913
  0
ARC
  5
83D4
  8
0
 10
3850.987517412330817
 20
151.589863756345693
 30
0.0
 40
0.0814897070865583
 50
183.1296573834003993
 51
216.274116848607008
  0
ARC
  5
83D5
  8
0
 10
3851.0515712130159045
 20
151.69158407455771
 30
0.0
 40
0.1982807872564475
 50
229.1275492201880866
 51
248.6737598287795095
  0
ARC
  5
83D6
  8
0
 10
3851.073860796434019
 20
151.7486766277521042
 30
0.0
 40
0.2595701432587711
 50
248.6737598287795095
 51
264.032333586823313
  0
ARC
  5
83D7
  8
0
 10
3851.0480980421139066
 20
151.5022225895926908
 30
0.0
 40
0.01177322553141
 50
264.032333586823313
 51
345.4733072989653806
  0
ARC
  5
83D8
  8
0
 10
3850.9049220284991861
 20
151.5393215963983948
 30
0.0
 40
0.159677610796992
 50
345.4733072989653806
 51
31.0755695024484204
  0
ARC
  5
83D9
  8
0
 10
3851.0582639314161497
 20
151.5212842836440927
 30
0.0
 40
0.0116674360778425
 50
288.2751321444093833
 51
340.1222712542311228
  0
ARC
  5
83DA
  8
0
 10
3850.8826776179557783
 20
151.5677824549001969
 30
0.0
 40
0.1932636980551557
 50
344.8633949826892149
 51
14.9036931364537608
  0
ARC
  5
83DB
  8
0
 10
3850.9719749322011921
 20
151.5826973112721987
 30
0.0
 40
0.1034884666049633
 50
19.6448168648995996
 51
59.4794376609809206
  0
ARC
  5
83DC
  8
0
 10
3850.982593636645106
 20
151.5923763787941141
 30
0.0
 40
0.0898574905162607
 50
62.1788583427188186
 51
165.7508265373647021
  0
ARC
  5
83DD
  8
0
 10
3850.9614981261938738
 20
151.6063550438354071
 30
0.0
 40
0.0664974097348449
 50
172.9697892262946937
 51
219.5790028623019055
  0
LINE
  5
83DE
  8
0
 10
3850.9061492435298533
 20
151.5854147714130136
 30
0.0
 11
3850.9071991761779827
 21
151.6412644543628119
 31
0.0
  0
ARC
  5
83DF
  8
0
 10
3850.7974343832229351
 20
151.5854176388482131
 30
0.0
 40
0.2667001419279196
 50
354.8473236215166935
 51
11.6447506577029394
  0
CIRCLE
  5
83E0
  8
0
 10
3850.9806153734589316
 20
151.5827491221193952
 30
0.0
 40
0.0265175048431895
  0
ARC
  5
83E1
  8
0
 10
3851.1022166919169649
 20
151.6960914300125864
 30
0.0
 40
0.2282155655580605
 50
28.6627092561214383
 51
51.3107592001662169
  0
ARC
  5
83E2
  8
0
 10
3851.1727180333641627
 20
151.7841253624183082
 30
0.0
 40
0.1154307598411029
 50
51.3107592001662169
 51
73.1600481345491431
  0
ARC
  5
83E3
  8
0
 10
3851.184425002064927
 20
151.8228032221850015
 30
0.0
 40
0.0750199945388244
 50
73.1600481345491431
 51
177.9916826879112079
  0
ARC
  5
83E4
  8
0
 10
3851.1779781393520352
 20
151.8345773063566071
 30
0.0
 40
0.0691345677669118
 50
187.6012977726207112
 51
256.5328827652824089
  0
ARC
  5
83E5
  8
0
 10
3851.1939959790111061
 20
151.9807213034700908
 30
0.0
 40
0.2157813743018599
 50
261.4398881907288796
 51
294.4991426121785025
  0
ARC
  5
83E6
  8
0
 10
3851.2522514939660141
 20
151.8711134715742048
 30
0.0
 40
0.0921947965966758
 50
289.7965329529322958
 51
299.0217760814380767
  0
ARC
  5
83E7
  8
0
 10
3851.2910477265149893
 20
151.8011859065246085
 30
0.0
 40
0.0122259775870786
 50
299.0217760814384746
 51
20.9485887859026683
  0
ARC
  5
83E8
  8
0
 10
3851.1934465527010616
 20
152.0226444656977094
 30
0.0
 40
0.2381053864921379
 50
297.4835319387337904
 51
300.3448844328544283
  0
ARC
  5
83E9
  8
0
 10
3851.3083990271497896
 20
151.8262801790644971
 30
0.0
 40
0.0105685665108914
 50
300.3448844328576115
 51
14.0132417149262096
  0
ARC
  5
83EA
  8
0
 10
3851.1349061771779816
 20
151.7390078494692034
 30
0.0
 40
0.2045302262232433
 50
26.0534078380245688
 51
45.2907290180450275
  0
ARC
  5
83EB
  8
0
 10
3851.1470161809761521
 20
151.7593384508288921
 30
0.0
 40
0.18165139199687
 50
43.4937075726223128
 51
64.4560645632265619
  0
ARC
  5
83EC
  8
0
 10
3851.1872651656331072
 20
151.8322346677456949
 30
0.0
 40
0.0986458051309383
 50
67.2926685651088263
 51
138.8232547911628956
  0
ARC
  5
83ED
  8
0
 10
3851.1651018854859103
 20
151.8536808165183913
 30
0.0
 40
0.0678618051480256
 50
140.1321909324533976
 51
220.5255502866818915
  0
LINE
  5
83EE
  8
0
 10
3851.3032599124130684
 20
151.8017664610430018
 30
0.0
 11
3851.3036474873938459
 21
151.8545889191377114
 31
0.0
  0
LINE
  5
83EF
  8
0
 10
3851.1094510885341151
 20
151.825432265813987
 30
0.0
 11
3851.1090562710451195
 21
151.8919445552270133
 31
0.0
  0
CIRCLE
  5
83F0
  8
0
 10
3851.1819119457791203
 20
151.8289616097993076
 30
0.0
 40
0.0279336977377999
  0
ARC
  5
83F1
  8
0
 10
3851.1965875523051182
 20
151.9813545741999121
 30
0.0
 40
0.2282155655580605
 50
63.5239798566173306
 51
86.1720298006526235
  0
ARC
  5
83F2
  8
0
 10
3851.204117177738226
 20
152.093887756601589
 30
0.0
 40
0.1154307598411029
 50
86.1720298006526235
 51
108.0213187350499027
  0
ARC
  5
83F3
  8
0
 10
3851.1916152651651828
 20
152.1323160291929071
 30
0.0
 40
0.0750199945388244
 50
108.0213187350499027
 51
212.8529532883943034
  0
ARC
  5
83F4
  8
0
 10
3851.1795954017879922
 20
152.1382921467726135
 30
0.0
 40
0.0691345677669118
 50
222.4625683731096046
 51
291.3941533657725245
  0
ARC
  5
83F5
  8
0
 10
3851.1092040092889874
 20
152.26736457195139
 30
0.0
 40
0.2157813743018599
 50
296.3011587912116056
 51
329.360413212674473
  0
ARC
  5
83F6
  8
0
 10
3851.2196557876050065
 20
152.2107254820728031
 30
0.0
 40
0.0921947965966758
 50
324.6578035534159881
 51
333.8830466819239859
  0
ARC
  5
83F7
  8
0
 10
3851.2914595792599357
 20
152.1755228185712099
 30
0.0
 40
0.0122259775870786
 50
333.8830466819384242
 51
55.8098593863892205
  0
ARC
  5
83F8
  8
0
 10
3851.084790266714208
 20
152.3014500904886859
 30
0.0
 40
0.2381053864921379
 50
332.3448025392178238
 51
335.20615503333579
  0
ARC
  5
83F9
  8
0
 10
3851.2913533190221642
 20
152.2060314871231128
 30
0.0
 40
0.0105685665108914
 50
335.2061550333476134
 51
48.8745123154088219
  0
ARC
  5
83FA
  8
0
 10
3851.1988798769220921
 20
152.0352541730246969
 30
0.0
 40
0.2045302262232433
 50
60.91467843850333
 51
80.1519996185480466
  0
ARC
  5
83FB
  8
0
 10
3851.1971958044578059
 20
152.058858186318389
 30
0.0
 40
0.18165139199687
 50
78.3549781731153843
 51
99.3173351637164075
  0
ARC
  5
83FC
  8
0
 10
3851.188554795768141
 20
152.1416783057065061
 30
0.0
 40
0.0986458051309383
 50
102.1539391655807947
 51
173.6845253916455931
  0
ARC
  5
83FD
  8
0
 10
3851.1581105393211146
 20
152.1466073556630931
 30
0.0
 40
0.0678618051480256
 50
174.9934615329360952
 51
255.3868208871815
  0
LINE
  5
83FE
  8
0
 10
3851.3011483072041301
 20
152.1829795657706086
 30
0.0
 11
3851.2712734668921257
 21
152.2265439573056085
 31
0.0
  0
LINE
  5
83FF
  8
0
 10
3851.1285935489781878
 20
152.09161881959119
 30
0.0
 11
3851.0902517363201696
 21
152.1459690351005065
 31
0.0
  0
CIRCLE
  5
8400
  8
0
 10
3851.1860331247657996
 20
152.1359327816680036
 30
0.0
 40
0.0279336977377999
  0
ARC
  5
8401
  8
0
 10
3851.0603031993609875
 20
152.2777556336797886
 30
0.0
 40
0.2024577181686314
 50
93.8700754870678082
 51
133.9647064909256926
  0
ARC
  5
8402
  8
0
 10
3850.9702117357219322
 20
152.3855605770478121
 30
0.0
 40
0.0631167598771563
 50
143.0761847462646017
 51
238.5513295767161992
  0
ARC
  5
8403
  8
0
 10
3850.9806290787369107
 20
152.3976023449451134
 30
0.0
 40
0.0788677917463914
 50
236.6588627122904995
 51
319.7750133594724957
  0
ARC
  5
8404
  8
0
 10
3850.8896744233320533
 20
152.4332692067131063
 30
0.0
 40
0.1742187041722466
 50
330.1936365654290171
 51
12.6046892551525591
  0
ARC
  5
8405
  8
0
 10
3851.0483700004469938
 20
152.468121211739998
 30
0.0
 40
0.0117586557041471
 50
15.6222976864359993
 51
98.4679023670536822
  0
CIRCLE
  5
8406
  8
0
 10
3850.9792850653188907
 20
152.381457550078693
 30
0.0
 40
0.0268324157917019
  0
ARC
  5
8407
  8
0
 10
3850.8747879109569112
 20
152.4671047474978991
 30
0.0
 40
0.2011020197578954
 50
333.3444997324158976
 51
359.3759029981155777
  0
ARC
  5
8408
  8
0
 10
3850.9125722895660147
 20
152.4666931630798956
 30
0.0
 40
0.1633153995246159
 50
359.3759029981155777
 51
16.2867410361683191
  0
ARC
  5
8409
  8
0
 10
3851.059262406075959
 20
152.5095515088752904
 30
0.0
 40
0.010492534461638
 50
16.2867410361730087
 51
101.5160339488501933
  0
ARC
  5
840A
  8
0
 10
3851.0790339452250919
 20
152.2694033441296142
 30
0.0
 40
0.2513822895129214
 50
94.9901347657371673
 51
129.3187410017453942
  0
ARC
  5
840B
  8
0
 10
3850.9757135787431253
 20
152.4045400348354065
 30
0.0
 40
0.0815678578541515
 50
133.3224485296020134
 51
165.9101753605133922
  0
ARC
  5
840C
  8
0
 10
3850.9668824389209476
 20
152.4092213034518863
 30
0.0
 40
0.0719025301942729
 50
167.8154499139818938
 51
218.7659678930099858
  0
LINE
  5
840D
  8
0
 10
3850.9070949758452116
 20
152.3855605770478121
 30
0.0
 11
3850.9068776054459704
 21
152.4482998819019031
 31
0.0
  0
LINE
  5
840E
  8
0
 10
3851.0636129921799693
 20
152.4431449927899962
 30
0.0
 11
3851.063107950515132
 21
152.519313940303789
 31
0.0
  0
LINE
  5
840F
  8
0
 10
3851.059588200987946
 20
152.4716451244219968
 30
0.0
 11
3851.0597158117939216
 21
152.5200342424255098
 31
0.0
  0
ARC
  5
8410
  8
0
 10
3850.7928718728448985
 20
151.5533714129554994
 30
0.0
 40
0.2277701590152583
 50
215.3270202977550127
 51
230.0730211986841027
  0
ARC
  5
8411
  8
0
 10
3850.7827042205390171
 20
151.5461651126080938
 30
0.0
 40
0.2153077387804716
 50
203.7154053824393998
 51
215.3270202977550127
  0
ARC
  5
8412
  8
0
 10
3850.6470319839231706
 20
151.4865656513204897
 30
0.0
 40
0.0671218704452492
 50
181.1162412471030905
 51
203.7154053824393998
  0
ARC
  5
8413
  8
0
 10
3850.6537496093069421
 20
151.4811917980038913
 30
0.0
 40
0.0739386549934878
 50
1.8707875291619049
 51
176.8474236704074087
  0
ARC
  5
8414
  8
0
 10
3850.6215125104249637
 20
151.4956700671027932
 30
0.0
 40
0.1068198276648102
 50
327.9236697514775187
 51
353.5150348047915827
  0
ARC
  5
8415
  8
0
 10
3850.4989611200671789
 20
151.566851670091296
 30
0.0
 40
0.2485092795008537
 50
316.1512423381244048
 51
329.0224893361398131
  0
ARC
  5
8416
  8
0
 10
3850.540972594672894
 20
151.5253704201205096
 30
0.0
 40
0.1894771292165791
 50
309.3467050702273013
 51
316.3965786385570027
  0
ARC
  5
8417
  8
0
 10
3850.6538043982841373
 20
151.3880673032141999
 30
0.0
 40
0.0117624899124538
 50
232.7615784410448043
 51
308.3541682577634901
  0
ARC
  5
8418
  8
0
 10
3850.6538203712398172
 20
151.4863456500725931
 30
0.0
 40
0.0998673981704663
 50
53.7386845335832604
 51
126.2613154664167041
  0
ARC
  5
8419
  8
0
 10
3850.66381086117417
 20
151.5153059140315008
 30
0.0
 40
0.0958914901337245
 50
178.3349071708209976
 51
214.9983224156912058
  0
ARC
  5
841A
  8
0
 10
3850.6410196716537939
 20
151.5097114949518868
 30
0.0
 40
0.0735389221634755
 50
128.9881886628749896
 51
173.4561470260501892
  0
ARC
  5
841B
  8
0
 10
3850.6438298813050096
 20
151.5153059140315008
 30
0.0
 40
0.0958914901337245
 50
324.851179117450215
 51
1.6650928291789751
  0
ARC
  5
841C
  8
0
 10
3850.6666210708249309
 20
151.5097114949518868
 30
0.0
 40
0.0735389221634755
 50
6.543852973949809
 51
51.0118113371250388
  0
CIRCLE
  5
841D
  8
0
 10
3850.6538203712398172
 20
151.4866411860641051
 30
0.0
 40
0.0277316246804004
  0
LINE
  5
841E
  8
0
 10
3850.5799228511828005
 20
151.4852580600546048
 30
0.0
 11
3850.5798968876219988
 21
151.5506013267576009
 31
0.0
  0
LINE
  5
841F
  8
0
 10
3850.7276488542820516
 20
151.4836055698027906
 30
0.0
 11
3850.7311072422221514
 21
151.5450598580177939
 31
0.0
  0
ARC
  5
8420
  8
0
 10
3850.7928718728448985
 20
152.411564786972292
 30
0.0
 40
0.2277701590152583
 50
129.926978801315812
 51
144.6729797022449873
  0
ARC
  5
8421
  8
0
 10
3850.7827042205390171
 20
152.4187710873196977
 30
0.0
 40
0.2153077387804716
 50
144.6729797022449873
 51
156.2845946175606002
  0
ARC
  5
8422
  8
0
 10
3850.6470319839231706
 20
152.4783705486073018
 30
0.0
 40
0.0671218704452492
 50
156.2845946175606002
 51
178.8837587528967958
  0
ARC
  5
8423
  8
0
 10
3850.6537496093069421
 20
152.4837444019239001
 30
0.0
 40
0.0739386549934878
 50
183.152576329592506
 51
358.1292124708381266
  0
ARC
  5
8424
  8
0
 10
3850.6215125104249637
 20
152.4692661328249983
 30
0.0
 40
0.1068198276648102
 50
6.4849651952083676
 51
32.0763302485224813
  0
ARC
  5
8425
  8
0
 10
3850.4989611200671789
 20
152.3980845298366091
 30
0.0
 40
0.2485092795008537
 50
30.9775106638601514
 51
43.8487576618755597
  0
ARC
  5
8426
  8
0
 10
3850.540972594672894
 20
152.4395657798073955
 30
0.0
 40
0.1894771292165791
 50
43.603421361443047
 51
50.6532949297727768
  0
ARC
  5
8427
  8
0
 10
3850.6538043982841373
 20
152.5768688967137052
 30
0.0
 40
0.0117624899124538
 50
51.6458317422365099
 51
127.2384215589551957
  0
CIRCLE
  5
8428
  8
0
 10
3850.6538203712398172
 20
152.4782950138636863
 30
0.0
 40
0.0277316246804004
  0
ARC
  5
8429
  8
0
 10
3850.7969992352332156
 20
152.4464522200522936
 30
0.0
 40
0.24128353102845
 50
128.90983351199759
 51
146.7916807918728068
  0
ARC
  5
842A
  8
0
 10
3850.7809028049450717
 20
152.4569887671711115
 30
0.0
 40
0.2220451866818493
 50
146.7916807918728068
 51
160.1488028957755887
  0
ARC
  5
842B
  8
0
 10
3850.6478654460152029
 20
152.5050194917295983
 30
0.0
 40
0.0806030098995492
 50
160.1488028957755887
 51
220.6969234604486871
  0
ARC
  5
842C
  8
0
 10
3850.4819735554019644
 20
152.4319000989260928
 30
0.0
 40
0.2730394684954521
 50
22.0411134682502095
 51
47.8180566059723589
  0
ARC
  5
842D
  8
0
 10
3850.6636995030708022
 20
152.5067652547359103
 30
0.0
 40
0.0765095774598629
 50
345.2925420133269085
 51
21.1446816106853284
  0
ARC
  5
842E
  8
0
 10
3850.6620442589342019
 20
152.5071997302
 30
0.0
 40
0.078220893351628
 50
321.4716318488189017
 51
345.2925420133269085
  0
ARC
  5
842F
  8
0
 10
3850.6553903624071609
 20
152.6278991784762979
 30
0.0
 40
0.0117710464203501
 50
32.5174598797685803
 51
147.6170214545061867
  0
LINE
  5
8430
  8
0
 10
3850.5799228511828005
 20
152.4796781398723908
 30
0.0
 11
3850.5798398309079857
 21
152.5512105555204982
 31
0.0
  0
LINE
  5
8431
  8
0
 10
3850.7276488542829611
 20
152.4813306301159059
 30
0.0
 11
3850.7279805647849571
 21
152.5503530545292108
 31
0.0
  0
CIRCLE
  5
8432
  8
0
 10
3850.6538203712398172
 20
152.977543411793107
 30
0.0
 40
0.021738018308359
  0
ARC
  5
8433
  8
0
 10
3850.6492291074891909
 20
152.9822513979526946
 30
0.0
 40
0.0509608382593787
 50
184.7452851400232987
 51
258.2277792134722176
  0
ARC
  5
8434
  8
0
 10
3850.652541531604129
 20
152.9981455709452121
 30
0.0
 40
0.0671965054348802
 50
258.2277792134722176
 51
313.0224331647918916
  0
ARC
  5
8435
  8
0
 10
3850.6614978728512142
 20
152.9812193151338136
 30
0.0
 40
0.0489671820438567
 50
318.8838542816070003
 51
1.498910064108224
  0
ARC
  5
8436
  8
0
 10
3850.6303906955618004
 20
153.0145181060215123
 30
0.0
 40
0.0333630158544987
 50
137.9582220616416066
 51
178.6962657815350042
  0
ARC
  5
8437
  8
0
 10
3850.6509350454771266
 20
152.9906374798470949
 30
0.0
 40
0.0647348964044323
 50
22.2473484099426386
 51
134.4359162760503921
  0
ARC
  5
8438
  8
0
 10
3850.6984268716328188
 20
153.0109351147472978
 30
0.0
 40
0.0131184348418912
 50
347.7167615044695026
 51
18.7250426243582808
  0
ARC
  5
8439
  8
0
 10
3850.6309249157898194
 20
153.0050508993988103
 30
0.0
 40
0.04212530430314
 50
166.0105402295853878
 51
219.5327742416021124
  0
ARC
  5
843A
  8
0
 10
3850.6538049379591939
 20
152.9977976362181096
 30
0.0
 40
0.0660973210768996
 50
3.9850906549204441
 51
164.7040660732081108
  0
ARC
  5
843B
  8
0
 10
3850.680730307624799
 20
153.0005660205040954
 30
0.0
 40
0.0390548110428201
 50
318.6223628351211232
 51
2.6786164985400198
  0
LINE
  5
843C
  8
0
 10
3850.5984429470131545
 20
152.9780356014533993
 30
0.0
 11
3850.5970363164387891
 21
153.0152771977446946
 31
0.0
  0
LINE
  5
843D
  8
0
 10
3850.7104482994391219
 20
152.9825001953446986
 30
0.0
 11
3850.7112449973387811
 21
153.0081442392447002
 31
0.0
  0
ARC
  5
843E
  8
0
 10
3850.6548102707661201
 20
152.9711198152145073
 30
0.0
 40
0.0567899928375159
 50
11.5600065130469005
 51
173.0052581353172911
  0
CIRCLE
  5
843F
  8
0
 10
3850.6538203712398172
 20
153.511439618432604
 30
0.0
 40
0.022546694579674
  0
CIRCLE
  5
8440
  8
0
 10
3850.6549393239279198
 20
153.5162907885209904
 30
0.0
 40
0.076891192317175
  0
ARC
  5
8441
  8
0
 10
3850.6532517635191653
 20
153.5326644853103915
 30
0.0
 40
0.0919060818577666
 50
23.6451300464643701
 51
151.2583246606282046
  0
ARC
  5
8442
  8
0
 10
3850.6445705557748624
 20
153.5442961052966098
 30
0.0
 40
0.0789314492522434
 50
155.635438088042406
 51
215.185643680726713
  0
ARC
  5
8443
  8
0
 10
3850.6661696209730508
 20
153.5423283364216047
 30
0.0
 40
0.0762852350223056
 50
327.2064059352445042
 51
20.8864482006362415
  0
LINE
  5
8444
  8
0
 10
3850.5782307772788045
 20
153.5109941549802102
 30
0.0
 11
3850.5735718779778836
 21
153.5784667093039104
 31
0.0
  0
LINE
  5
8445
  8
0
 10
3850.7318291254869109
 20
153.5167532517247082
 30
0.0
 11
3850.7331077621188342
 21
153.5781589615689882
 31
0.0
  0
ARC
  5
8446
  8
0
 10
3850.6537035294531961
 20
153.5447145558298985
 30
0.0
 40
0.0261683647536531
 50
227.685974804708593
 51
312.7164009324995959
  0
CIRCLE
  5
8447
  8
0
 10
3850.6533805228032179
 20
151.0162791799957915
 30
0.0
 40
0.021738018308359
  0
ARC
  5
8448
  8
0
 10
3850.6579717865529346
 20
151.0209871661554075
 30
0.0
 40
0.0509608382593787
 50
281.7722207865277824
 51
355.2547148599766729
  0
ARC
  5
8449
  8
0
 10
3850.6546593624379966
 20
151.0368813391478966
 30
0.0
 40
0.0671965054348802
 50
226.9775668352075968
 51
281.7722207865277824
  0
ARC
  5
844A
  8
0
 10
3850.6457030211918209
 20
151.0199550833364981
 30
0.0
 40
0.0489671820438567
 50
178.5010899358933898
 51
221.1161457183929997
  0
ARC
  5
844B
  8
0
 10
3850.6768101984807799
 20
151.0532538742241968
 30
0.0
 40
0.0333630158544987
 50
1.3037342184649989
 51
42.0417779383583508
  0
ARC
  5
844C
  8
0
 10
3850.656265848564999
 20
151.0293732480498079
 30
0.0
 40
0.0647348964044323
 50
45.5640837239501124
 51
157.7526515900574111
  0
ARC
  5
844D
  8
0
 10
3850.6087740224102163
 20
151.0496708829500108
 30
0.0
 40
0.0131184348418912
 50
161.2749573756416908
 51
192.2832384955304974
  0
ARC
  5
844E
  8
0
 10
3850.6762759782518515
 20
151.0437866676014949
 30
0.0
 40
0.04212530430314
 50
320.4672257583978876
 51
13.9894597704145998
  0
ARC
  5
844F
  8
0
 10
3850.6541936222761251
 20
151.0284784108876863
 30
0.0
 40
0.0679232614866563
 50
22.0430112471342916
 51
169.2678320247397039
  0
ARC
  5
8450
  8
0
 10
3850.6264705864177813
 20
151.0393017887068083
 30
0.0
 40
0.0390548110428201
 50
177.3213835014599908
 51
221.3776371648789905
  0
LINE
  5
8451
  8
0
 10
3850.7087579470298806
 20
151.0167713696561123
 30
0.0
 11
3850.7101645776028818
 21
151.0540129659474076
 31
0.0
  0
LINE
  5
8452
  8
0
 10
3850.5967525946030037
 20
151.0212359635474115
 30
0.0
 11
3850.5959558967037992
 21
151.0468800074474132
 31
0.0
  0
ARC
  5
8453
  8
0
 10
3850.6523906232760055
 20
151.0098555834171066
 30
0.0
 40
0.0567899928375159
 50
6.9947418646826822
 51
168.4399934869547053
  0
CIRCLE
  5
8454
  8
0
 10
3850.6485151230099291
 20
150.5490269534450931
 30
0.0
 40
0.022546694579674
  0
CIRCLE
  5
8455
  8
0
 10
3850.6496340756989412
 20
150.553878123533508
 30
0.0
 40
0.076891192317175
  0
ARC
  5
8456
  8
0
 10
3850.6479465152888224
 20
150.570251820322909
 30
0.0
 40
0.0919060818577666
 50
23.6451300464643701
 51
151.2583246606282046
  0
ARC
  5
8457
  8
0
 10
3850.6392653075440649
 20
150.5818834403090989
 30
0.0
 40
0.0789314492522434
 50
155.635438088042406
 51
215.185643680726713
  0
ARC
  5
8458
  8
0
 10
3850.6608643727431627
 20
150.5799156714340938
 30
0.0
 40
0.0762852350223056
 50
327.2064059352445042
 51
20.8864482006362415
  0
LINE
  5
8459
  8
0
 10
3850.5729255290489164
 20
150.5485814899926993
 30
0.0
 11
3850.568266629748905
 21
150.6160540443163995
 31
0.0
  0
LINE
  5
845A
  8
0
 10
3850.7265238772570228
 20
150.5543405867371973
 30
0.0
 11
3850.7278025138889461
 21
150.6157462965815057
 31
0.0
  0
ARC
  5
845B
  8
0
 10
3850.6483982812228533
 20
150.5823018908423876
 30
0.0
 40
0.0261683647536531
 50
227.685974804708593
 51
312.7164009324995959
  0
ARC
  5
845C
  8
0
 10
3850.6730956761398375
 20
151.637779622596895
 30
0.0
 40
2.6995968366802972
 50
90.4270491841265169
 51
104.4963743867091068
  0
LINE
  5
845D
  8
0
 10
3850.4307952789740739
 20
150.5170930249666981
 30
0.0
 11
3850.15216619988405
 21
150.4371593978081023
 31
0.0
  0
LINE
  5
845E
  8
0
 10
3850.4651991930068107
 20
150.6689124303121901
 30
0.0
 11
3850.3674360271697878
 21
150.7555387451241984
 31
0.0
  0
LINE
  5
845F
  8
0
 10
3850.3752911451661021
 20
150.8946699729619922
 30
0.0
 11
3850.5224567357208798
 21
150.9980261426090919
 31
0.0
  0
LINE
  5
8460
  8
0
 10
3850.5505781488977846
 20
151.1109381662128044
 30
0.0
 11
3850.5133586086299147
 21
151.1841481675552075
 31
0.0
  0
LINE
  5
8461
  8
0
 10
3850.5111004683722058
 20
151.3971184724530019
 30
0.0
 11
3850.5679198470870688
 21
151.5150037592983097
 31
0.0
  0
ARC
  5
8462
  8
0
 10
3850.4063079183601985
 20
150.6024499764714903
 30
0.0
 40
0.0888
 50
286.0072248033612823
 51
48.4563812075502724
  0
ARC
  5
8463
  8
0
 10
3850.4263273018168547
 20
150.8220011989648128
 30
0.0
 40
0.0888
 50
125.080830712597205
 51
228.4563812075475937
  0
ARC
  5
8464
  8
0
 10
3850.4714205790701271
 20
151.0706949166062998
 30
0.0
 40
0.0888
 50
305.0808307125981855
 51
26.9485197800181986
  0
ARC
  5
8465
  8
0
 10
3850.7272979865438174
 20
151.2929137070323122
 30
0.0
 40
0.24
 50
154.2664576611695111
 51
206.9485197800210869
  0
LINE
  5
8466
  8
0
 10
3849.8262591778147907
 20
150.6871533283895133
 30
0.0
 11
3850.0104358728372063
 21
150.4546290940195092
 31
0.0
  0
LINE
  5
8467
  8
0
 10
3850.0569592898959854
 20
150.852535608176396
 30
0.0
 11
3849.884542780234824
 21
150.8303640060271107
 31
0.0
  0
LINE
  5
8468
  8
0
 10
3850.0854383327600772
 20
151.1214455810624884
 30
0.0
 11
3850.130888583975775
 21
150.9654499679460002
 31
0.0
  0
LINE
  5
8469
  8
0
 10
3850.2383994501519737
 20
151.277966644184886
 30
0.0
 11
3850.1318508404538079
 21
151.2261393575842021
 31
0.0
  0
LINE
  5
846A
  8
0
 10
3850.3648777279217938
 20
151.4303297056474946
 30
0.0
 11
3850.4042971708809091
 21
151.5741067371955921
 31
0.0
  0
ARC
  5
846B
  8
0
 10
3850.1334194252799534
 20
151.4937887801625891
 30
0.0
 40
0.24
 50
295.9391767188994891
 51
344.6679351710973833
  0
LINE
  5
846C
  8
0
 10
3850.1173436992748975
 20
151.5784964372836043
 30
0.0
 11
3850.2578912872081673
 21
151.6509687275562897
 31
0.0
  0
LINE
  5
846D
  8
0
 10
3849.9177026059260243
 20
151.943194883399002
 30
0.0
 11
3850.0913495128388604
 21
151.9265134165609084
 31
0.0
  0
LINE
  5
846E
  8
0
 10
3849.9186718832361294
 20
152.0721392244282981
 30
0.0
 11
3850.0908029097181497
 21
152.0803443550223051
 31
0.0
  0
LINE
  5
846F
  8
0
 10
3850.0193883761271536
 20
152.3381647049016863
 30
0.0
 11
3850.1475563521980803
 21
152.2361263384090933
 31
0.0
  0
LINE
  5
8470
  8
0
 10
3850.1143344534780226
 20
152.4368928946485084
 30
0.0
 11
3850.26334124501318
 21
152.3529993908898064
 31
0.0
  0
LINE
  5
8471
  8
0
 10
3850.3619670377911461
 20
152.5946622119629126
 30
0.0
 11
3850.3993867760959802
 21
152.4503932368519088
 31
0.0
  0
LINE
  5
8472
  8
0
 10
3850.5054349394658857
 20
152.62863593223409
 30
0.0
 11
3850.56885085401791
 21
152.4890965693666089
 31
0.0
  0
LINE
  5
8473
  8
0
 10
3850.5069964133272151
 20
152.8305991155484094
 30
0.0
 11
3850.555279395126945
 21
152.9326220911922007
 31
0.0
  0
LINE
  5
8474
  8
0
 10
3850.2470338132061443
 20
152.7437433112289966
 30
0.0
 11
3850.1249499373889194
 21
152.8121981645456913
 31
0.0
  0
LINE
  5
8475
  8
0
 10
3849.9993514821230747
 20
152.5873928057937974
 30
0.0
 11
3849.9676067954519567
 21
152.7133971512375012
 31
0.0
  0
LINE
  5
8476
  8
0
 10
3849.8627625444150908
 20
152.390295946531495
 30
0.0
 11
3849.6903761524981746
 21
152.3851633702225001
 31
0.0
  0
LINE
  5
8477
  8
0
 10
3849.7541089379328696
 20
152.1270712330264985
 30
0.0
 11
3849.6349919921240144
 21
152.2257804469560938
 31
0.0
  0
LINE
  5
8478
  8
0
 10
3849.7507008378879618
 20
151.8962559066544031
 30
0.0
 11
3849.637284516724776
 21
151.8111459174567131
 31
0.0
  0
LINE
  5
8479
  8
0
 10
3849.8519367831841009
 20
151.6337291025666048
 30
0.0
 11
3849.6955255600669261
 21
151.652218638929611
 31
0.0
  0
LINE
  5
847A
  8
0
 10
3849.9947834839817915
 20
151.4245090375912923
 30
0.0
 11
3849.9705922012572046
 21
151.3296779722579117
 31
0.0
  0
ARC
  5
847B
  8
0
 10
3850.2273360169670013
 20
151.3651851857077872
 30
0.0
 40
0.24
 50
117.277549235176906
 51
165.6891377540262908
  0
ARC
  5
847C
  8
0
 10
3849.8801112672681484
 20
151.8720696120201126
 30
0.0
 40
0.24
 50
263.2582915957107161
 51
306.3816877569493045
  0
ARC
  5
847D
  8
0
 10
3849.8947525547478108
 20
151.704294705184509
 30
0.0
 40
0.24
 50
84.5126942771987046
 51
126.8853323187417033
  0
ARC
  5
847E
  8
0
 10
3849.9072445542228706
 20
152.3118670203795944
 30
0.0
 40
0.24
 50
230.3523126625647137
 51
272.7291056948656092
  0
ARC
  5
847F
  8
0
 10
3849.8699050611598977
 20
152.1504022524615038
 30
0.0
 40
0.24
 50
51.4756524557365722
 51
91.7054020742588563
  0
ARC
  5
8480
  8
0
 10
3850.2320794321972244
 20
152.6460247190713915
 30
0.0
 40
0.24
 50
194.1404483385921935
 51
240.619706396617886
  0
ARC
  5
8481
  8
0
 10
3850.1296543049170396
 20
152.534406140536305
 30
0.0
 40
0.24
 50
14.5406586094714392
 51
60.7197850550179794
  0
ARC
  5
8482
  8
0
 10
3850.7239294225619233
 20
152.7279342749041859
 30
0.0
 40
0.24
 50
154.6738674977756034
 51
204.440188064221303
  0
LINE
  5
8483
  8
0
 10
3849.8869894453359848
 20
151.2628613725379978
 30
0.0
 11
3849.6611997090590194
 21
151.256650616910207
 31
0.0
  0
LINE
  5
8484
  8
0
 10
3849.6048615606910062
 20
151.6020730529789944
 30
0.0
 11
3849.5218996603998676
 21
151.4270797301703055
 31
0.0
  0
LINE
  5
8485
  8
0
 10
3849.5383831533890771
 20
151.8059752576770052
 30
0.0
 11
3849.329378314997939
 21
151.9310611971903029
 31
0.0
  0
LINE
  5
8486
  8
0
 10
3849.5377275209539221
 20
152.236378984421691
 30
0.0
 11
3849.3304690778168151
 21
152.1298161738145893
 31
0.0
  0
LINE
  5
8487
  8
0
 10
3849.6063402581598893
 20
152.4384192064615888
 30
0.0
 11
3849.5180214255701685
 21
152.6408859985778008
 31
0.0
  0
LINE
  5
8488
  8
0
 10
3849.8901997321240742
 20
152.7800759089442124
 30
0.0
 11
3849.6531632809760595
 21
152.8034175096640013
 31
0.0
  0
LINE
  5
8489
  8
0
 10
3850.082617223887155
 20
152.9126773669551937
 30
0.0
 11
3850.1353122196860568
 21
153.1089594933191051
 31
0.0
  0
LINE
  5
848A
  8
0
 10
3850.5302495410551273
 20
153.0401386156528076
 30
0.0
 11
3850.3617914060778276
 21
153.1739624936259077
 31
0.0
  0
ARC
  5
848B
  8
0
 10
3850.4750141817098665
 20
152.9706080822305978
 30
0.0
 40
0.0888
 50
334.6738674977771097
 51
51.5362176313363705
  0
ARC
  5
848C
  8
0
 10
3850.1683803554569749
 20
152.8896529177019943
 30
0.0
 40
0.0888
 50
164.9723984333957105
 51
240.7197850550180078
  0
ARC
  5
848D
  8
0
 10
3849.8814974539250215
 20
152.6917033433248037
 30
0.0
 40
0.0888
 50
14.1404483385938295
 51
84.3760657881866081
  0
ARC
  5
848E
  8
0
 10
3849.6877334213031645
 20
152.4739240370284108
 30
0.0
 40
0.0888
 50
203.5674996962536056
 51
271.7054020742589273
  0
ARC
  5
848F
  8
0
 10
3849.578331814097055
 20
152.1574060056354938
 30
0.0
 40
0.0888
 50
50.3523126625625892
 51
117.2101546770968952
  0
ARC
  5
8490
  8
0
 10
3849.5839853814868547
 20
151.8821715620005932
 30
0.0
 40
0.0888
 50
239.1001767726297089
 51
306.8853323187416891
  0
ARC
  5
8491
  8
0
 10
3849.6851010009559104
 20
151.5640326504316988
 30
0.0
 40
0.0888
 50
83.2582915957108156
 51
154.6350206528194065
  0
ARC
  5
8492
  8
0
 10
3849.884547764052968
 20
151.3516277974547961
 30
0.0
 40
0.0888
 50
271.5756268789331784
 51
345.6891377540309804
  0
ARC
  5
8493
  8
0
 10
3850.170693449656028
 20
151.1462851672723957
 30
0.0
 40
0.0888
 50
115.9391767188983948
 51
196.2437967135670931
  0
ARC
  5
8494
  8
0
 10
3850.0456334670811884
 20
150.9406103817360076
 30
0.0
 40
0.0888
 50
277.3276375221614103
 51
16.2437967135566801
  0
ARC
  5
8495
  8
0
 10
3849.8958686030500758
 20
150.7422892324676127
 30
0.0
 40
0.0888
 50
97.3276375221613392
 51
218.3818739628702019
  0
LINE
  5
8496
  8
0
 10
3849.5968725565458044
 20
151.0196905605766062
 30
0.0
 11
3849.5759012860271469
 21
151.1542052265874929
 31
0.0
  0
LINE
  5
8497
  8
0
 10
3849.4845672482429109
 20
150.9206770139441005
 30
0.0
 11
3849.1934458143109623
 21
151.004481929917489
 31
0.0
  0
LINE
  5
8498
  8
0
 10
3849.4042450059000657
 20
151.3845872714508118
 30
0.0
 11
3849.2096870573768683
 21
151.4749780412622897
 31
0.0
  0
LINE
  5
8499
  8
0
 10
3849.0835519172369459
 20
151.3982154250126086
 30
0.0
 11
3849.0716271579340173
 21
151.1176066695973077
 31
0.0
  0
LINE
  5
849A
  8
0
 10
3849.2087886202270965
 20
151.9024287430250979
 30
0.0
 11
3849.111823068342801
 21
151.74955631856389
 31
0.0
  0
LINE
  5
849B
  8
0
 10
3848.9688651303031293
 20
151.7399760087216976
 30
0.0
 11
3848.7755631609820739
 21
151.9699002209376033
 31
0.0
  0
LINE
  5
849C
  8
0
 10
3849.1067967859389682
 20
152.3448245602938869
 30
0.0
 11
3849.2133292878311295
 21
152.1637585216575133
 31
0.0
  0
LINE
  5
849D
  8
0
 10
3848.9651599929798067
 20
152.3601864888574937
 30
0.0
 11
3848.7509404384609297
 21
152.1292644884198921
 31
0.0
  0
LINE
  5
849E
  8
0
 10
3849.4043441494500257
 20
152.6881046595308931
 30
0.0
 11
3849.2053201063959023
 21
152.6104324702506005
 31
0.0
  0
LINE
  5
849F
  8
0
 10
3849.0843054343631593
 20
152.6896448522724086
 30
0.0
 11
3849.0710869250228825
 21
153.0236947371622023
 31
0.0
  0
LINE
  5
84A0
  8
0
 10
3849.4926535576601054
 20
153.1864064986397125
 30
0.0
 11
3849.1702719033210087
 21
153.115929752498289
 31
0.0
  0
LINE
  5
84A1
  8
0
 10
3849.5739221464418733
 20
152.904094389844289
 30
0.0
 11
3849.5995618917731917
 21
153.0873509779945039
 31
0.0
  0
LINE
  5
84A2
  8
0
 10
3850.066794215732898
 20
153.2190933311219112
 30
0.0
 11
3849.8650874837071569
 21
153.259025402656107
 31
0.0
  0
LINE
  5
84A3
  8
0
 10
3849.8102785536461852
 20
153.3980352032687051
 30
0.0
 11
3849.997392681852034
 21
153.657808327411999
 31
0.0
  0
LINE
  5
84A4
  8
0
 10
3850.4527549784779694
 20
153.5814385565541897
 30
0.0
 11
3850.1409508756969444
 21
153.6947384016818887
 31
0.0
  0
LINE
  5
84A5
  8
0
 10
3850.4847122971450517
 20
153.4346839896325889
 30
0.0
 11
3850.3547423955501472
 21
153.3067867650433982
 31
0.0
  0
ARC
  5
84A6
  8
0
 10
3850.4224279272698368
 20
153.4979777276278128
 30
0.0
 40
0.0888
 50
314.539479540603395
 51
70.0304406051655945
  0
ARC
  5
84A7
  8
0
 10
3850.4170267654230884
 20
153.2434930270482027
 30
0.0
 40
0.0888
 50
134.5394795406045034
 51
231.5362176313383884
  0
ARC
  5
84A8
  8
0
 10
3850.0495490881171463
 20
153.1319839425723046
 30
0.0
 40
0.0888
 50
344.9723984333909925
 51
78.8018961355540455
  0
ARC
  5
84A9
  8
0
 10
3849.8823326113229086
 20
153.3461347912057988
 30
0.0
 40
0.0888
 50
144.2348598623999862
 51
258.801896135554216
  0
ARC
  5
84AA
  8
0
 10
3849.6618655591760216
 20
152.89179007528341
 30
0.0
 40
0.0888
 50
172.03535023464039
 51
264.3760657881866223
  0
ARC
  5
84AB
  8
0
 10
3849.5116184790390435
 20
153.0996552925554113
 30
0.0
 40
0.0888
 50
352.0353502346388268
 51
102.3315833716991961
  0
ARC
  5
84AC
  8
0
 10
3849.4366282624278028
 20
152.6053811680110073
 30
0.0
 40
0.0888
 50
23.5674996962506
 51
111.3189790777082067
  0
ARC
  5
84AD
  8
0
 10
3849.1730359934181251
 20
152.6931559617706
 30
0.0
 40
0.0888
 50
182.2660384046778859
 51
291.3189790777075814
  0
ARC
  5
84AE
  8
0
 10
3849.0302612890959608
 20
152.2997939293506136
 30
0.0
 40
0.0888
 50
30.4709675293506486
 51
137.1488241767737009
  0
ARC
  5
84AF
  8
0
 10
3849.2898647846741369
 20
152.2087891526007866
 30
0.0
 40
0.0888
 50
210.4709675293505882
 51
297.2101546770957725
  0
ARC
  5
84B0
  8
0
 10
3849.2837760869010708
 20
151.8548648928666864
 30
0.0
 40
0.0888
 50
59.1001767726288634
 51
147.6134251485343896
  0
ARC
  5
84B1
  8
0
 10
3849.0368356016688267
 20
151.7971201687223015
 30
0.0
 40
0.0888
 50
220.0544499722122112
 51
327.6134251485370896
  0
ARC
  5
84B2
  8
0
 10
3849.4416602201349633
 20
151.4651201327174874
 30
0.0
 40
0.0888
 50
245.080625658597711
 51
334.6350206528223907
  0
ARC
  5
84B3
  8
0
 10
3849.1722718431419707
 20
151.3944451799956141
 30
0.0
 40
0.0888
 50
65.0806256585973415
 51
177.566620705793099
  0
ARC
  5
84B4
  8
0
 10
3849.5091324522290961
 20
151.0060115951706905
 30
0.0
 40
0.0888
 50
253.9405160556761984
 51
8.8612630132129482
  0
ARC
  5
84B5
  8
0
 10
3849.6636413903429457
 20
151.1678841919934086
 30
0.0
 40
0.0888
 50
91.5756268789332069
 51
188.8612630132097081
  0
LINE
  5
84B6
  8
0
 10
3850.8768454635051057
 20
150.5170930249666981
 30
0.0
 11
3851.1554745425960391
 21
150.4371593978081023
 31
0.0
  0
LINE
  5
84B7
  8
0
 10
3850.8424415494719142
 20
150.6689124303121901
 30
0.0
 11
3850.940204715308937
 21
150.7555387451241984
 31
0.0
  0
LINE
  5
84B8
  8
0
 10
3850.932349597313987
 20
150.8946699729619922
 30
0.0
 11
3850.7851840067578451
 21
150.9980261426090919
 31
0.0
  0
LINE
  5
84B9
  8
0
 10
3850.7570625935809403
 20
151.1109381662128044
 30
0.0
 11
3850.7942821338488102
 21
151.1841481675552075
 31
0.0
  0
LINE
  5
84BA
  8
0
 10
3850.7965402741069738
 20
151.3971184724530019
 30
0.0
 11
3850.7397208953921108
 21
151.5150037592983097
 31
0.0
  0
ARC
  5
84BB
  8
0
 10
3850.9013328241189811
 20
150.6024499764714903
 30
0.0
 40
0.0888
 50
131.5436187924497062
 51
253.9927751966386893
  0
ARC
  5
84BC
  8
0
 10
3850.8813134406618701
 20
150.8220011989648128
 30
0.0
 40
0.0888
 50
311.5436187924519231
 51
54.9191692874027595
  0
ARC
  5
84BD
  8
0
 10
3850.8362201634090525
 20
151.0706949166062998
 30
0.0
 40
0.0888
 50
153.0514802199818121
 51
234.9191692874017861
  0
ARC
  5
84BE
  8
0
 10
3850.5803427559349075
 20
151.2929137070323122
 30
0.0
 40
0.24
 50
333.0514802199788846
 51
25.7335423388304712
  0
LINE
  5
84BF
  8
0
 10
3851.4813815646639341
 20
150.6871533283895133
 30
0.0
 11
3851.2972048696428828
 21
150.4546290940195092
 31
0.0
  0
LINE
  5
84C0
  8
0
 10
3851.2506814525831942
 20
150.852535608176396
 30
0.0
 11
3851.4230979622439008
 21
150.8303640060271107
 31
0.0
  0
LINE
  5
84C1
  8
0
 10
3851.2222024097191024
 20
151.1214455810624884
 30
0.0
 11
3851.1767521585029499
 21
150.9654499679460002
 31
0.0
  0
LINE
  5
84C2
  8
0
 10
3851.0692412923272059
 20
151.277966644184886
 30
0.0
 11
3851.1757899020258264
 21
151.2261393575842021
 31
0.0
  0
LINE
  5
84C3
  8
0
 10
3850.9427630145578405
 20
151.4303297056474946
 30
0.0
 11
3850.9033435715978158
 21
151.5741067371955921
 31
0.0
  0
ARC
  5
84C4
  8
0
 10
3851.1742213171992262
 20
151.4937887801625891
 30
0.0
 40
0.24
 50
195.3320648289025883
 51
244.0608232811005109
  0
LINE
  5
84C5
  8
0
 10
3851.1902970432038273
 20
151.5784964372836043
 30
0.0
 11
3851.0497494552719218
 21
151.6509687275562897
 31
0.0
  0
LINE
  5
84C6
  8
0
 10
3851.3889688592430502
 20
152.0721392244282981
 30
0.0
 11
3851.2168378327610299
 21
152.0803443550223051
 31
0.0
  0
LINE
  5
84C7
  8
0
 10
3851.288252366352026
 20
152.3381647049016863
 30
0.0
 11
3851.1600843902820088
 21
152.2361263384090933
 31
0.0
  0
LINE
  5
84C8
  8
0
 10
3851.193306289001157
 20
152.4368928946485084
 30
0.0
 11
3851.0442994974669091
 21
152.3529993908898064
 31
0.0
  0
LINE
  5
84C9
  8
0
 10
3850.9456737046880335
 20
152.5946622119629126
 30
0.0
 11
3850.9082539663831994
 21
152.4503932368519088
 31
0.0
  0
LINE
  5
84CA
  8
0
 10
3850.8022058030119297
 20
152.62863593223409
 30
0.0
 11
3850.7377022223299718
 21
152.4873407087848989
 31
0.0
  0
LINE
  5
84CB
  8
0
 10
3850.800644329151055
 20
152.8305991155484094
 30
0.0
 11
3850.7523613473517798
 21
152.9326220911922007
 31
0.0
  0
LINE
  5
84CC
  8
0
 10
3851.0606069292730353
 20
152.7437433112289966
 30
0.0
 11
3851.1826908050898055
 21
152.8121981645456913
 31
0.0
  0
LINE
  5
84CD
  8
0
 10
3851.3082892603570144
 20
152.5873928057937974
 30
0.0
 11
3851.3400339470272229
 21
152.7133971512375012
 31
0.0
  0
LINE
  5
84CE
  8
0
 10
3851.4448781980640888
 20
152.390295946531495
 30
0.0
 11
3851.617264589981005
 21
152.3851633702225001
 31
0.0
  0
LINE
  5
84CF
  8
0
 10
3851.5535318045458553
 20
152.1270712330264985
 30
0.0
 11
3851.6726487503551652
 21
152.2257804469560938
 31
0.0
  0
LINE
  5
84D0
  8
0
 10
3851.4557039592950787
 20
151.6337291025666048
 30
0.0
 11
3851.6121151824117987
 21
151.652218638929611
 31
0.0
  0
LINE
  5
84D1
  8
0
 10
3851.3128572584978428
 20
151.4245090375912923
 30
0.0
 11
3851.337048541221975
 21
151.3296779722579117
 31
0.0
  0
ARC
  5
84D2
  8
0
 10
3851.0803047255121783
 20
151.3651851857077872
 30
0.0
 40
0.24
 50
14.3108622459737305
 51
62.7224507648230372
  0
ARC
  5
84D3
  8
0
 10
3851.4275294752110312
 20
151.8720696120201126
 30
0.0
 40
0.24
 50
233.6183122430506955
 51
276.7417084042892839
  0
ARC
  5
84D4
  8
0
 10
3851.4003961882558542
 20
152.3118670203795944
 30
0.0
 40
0.24
 50
267.2708943051343908
 51
309.6476873374352863
  0
ARC
  5
84D5
  8
0
 10
3851.4377356813188271
 20
152.1504022524615038
 30
0.0
 40
0.24
 50
88.2945979257411437
 51
128.5243475442634065
  0
ARC
  5
84D6
  8
0
 10
3851.0755613102828647
 20
152.6460247190713915
 30
0.0
 40
0.24
 50
299.3802936033819719
 51
345.8595516614078065
  0
ARC
  5
84D7
  8
0
 10
3851.1779864375621401
 20
152.534406140536305
 30
0.0
 40
0.24
 50
119.2802149449820064
 51
165.4593413905284933
  0
ARC
  5
84D8
  8
0
 10
3850.5837113199168016
 20
152.7279342749041859
 30
0.0
 40
0.24
 50
335.5598119357787823
 51
25.3261325022243788
  0
LINE
  5
84D9
  8
0
 10
3851.4206512971431948
 20
151.2628613725379978
 30
0.0
 11
3851.6464410334201602
 21
151.256650616910207
 31
0.0
  0
LINE
  5
84DA
  8
0
 10
3851.7027791817881734
 20
151.6020730529789944
 30
0.0
 11
3851.7857410820802215
 21
151.4270797301703055
 31
0.0
  0
LINE
  5
84DB
  8
0
 10
3851.7692575890891931
 20
151.8059752576770052
 30
0.0
 11
3851.9782624274807858
 21
151.9310611971903029
 31
0.0
  0
LINE
  5
84DC
  8
0
 10
3851.769913221526167
 20
152.236378984421691
 30
0.0
 11
3851.9771716646628192
 21
152.1298161738145893
 31
0.0
  0
LINE
  5
84DD
  8
0
 10
3851.7013004843201998
 20
152.4384192064615888
 30
0.0
 11
3851.7896193169081016
 21
152.6408859985778008
 31
0.0
  0
LINE
  5
84DE
  8
0
 10
3851.4174410103551054
 20
152.7800759089442124
 30
0.0
 11
3851.6544774615031201
 21
152.8034175096640013
 31
0.0
  0
LINE
  5
84DF
  8
0
 10
3851.2250235185929341
 20
152.9126773669551937
 30
0.0
 11
3851.1723285227931228
 21
153.1089594933191051
 31
0.0
  0
LINE
  5
84E0
  8
0
 10
3850.7773912014240523
 20
153.0401386156528076
 30
0.0
 11
3850.9458493364008973
 21
153.1739624936259077
 31
0.0
  0
ARC
  5
84E1
  8
0
 10
3850.8326265607688583
 20
152.9706080822305978
 30
0.0
 40
0.0888
 50
128.4637823686636011
 51
205.3261325022228903
  0
ARC
  5
84E2
  8
0
 10
3851.1392603870231142
 20
152.8896529177019943
 30
0.0
 40
0.0888
 50
299.2802149449821059
 51
15.0276015666043108
  0
ARC
  5
84E3
  8
0
 10
3851.4261432885541581
 20
152.6917033433248037
 30
0.0
 40
0.0888
 50
95.6239342118133777
 51
165.8595516614061012
  0
ARC
  5
84E4
  8
0
 10
3851.6199073211769246
 20
152.4739240370284108
 30
0.0
 40
0.0888
 50
268.2945979257410727
 51
336.4325003037463944
  0
ARC
  5
84E5
  8
0
 10
3851.7293089283830341
 20
152.1574060056354938
 30
0.0
 40
0.0888
 50
62.7898453229030622
 51
129.6476873374373895
  0
ARC
  5
84E6
  8
0
 10
3851.6225397415228144
 20
151.5640326504316988
 30
0.0
 40
0.0888
 50
25.3649793471805687
 51
96.7417084042892128
  0
ARC
  5
84E7
  8
0
 10
3851.4230929784262116
 20
151.3516277974547961
 30
0.0
 40
0.0888
 50
194.3108622459689059
 51
268.4243731210667079
  0
ARC
  5
84E8
  8
0
 10
3851.1369472928231517
 20
151.1462851672723957
 30
0.0
 40
0.0888
 50
343.7562032864328785
 51
64.060823281101591
  0
ARC
  5
84E9
  8
0
 10
3851.2620072753979912
 20
150.9406103817360076
 30
0.0
 40
0.0888
 50
163.7562032864433093
 51
262.6723624778385897
  0
ARC
  5
84EA
  8
0
 10
3851.4117721394291038
 20
150.7422892324676127
 30
0.0
 40
0.0888
 50
321.6181260371284907
 51
82.672362477838675
  0
LINE
  5
84EB
  8
0
 10
3851.71076818593383
 20
151.0196905605766062
 30
0.0
 11
3851.7317394564520328
 21
151.1542052265874929
 31
0.0
  0
LINE
  5
84EC
  8
0
 10
3851.823073494235814
 20
150.9206770139441005
 30
0.0
 11
3852.1141949281682173
 21
151.004481929917489
 31
0.0
  0
LINE
  5
84ED
  8
0
 10
3851.9033957365791139
 20
151.3845872714508118
 30
0.0
 11
3852.0979536851032208
 21
151.4749780412622897
 31
0.0
  0
LINE
  5
84EE
  8
0
 10
3852.2240888252408695
 20
151.3982154250126086
 30
0.0
 11
3852.2360135845437981
 21
151.1176066695973077
 31
0.0
  0
LINE
  5
84EF
  8
0
 10
3852.0988521222520831
 20
151.9024287430250979
 30
0.0
 11
3852.1958176741359239
 21
151.74955631856389
 31
0.0
  0
LINE
  5
84F0
  8
0
 10
3852.3387756121769598
 20
151.7399760087216976
 30
0.0
 11
3852.5320775814980152
 21
151.9699002209376033
 31
0.0
  0
LINE
  5
84F1
  8
0
 10
3852.2008439565402114
 20
152.3448245602938869
 30
0.0
 11
3852.0943114546471406
 21
152.1637585216575133
 31
0.0
  0
LINE
  5
84F2
  8
0
 10
3852.3424807494998277
 20
152.3601864888574937
 30
0.0
 11
3852.5567003040177951
 21
152.1292644884198921
 31
0.0
  0
LINE
  5
84F3
  8
0
 10
3851.9032965930291539
 20
152.6881046595308931
 30
0.0
 11
3852.1023206360828226
 21
152.6104324702506005
 31
0.0
  0
LINE
  5
84F4
  8
0
 10
3852.2233353081160203
 20
152.6896448522724086
 30
0.0
 11
3852.2365538174558424
 21
153.0236947371622023
 31
0.0
  0
LINE
  5
84F5
  8
0
 10
3851.8149871848199837
 20
153.1864064986397125
 30
0.0
 11
3852.1373688391590804
 21
153.115929752498289
 31
0.0
  0
LINE
  5
84F6
  8
0
 10
3851.7337185960368515
 20
152.904094389844289
 30
0.0
 11
3851.7080788507068974
 21
153.0873509779945039
 31
0.0
  0
LINE
  5
84F7
  8
0
 10
3851.2408465267458268
 20
153.2190933311219112
 30
0.0
 11
3851.4425532587720227
 21
153.259025402656107
 31
0.0
  0
LINE
  5
84F8
  8
0
 10
3851.4973621888320849
 20
153.3980352032687051
 30
0.0
 11
3851.3102480606271456
 21
153.657808327411999
 31
0.0
  0
LINE
  5
84F9
  8
0
 10
3850.8548857640021197
 20
153.5814385565541897
 30
0.0
 11
3851.1666898667808709
 21
153.6947384016818887
 31
0.0
  0
LINE
  5
84FA
  8
0
 10
3850.8229284453341279
 20
153.4346839896325889
 30
0.0
 11
3850.9528983469299419
 21
153.3067867650433982
 31
0.0
  0
ARC
  5
84FB
  8
0
 10
3850.8852128152079786
 20
153.4979777276278128
 30
0.0
 40
0.0888
 50
109.969559394834107
 51
225.460520459396605
  0
ARC
  5
84FC
  8
0
 10
3850.8906139770560912
 20
153.2434930270482027
 30
0.0
 40
0.0888
 50
308.4637823686616116
 51
45.4605204593954468
  0
ARC
  5
84FD
  8
0
 10
3851.2580916543629428
 20
153.1319839425723046
 30
0.0
 40
0.0888
 50
101.1981038644457982
 51
195.0276015666073874
  0
ARC
  5
84FE
  8
0
 10
3851.4253081311558162
 20
153.3461347912057988
 30
0.0
 40
0.0888
 50
281.1981038644458977
 51
35.7651401375999924
  0
ARC
  5
84FF
  8
0
 10
3851.6457751833040675
 20
152.89179007528341
 30
0.0
 40
0.0888
 50
275.6239342118133777
 51
7.9646497653595887
  0
ARC
  5
8500
  8
0
 10
3851.7960222634401362
 20
153.0996552925554113
 30
0.0
 40
0.0888
 50
77.6684166283007329
 51
187.9646497653612016
  0
ARC
  5
8501
  8
0
 10
3851.8710124800518315
 20
152.6053811680110073
 30
0.0
 40
0.0888
 50
68.6810209222917791
 51
156.4325003037494071
  0
ARC
  5
8502
  8
0
 10
3852.1346047490610545
 20
152.6931559617706
 30
0.0
 40
0.0888
 50
248.6810209222923902
 51
357.7339615953205225
  0
ARC
  5
8503
  8
0
 10
3852.2773794533832188
 20
152.2997939293506136
 30
0.0
 40
0.0888
 50
42.8511758232262494
 51
149.5290324706494118
  0
ARC
  5
8504
  8
0
 10
3852.0177759578059522
 20
152.2087891526007866
 30
0.0
 40
0.0888
 50
242.7898453229041138
 51
329.5290324706493834
  0
ARC
  5
8505
  8
0
 10
3852.0238646555781088
 20
151.8548648928666864
 30
0.0
 40
0.0888
 50
32.3865748514655891
 51
120.8998232273711011
  0
ARC
  5
8506
  8
0
 10
3852.2708051408098981
 20
151.7971201687223015
 30
0.0
 40
0.0888
 50
212.3865748514627967
 51
319.9455500277878173
  0
ARC
  5
8507
  8
0
 10
3851.8659805223442163
 20
151.4651201327174874
 30
0.0
 40
0.0888
 50
205.3649793471761029
 51
294.9193743414023174
  0
ARC
  5
8508
  8
0
 10
3852.1353688993358446
 20
151.3944451799956141
 30
0.0
 40
0.0888
 50
2.4333792942052521
 51
114.9193743414026017
  0
ARC
  5
8509
  8
0
 10
3851.7985082902500835
 20
151.0060115951706905
 30
0.0
 40
0.0888
 50
171.138736986786995
 51
286.0594839442986768
  0
ARC
  5
850A
  8
0
 10
3851.6439993521357792
 20
151.1678841919934086
 30
0.0
 40
0.0888
 50
351.1387369867886719
 51
88.4243731210667789
  0
LINE
  5
850B
  8
0
 10
3850.0224700524809123
 20
151.6788495916470083
 30
0.0
 11
3850.1410484470129632
 21
151.7662146388375959
 31
0.0
  0
LINE
  5
850C
  8
0
 10
3851.2851706899991768
 20
151.6788495916470083
 30
0.0
 11
3851.1658769564060094
 21
151.766741679459102
 31
0.0
  0
LINE
  5
850D
  8
0
 10
3850.2995274142390372
 20
144.4475828109409008
 30
0.0
 11
3850.2995274142390372
 21
143.207406381540892
 31
0.0
  0
LINE
  5
850E
  8
0
 10
3850.0908659969400105
 20
143.0678108265408923
 30
0.0
 11
3850.3375147732808728
 21
143.0674525332233884
 31
0.0
  0
LINE
  5
850F
  8
0
 10
3850.4908063227021557
 20
143.5301789987408938
 30
0.0
 11
3850.5094141466388464
 21
143.3616344072225104
 31
0.0
  0
LINE
  5
8510
  8
0
 10
3850.2998341096399599
 20
143.3333286140224914
 30
0.0
 11
3851.0084955270399405
 21
143.3333286140224914
 31
0.0
  0
ARC
  5
8511
  8
0
 10
3850.1224031803972139
 20
144.5166143978217974
 30
0.0
 40
0.0197261658119007
 50
98.3382980574060639
 51
179.955483822994097
  0
LINE
  5
8512
  8
0
 10
3850.1026770205389766
 20
144.5166297241408984
 30
0.0
 11
3850.1026770207390655
 21
144.4897328997408863
 31
0.0
  0
LINE
  5
8513
  8
0
 10
3850.1026770207390655
 20
144.4897328997408863
 30
0.0
 11
3850.2194039275132127
 21
144.2384526611409115
 31
0.0
  0
LINE
  5
8514
  8
0
 10
3850.2194039275132127
 20
144.2384526611409115
 30
0.0
 11
3850.2218712341400533
 21
144.2293277407408993
 31
0.0
  0
LINE
  5
8515
  8
0
 10
3850.2218712341400533
 20
144.2293277407408993
 30
0.0
 11
3850.2494619832400531
 21
144.2250783351408927
 31
0.0
  0
LINE
  5
8516
  8
0
 10
3850.2494619832400531
 20
144.2250783351408927
 30
0.0
 11
3850.2995274142390372
 21
144.2250782784408898
 31
0.0
  0
LINE
  5
8517
  8
0
 10
3850.1026770205389766
 20
144.5166297241601114
 30
0.0
 11
3850.122362060541036
 21
144.5166297238916115
 31
0.0
  0
LINE
  5
8518
  8
0
 10
3850.1635211446400717
 20
144.4854897602409096
 30
0.0
 11
3850.2120545534471603
 21
144.4274876733549036
 31
0.0
  0
LINE
  5
8519
  8
0
 10
3850.2120545534471603
 20
144.4274876733549036
 30
0.0
 11
3850.2194024334398819
 21
144.4037436890407946
 31
0.0
  0
LINE
  5
851A
  8
0
 10
3850.2194024334398819
 20
144.4037436890407946
 30
0.0
 11
3850.2194023061388179
 21
144.2384561515007988
 31
0.0
  0
LINE
  5
851B
  8
0
 10
3850.2194024334398819
 20
144.4037436890407946
 30
0.0
 11
3850.2995274142390372
 21
144.4037436890407946
 31
0.0
  0
LINE
  5
851C
  8
0
 10
3850.2995274142390372
 20
144.4475828109409008
 30
0.0
 11
3850.2572497959399698
 21
144.4944609391409074
 31
0.0
  0
ARC
  5
851D
  8
0
 10
3850.1873426396227842
 20
144.473838675899998
 30
0.0
 40
0.0625422985736722
 50
64.139501982316304
 51
85.036107284471754
  0
ARC
  5
851E
  8
0
 10
3850.1487127264758783
 20
144.4080151926033011
 30
0.0
 40
0.1387557657978569
 50
38.536020313299332
 51
61.6403132395465576
  0
ARC
  5
851F
  8
0
 10
3850.0908659971692032
 20
144.4693856291887926
 30
0.0
 40
0.0393700792520992
 50
90.0000003328018465
 51
180.0073440146175869
  0
LINE
  5
8520
  8
0
 10
3850.0514959182391976
 20
144.4693805828408983
 30
0.0
 11
3850.0514959182391976
 21
143.1071822212408904
 31
0.0
  0
ARC
  5
8521
  8
0
 10
3850.0554329261399289
 20
144.0914328738408869
 30
0.0
 40
0.0118110236
 50
109.4712208060064995
 51
180.0
  0
LINE
  5
8522
  8
0
 10
3850.0436219025391438
 20
144.0914328738408869
 30
0.0
 11
3850.043621902637824
 21
143.4851321386269944
 31
0.0
  0
ARC
  5
8523
  8
0
 10
3850.0554329261399289
 20
143.4851336612408943
 30
0.0
 40
0.0118110235999999
 50
180.0073862646756027
 51
250.5287791939935005
  0
LINE
  5
8524
  8
0
 10
3850.0436219025627906
 20
143.9533871698486962
 30
0.0
 11
3850.0425086613399799
 21
143.9496760228408903
 31
0.0
  0
LINE
  5
8525
  8
0
 10
3850.0425086613399799
 20
143.9496760228408903
 30
0.0
 11
3850.04234001083978
 21
143.9457635824408896
 31
0.0
  0
ARC
  5
8526
  8
0
 10
3868.7791053618379919
 20
143.7882832674906979
 30
0.0
 40
18.73742714109801
 50
179.5184470330783881
 51
180.4815529669214982
  0
LINE
  5
8527
  8
0
 10
3850.04234001083978
 20
143.630802952540904
 30
0.0
 11
3850.0425086613399799
 21
143.6268905121409034
 31
0.0
  0
LINE
  5
8528
  8
0
 10
3850.0425086613399799
 20
143.6268905121409034
 30
0.0
 11
3850.0436219026150866
 21
143.6231793962548124
 31
0.0
  0
ARC
  5
8529
  8
0
 10
3849.768201209459221
 20
144.4157408036051891
 30
0.0
 40
0.0744996133958579
 50
201.6876783726582971
 51
244.6700590002317028
  0
ARC
  5
852A
  8
0
 10
3849.7991783606607896
 20
144.4428863486290879
 30
0.0
 40
0.1134775111013179
 50
236.3679606656386056
 51
257.2368483027905768
  0
ARC
  5
852B
  8
0
 10
3849.7223907297388905
 20
144.0352868890340972
 30
0.0
 40
0.3013962188471827
 50
70.6811651660610352
 51
80.1194416626045438
  0
ARC
  5
852C
  8
0
 10
3849.7174255571922004
 20
143.672291997173204
 30
0.0
 40
0.6558274297066345
 50
74.3541120671493445
 51
80.8159303834409002
  0
ARC
  5
852D
  8
0
 10
3860.3924014559061106
 20
144.1847797717254025
 30
0.0
 40
10.3539225557618195
 50
178.0846272439102052
 51
178.9565408684125885
  0
ARC
  5
852E
  8
0
 10
3936.4235361617888884
 20
143.7938640056204065
 30
0.0
 40
86.3852838170194559
 50
179.6156594167541982
 51
180.2137849497264881
  0
ARC
  5
852F
  8
0
 10
3903.4279615251170981
 20
143.5671221104464053
 30
0.0
 40
53.3891934035807978
 50
180.1025765637160134
 51
180.418312223237109
  0
ARC
  5
8530
  8
0
 10
3841.3417357970611192
 20
142.8940150748665872
 30
0.0
 40
8.7030680603322246
 50
0.7066221354009978
 51
1.8655383335994711
  0
ARC
  5
8531
  8
0
 10
3850.139645663938154
 20
143.0129309206168955
 30
0.0
 40
0.0962037129203784
 50
186.9162207271226066
 51
218.335694509561506
  0
ARC
  5
8532
  8
0
 10
3850.0944555225742079
 20
143.0627267011913943
 30
0.0
 40
0.1109992395914433
 50
279.5285028211815757
 51
333.3825790936011799
  0
ARC
  5
8533
  8
0
 10
3850.1035714549138902
 20
143.0498523371601038
 30
0.0
 40
0.1019021479197977
 50
356.3086553241940919
 51
10.1504008759522293
  0
LINE
  5
8534
  8
0
 10
3850.064184423540155
 20
142.9532588536409037
 30
0.0
 11
3850.1128301403400656
 21
142.9532588766408878
 31
0.0
  0
ARC
  5
8535
  8
0
 10
3850.0908659969559267
 20
143.1071809052783976
 30
0.0
 40
0.0393700787375429
 50
179.9980848629932098
 51
269.9999999773580726
  0
LINE
  5
8536
  8
0
 10
3850.193690846680056
 20
143.0129956079067028
 30
0.0
 11
3850.2052621920920501
 21
143.0432917180638981
 31
0.0
  0
ARC
  5
8537
  8
0
 10
3849.6584823313842207
 20
144.3818124834743912
 30
0.0
 40
0.0409951514295264
 50
8.9775887649197426
 51
33.1625044217785998
  0
ARC
  5
8538
  8
0
 10
3849.752750373922936
 20
144.4066800559996011
 30
0.0
 40
0.0599998195001954
 50
128.3051135627345047
 51
182.3331523236427927
  0
ARC
  5
8539
  8
0
 10
3850.5177209709499948
 20
143.4082477588144116
 30
0.0
 40
1.317788090461804
 50
114.0969584888053987
 51
127.4968690514040048
  0
ARC
  5
853A
  8
0
 10
3856.4805357332747917
 20
144.6175482333374021
 30
0.0
 40
6.7910863548091527
 50
181.7999796471426919
 51
189.1197979812370136
  0
ARC
  5
853B
  8
0
 10
3850.6158372167310517
 20
143.1964243184708039
 30
0.0
 40
0.6962182446543973
 50
220.6811183057241976
 51
246.436623293016595
  0
ARC
  5
853C
  8
0
 10
3852.5886968830509431
 20
144.0162679236300107
 30
0.0
 40
2.8532354920666392
 50
189.5851588388852065
 51
196.3025610061690998
  0
ARC
  5
853D
  8
0
 10
3851.0805519401301353
 20
143.5378061554239082
 30
0.0
 40
1.271926085939286
 50
194.6863786781881061
 51
218.6970118701829051
  0
ARC
  5
853E
  8
0
 10
3848.4701966592137978
 20
144.1656839564224981
 30
0.0
 40
1.4307834717369019
 50
358.9547147120994737
 51
5.5402517417785182
  0
ARC
  5
853F
  8
0
 10
3881.855885098078943
 20
145.1104354971677992
 30
0.0
 40
31.9698877626614291
 50
181.7402101489535937
 51
183.4260008025042055
  0
ARC
  5
8540
  8
0
 10
3850.0196471692788691
 20
143.1431617870962043
 30
0.0
 40
0.095276210315543
 50
143.4244410983245928
 51
187.9398970684219989
  0
ARC
  5
8541
  8
0
 10
3850.3324508639939268
 20
143.1584251181938043
 30
0.0
 40
0.4081574812696648
 50
183.9933315166695991
 51
199.8507360733578082
  0
ARC
  5
8542
  8
0
 10
3850.5497266254637907
 20
143.2066679382579082
 30
0.0
 40
0.6295457820787523
 50
197.2647474679816924
 51
208.1787548947447135
  0
ARC
  5
8543
  8
0
 10
3850.659600734049036
 20
143.2373540524758937
 30
0.0
 40
0.7413043362840012
 50
206.2588063862037018
 51
244.247442132165105
  0
ARC
  5
8544
  8
0
 10
3849.9535567915818319
 20
144.2814916020674048
 30
0.0
 40
0.0633269777288581
 50
117.2029209729627013
 51
159.3552367564024053
  0
ARC
  5
8545
  8
0
 10
3850.0200242316718686
 20
144.3460139285062098
 30
0.0
 40
0.0205595808030108
 50
67.8129536138235949
 51
107.3205196701730983
  0
ARC
  5
8546
  8
0
 10
3850.0203079958027956
 20
144.3467891899944959
 30
0.0
 40
0.0197345873451613
 50
2.8766427672012842
 51
67.7258249313141931
  0
LINE
  5
8547
  8
0
 10
3849.9246072899400133
 20
144.3378141771408991
 30
0.0
 11
3850.0139032992919965
 21
144.3656412194447967
 31
0.0
  0
LINE
  5
8548
  8
0
 10
3850.2995274142390372
 20
144.4182045273408903
 30
0.0
 11
3851.0081888316390177
 21
144.4182045273408903
 31
0.0
  0
LINE
  5
8549
  8
0
 10
3851.0081888316390177
 20
144.4475828109409008
 30
0.0
 11
3851.0081888316390177
 21
143.207406381540892
 31
0.0
  0
LINE
  5
854A
  8
0
 10
3851.2168502489398634
 20
143.0678108265408923
 30
0.0
 11
3850.9753636987261416
 21
143.0678108965724959
 31
0.0
  0
LINE
  5
854B
  8
0
 10
3850.8175233139781994
 20
143.5301789987408938
 30
0.0
 11
3850.7989154900401445
 21
143.3616344072225104
 31
0.0
  0
LINE
  5
854C
  8
0
 10
3851.0084955270399405
 20
143.3333286140224914
 30
0.0
 11
3850.2998341096399599
 21
143.3333286140224914
 31
0.0
  0
ARC
  5
854D
  8
0
 10
3851.1853090533059003
 20
144.5166110270901925
 30
0.0
 40
0.0197301808914661
 50
0.0542956124071
 51
89.8797714915304198
  0
LINE
  5
854E
  8
0
 10
3851.2050392253390783
 20
144.5166297241408984
 30
0.0
 11
3851.2050392251398989
 21
144.4897328997408863
 31
0.0
  0
LINE
  5
854F
  8
0
 10
3851.2050392251398989
 20
144.4897328997408863
 30
0.0
 11
3851.0883123183671159
 21
144.2384526611409115
 31
0.0
  0
LINE
  5
8550
  8
0
 10
3851.0883123183671159
 20
144.2384526611409115
 30
0.0
 11
3851.0858450117398206
 21
144.2293277407408993
 31
0.0
  0
LINE
  5
8551
  8
0
 10
3851.0858450117398206
 20
144.2293277407408993
 30
0.0
 11
3851.0582542626389113
 21
144.2250783351408927
 31
0.0
  0
LINE
  5
8552
  8
0
 10
3851.0582542626389113
 20
144.2250783351408927
 30
0.0
 11
3851.0081888316390177
 21
144.2250782784408898
 31
0.0
  0
LINE
  5
8553
  8
0
 10
3851.2050392253390783
 20
144.5166297241601114
 30
0.0
 11
3851.1853541853379284
 21
144.5166297238916115
 31
0.0
  0
LINE
  5
8554
  8
0
 10
3851.1441951012398022
 20
144.4854897602409096
 30
0.0
 11
3851.0956616924331684
 21
144.4274876733549036
 31
0.0
  0
LINE
  5
8555
  8
0
 10
3851.0956616924331684
 20
144.4274876733549036
 30
0.0
 11
3851.088313812439992
 21
144.4037436890407946
 31
0.0
  0
LINE
  5
8556
  8
0
 10
3851.088313812439992
 20
144.4037436890407946
 30
0.0
 11
3851.0883139397387822
 21
144.2384561515007988
 31
0.0
  0
LINE
  5
8557
  8
0
 10
3851.088313812439992
 20
144.4037436890407946
 30
0.0
 11
3851.0081888316390177
 21
144.4037436890407946
 31
0.0
  0
LINE
  5
8558
  8
0
 10
3851.0081888316390177
 20
144.4475828109409008
 30
0.0
 11
3851.0504664499389946
 21
144.4944609391409074
 31
0.0
  0
ARC
  5
8559
  8
0
 10
3851.1201058602200646
 20
144.474535655565802
 30
0.0
 40
0.0617983616716033
 50
90.7864084322755502
 51
115.9189783826444966
  0
ARC
  5
855A
  8
0
 10
3851.1590035194021766
 20
144.4080151926033011
 30
0.0
 40
0.1387557657978569
 50
118.3596867604533998
 51
141.4639796867006964
  0
ARC
  5
855B
  8
0
 10
3851.2168502487111255
 20
144.4693856291887926
 30
0.0
 40
0.0393700792520992
 50
359.9926559853823846
 51
89.9999996671981535
  0
LINE
  5
855C
  8
0
 10
3851.2562203276402215
 20
144.4693805828408983
 30
0.0
 11
3851.2562203276402215
 21
143.1071822212408904
 31
0.0
  0
ARC
  5
855D
  8
0
 10
3851.252283319739945
 20
144.0914328738408869
 30
0.0
 40
0.0118110236
 50
0.0
 51
70.5287791939934436
  0
LINE
  5
855E
  8
0
 10
3851.2640943433398206
 20
144.0914328738408869
 30
0.0
 11
3851.2640943432411405
 21
143.4851321386269944
 31
0.0
  0
ARC
  5
855F
  8
0
 10
3851.252283319739945
 20
143.4851336612408943
 30
0.0
 40
0.0118110235999999
 50
289.4712208060066132
 51
359.9926137353227205
  0
LINE
  5
8560
  8
0
 10
3851.2640943433170833
 20
143.9533871698486962
 30
0.0
 11
3851.2652075845389845
 21
143.9496760228408903
 31
0.0
  0
LINE
  5
8561
  8
0
 10
3851.2652075845389845
 20
143.9496760228408903
 30
0.0
 11
3851.2653762350391844
 21
143.9457635824408896
 31
0.0
  0
ARC
  5
8562
  8
0
 10
3832.5286108840418819
 20
143.7882832674906979
 30
0.0
 40
18.73742714109801
 50
359.5184470330784734
 51
0.4815529669215535
  0
LINE
  5
8563
  8
0
 10
3851.2653762350391844
 20
143.630802952540904
 30
0.0
 11
3851.2652075845389845
 21
143.6268905121409034
 31
0.0
  0
LINE
  5
8564
  8
0
 10
3851.2652075845389845
 20
143.6268905121409034
 30
0.0
 11
3851.2640943432638778
 21
143.6231793962548124
 31
0.0
  0
ARC
  5
8565
  8
0
 10
3851.2143960582020554
 20
144.4972499494683973
 30
0.0
 40
0.0596950983514931
 50
34.8465358280215867
 51
40.9266040185328634
  0
ARC
  5
8566
  8
0
 10
3851.5395150364211077
 20
144.4157408036051891
 30
0.0
 40
0.0744996133958579
 50
295.3299409997679277
 51
338.3123216273417029
  0
ARC
  5
8567
  8
0
 10
3851.5085378852181748
 20
144.4428863486290879
 30
0.0
 40
0.1134775111013179
 50
282.7631516972094232
 51
303.6320393343395949
  0
ARC
  5
8568
  8
0
 10
3851.5853255161400739
 20
144.0352868890340972
 30
0.0
 40
0.3013962188471827
 50
99.8805583373954846
 51
109.3188348339388938
  0
ARC
  5
8569
  8
0
 10
3851.5902906886872188
 20
143.672291997173204
 30
0.0
 40
0.6558274297066343
 50
99.184069616559114
 51
105.6458879328506981
  0
ARC
  5
856A
  8
0
 10
3841.6809138883450032
 20
144.2016476861720093
 30
0.0
 40
9.588143684312282
 50
1.025992473188382
 51
1.9706386198812491
  0
ARC
  5
856B
  8
0
 10
3757.9334838759468767
 20
143.7558390919411977
 30
0.0
 40
93.3360791100141114
 50
359.8254781111501188
 51
0.3790607755637783
  0
ARC
  5
856C
  8
0
 10
3797.8797547207627758
 20
143.5671221104464053
 30
0.0
 40
53.3891934035807978
 50
359.5816877767628057
 51
359.8974234362838729
  0
ARC
  5
856D
  8
0
 10
3859.9659804487841939
 20
142.8940150748676103
 30
0.0
 40
8.7030680602983708
 50
178.1344616663988916
 51
179.2933778646022063
  0
ARC
  5
856E
  8
0
 10
3851.1680705819408104
 20
143.0129309206168955
 30
0.0
 40
0.0962037129203802
 50
321.6643054904379255
 51
353.0837792728756881
  0
ARC
  5
856F
  8
0
 10
3851.2132607162020577
 20
143.0627266952133994
 30
0.0
 40
0.1109992305620437
 50
206.617419790579504
 51
260.4715156597808914
  0
ARC
  5
8570
  8
0
 10
3851.2041447909650742
 20
143.0498523371601038
 30
0.0
 40
0.1019021479197976
 50
169.8495991240478133
 51
183.6913446758042028
  0
LINE
  5
8571
  8
0
 10
3851.2435318223401737
 20
142.9532588536409037
 30
0.0
 11
3851.1948861352389031
 21
142.9532588736408911
 31
0.0
  0
ARC
  5
8572
  8
0
 10
3851.2168502489239472
 20
143.1071809052783976
 30
0.0
 40
0.0393700787375429
 50
270.0000000226419274
 51
0.0019151370068097
  0
LINE
  5
8573
  8
0
 10
3851.1140253991989084
 20
143.0129956079067028
 30
0.0
 11
3851.1024540537869143
 21
143.0432917180638981
 31
0.0
  0
ARC
  5
8574
  8
0
 10
3851.6492339144951984
 20
144.3818124834743912
 30
0.0
 40
0.0409951514295264
 50
146.8374955782228142
 51
171.0224112350801988
  0
ARC
  5
8575
  8
0
 10
3851.5549658719551189
 20
144.4066800559996011
 30
0.0
 40
0.0599998195001954
 50
357.6668476763571221
 51
51.6948864372654384
  0
ARC
  5
8576
  8
0
 10
3850.7899952749298791
 20
143.4082477588144116
 30
0.0
 40
1.317788090461804
 50
52.5031309485960307
 51
65.9066920936746072
  0
ARC
  5
8577
  8
0
 10
3844.8271805126041727
 20
144.6175482333374021
 30
0.0
 40
6.7910863548091527
 50
350.8802020187629864
 51
358.2000203528572797
  0
ARC
  5
8578
  8
0
 10
3850.6918790291488222
 20
143.1964243184708039
 30
0.0
 40
0.6962182446543973
 50
294.0276765550328264
 51
319.318881694275774
  0
ARC
  5
8579
  8
0
 10
3848.7190193628280213
 20
144.0162679236300107
 30
0.0
 40
2.8532354920666392
 50
343.6974389938308718
 51
350.4148411611147935
  0
ARC
  5
857A
  8
0
 10
3850.2271643057488291
 20
143.5378061554239082
 30
0.0
 40
1.271926085939286
 50
321.3029881298170949
 51
345.3136213218102739
  0
ARC
  5
857B
  8
0
 10
3852.8375195866651666
 20
144.1656839564224981
 30
0.0
 40
1.4307834717368171
 50
174.459748258219804
 51
181.0452852878987926
  0
ARC
  5
857C
  8
0
 10
3819.4518311478000214
 20
145.1104354971677992
 30
0.0
 40
31.9698877626614291
 50
356.573999197495823
 51
358.259789851046321
  0
ARC
  5
857D
  8
0
 10
3851.2880690765991858
 20
143.1431617870962043
 30
0.0
 40
0.095276210315543
 50
352.0601029315764094
 51
36.5755589016754215
  0
ARC
  5
857E
  8
0
 10
3850.9752653818850376
 20
143.1584251181938043
 30
0.0
 40
0.4081574812696648
 50
340.1492639266422202
 51
356.0066684833303725
  0
ARC
  5
857F
  8
0
 10
3850.7579896204151737
 20
143.2066679382579082
 30
0.0
 40
0.6295457820787523
 50
331.8212451052552865
 51
342.735252532018194
  0
ARC
  5
8580
  8
0
 10
3850.6481155118308379
 20
143.2373540524758937
 30
0.0
 40
0.7413043362840012
 50
296.1963807435183753
 51
333.7411936137946782
  0
ARC
  5
8581
  8
0
 10
3851.3541594542971325
 20
144.2814916020674048
 30
0.0
 40
0.0633269777288581
 50
20.6447632435975414
 51
62.7970790270372703
  0
ARC
  5
8582
  8
0
 10
3851.2876920142070958
 20
144.3460139285062098
 30
0.0
 40
0.0205595808030108
 50
72.6794803298268732
 51
112.1870463861761067
  0
ARC
  5
8583
  8
0
 10
3851.2874082500761688
 20
144.3467891899944959
 30
0.0
 40
0.0197345873451613
 50
112.2741750686858069
 51
177.1233572327986963
  0
LINE
  5
8584
  8
0
 10
3851.3831089559389511
 20
144.3378141771408991
 30
0.0
 11
3851.2938129465869679
 21
144.3656412194447967
 31
0.0
  0
LINE
  5
8585
  8
0
 10
3851.0081888316390177
 20
144.4182045273408903
 30
0.0
 11
3850.2995274142390372
 21
144.4182045273408903
 31
0.0
  0
LINE
  5
8586
  8
0
 10
3850.2998341096399599
 20
143.3616269247224864
 30
0.0
 11
3850.5094141466388464
 21
143.3616344072225104
 31
0.0
  0
LINE
  5
8587
  8
0
 10
3850.7989154900401445
 20
143.3616344072225104
 30
0.0
 11
3851.0084955270399405
 21
143.3616269247224864
 31
0.0
  0
LINE
  5
8588
  8
0
 10
3850.4908063227021557
 20
143.5301789987408938
 30
0.0
 11
3850.8175233139781994
 21
143.5301789987408938
 31
0.0
  0
LINE
  5
8589
  8
0
 10
3850.2997940518398536
 20
143.8845097144908891
 30
0.0
 11
3851.0084554692398342
 21
143.8845097144908891
 31
0.0
  0
LINE
  5
858A
  8
0
 10
3850.2997940518398536
 20
143.8057695569908958
 30
0.0
 11
3851.0084554692398342
 21
143.8057695569908958
 31
0.0
  0
ARC
  5
858B
  8
0
 10
3850.5305367156838656
 20
143.3672518734695984
 30
0.0
 40
0.0218567804141183
 50
194.8928692962435036
 51
252.7068067967074967
  0
ARC
  5
858C
  8
0
 10
3850.5730055703470498
 20
143.459978951144592
 30
0.0
 40
0.1236999950959746
 50
246.681310871140397
 51
264.7116065974902881
  0
ARC
  5
858D
  8
0
 10
3850.6045270803410858
 20
143.6878941889912937
 30
0.0
 40
0.3537027497283311
 50
263.0298202083708929
 51
267.0961169510799778
  0
ARC
  5
858E
  8
0
 10
3849.8870364551671628
 20
126.0297344751189996
 30
0.0
 40
17.3190458876368005
 50
87.579546398684073
 51
87.6850098425101692
  0
ARC
  5
858F
  8
0
 10
3850.7777929209951253
 20
143.3672518734695984
 30
0.0
 40
0.0218567804141183
 50
287.2931932032925033
 51
345.1071307037548195
  0
ARC
  5
8590
  8
0
 10
3850.7353240663328506
 20
143.459978951144592
 30
0.0
 40
0.1236999950959746
 50
275.2883934025097119
 51
293.3186891288597167
  0
ARC
  5
8591
  8
0
 10
3850.7038025563388146
 20
143.6878941889912937
 30
0.0
 40
0.3537027497283311
 50
272.9038830489200222
 51
276.9701797916289934
  0
ARC
  5
8592
  8
0
 10
3851.4212931815118282
 20
126.0297344751189996
 30
0.0
 40
17.3190458876368005
 50
92.3149901574898308
 51
92.4204536013159128
  0
ARC
  5
8593
  8
0
 10
3850.0952752485968631
 20
144.4380569879625114
 30
0.0
 40
0.0831105902560617
 50
34.8003616777618419
 51
70.9791092005596056
  0
ARC
  5
8594
  8
0
 10
3851.2245660966550531
 20
144.4220307012789988
 30
0.0
 40
0.1024038528006439
 50
112.5143254343290948
 51
141.706203687330401
  0
LINE
  5
8595
  8
0
 10
3850.0908659971692032
 20
144.5087557084409013
 30
0.0
 11
3850.1026770205980938
 21
144.508755708528696
 31
0.0
  0
LINE
  5
8596
  8
0
 10
3851.2168502489398634
 20
144.5087557084409013
 30
0.0
 11
3851.2050392252808706
 21
144.508755708528696
 31
0.0
  0
ARC
  5
8597
  8
0
 10
3850.9221788738818759
 20
143.9399508779067105
 30
0.0
 40
1.2761686713945
 50
230.6391760341001032
 51
242.7328405498315078
  0
ARC
  5
8598
  8
0
 10
3850.3871963914798471
 20
143.937675436869597
 30
0.0
 40
1.27335725235843
 50
297.5099613945193937
 51
309.3680417743252065
  0
LINE
  5
8599
  8
0
 10
3850.0442637997398379
 20
144.530842201640894
 30
0.0
 11
3850.047777927520201
 21
144.5361179587372078
 31
0.0
  0
ARC
  5
859A
  8
0
 10
3850.2676869105548576
 20
144.5161646938371121
 30
0.0
 40
0.0199989308701978
 50
0.3915306327897095
 51
89.1021188405491955
  0
ARC
  5
859B
  8
0
 10
3851.0397715463509485
 20
144.5165101553957072
 30
0.0
 40
0.0198028115078011
 50
90.3601264658622512
 51
179.8589618849061935
  0
LINE
  5
859C
  8
0
 10
3850.2379268177041922
 20
144.5142884652007069
 30
0.0
 11
3851.0699767017617887
 21
144.5144453964128104
 31
0.0
  0
LINE
  5
859D
  8
0
 10
3851.01996879483886
 20
144.5165589015408898
 30
0.0
 11
3851.0199691952420835
 21
144.5144359646002101
 31
0.0
  0
LINE
  5
859E
  8
0
 10
3850.2876853744392065
 20
144.5163013554409019
 30
0.0
 11
3850.2876860579399363
 21
144.5143055075407972
 31
0.0
  0
ARC
  5
859F
  8
0
 10
3850.3210125211999184
 20
143.1490804988218031
 30
0.0
 40
0.0819385179900822
 50
229.2890238001072873
 51
264.7369908089423802
  0
ARC
  5
85A0
  8
0
 10
3850.3026644463839148
 20
143.110884190571511
 30
0.0
 40
0.0424686697499561
 50
160.7965287670612895
 51
214.2700485354808109
  0
ARC
  5
85A1
  8
0
 10
3850.503767392177906
 20
143.0500628231380063
 30
0.0
 40
0.2525373974461465
 50
145.6448019969942038
 51
162.773163958149695
  0
ARC
  5
85A2
  8
0
 10
3850.2574531909322104
 20
143.2114220277074992
 30
0.0
 40
0.0422654194477021
 50
333.5179266421973239
 51
354.5480928267700165
  0
ARC
  5
85A3
  8
0
 10
3850.9872414496780948
 20
143.1490804988218031
 30
0.0
 40
0.0819385179900658
 50
277.3261039383910997
 51
310.7109761998926842
  0
ARC
  5
85A4
  8
0
 10
3851.0055895244959174
 20
143.110884190571511
 30
0.0
 40
0.0424686697499561
 50
325.7299514645191039
 51
19.2034712329386714
  0
ARC
  5
85A5
  8
0
 10
3850.8044865787010167
 20
143.0500628231380063
 30
0.0
 40
0.2525373974461465
 50
17.2268360418502589
 51
34.355198003005782
  0
ARC
  5
85A6
  8
0
 10
3851.0740652880249399
 20
143.2204571971425082
 30
0.0
 40
0.0671567665523517
 50
191.205796468222502
 51
204.5305824215660948
  0
ARC
  5
85A7
  8
0
 10
3845.1964812586088556
 20
-685.3943122098995673
 30
0.0
 40
820.1643161775973567
 50
90.3514581986255223
 51
90.3611152832870346
  0
ARC
  5
85A8
  8
0
 10
3840.0259234263107828
 20
134.973123114722398
 30
0.0
 40
0.2194133108626937
 50
262.7445978512806164
 51
270.3611152832870062
  0
ARC
  5
85A9
  8
0
 10
3840.0010457543380653
 20
134.7777158054720985
 30
0.0
 40
0.0224287554498263
 50
236.1394683087711996
 51
262.7445978512806164
  0
ARC
  5
85AA
  8
0
 10
3839.9988310122248549
 20
134.7555488819162974
 30
0.0
 40
0.0108750012868387
 50
93.2568989771592243
 51
160.9910057467770912
  0
LINE
  5
85AB
  8
0
 10
3839.9982131707402004
 20
134.7554666360227031
 30
0.0
 11
3839.9982131707402004
 21
134.8923544388227072
 31
0.0
  0
ARC
  5
85AC
  8
0
 10
3840.0082102166838922
 20
143.6240019883923082
 30
0.0
 40
9.4437133009277137
 50
268.592297363070827
 51
270.954580574301076
  0
ARC
  5
85AD
  8
0
 10
3839.8549156009949002
 20
137.3859180907948883
 30
0.0
 40
3.203746157371381
 50
262.5701220661861726
 51
268.592297363070827
  0
ARC
  5
85AE
  8
0
 10
3839.4747065118422142
 20
134.5217896681062086
 30
0.0
 40
0.3145697478307375
 50
236.2209258889371029
 51
263.7811911943596215
  0
ARC
  5
85AF
  8
0
 10
3840.1736358199677852
 20
136.7368314551547996
 30
0.0
 40
2.9737435496255809
 50
266.0841211214313944
 51
269.8440278286719831
  0
ARC
  5
85B0
  8
0
 10
3839.5511913093118892
 20
127.643615676351601
 30
0.0
 40
6.1407509711210961
 50
86.08412663377743
 51
87.440224841137038
  0
ARC
  5
85B1
  8
0
 10
3839.8006776297520446
 20
133.2241844710372902
 30
0.0
 40
0.5546081608890768
 50
87.440224841137038
 51
94.4875762943428157
  0
ARC
  5
85B2
  8
0
 10
3839.7687190205369916
 20
133.6313859313821126
 30
0.0
 40
0.1461545135681119
 50
94.4875762943428157
 51
117.8658185055221992
  0
ARC
  5
85B3
  8
0
 10
3839.7255535541789868
 20
133.7285992080655888
 30
0.0
 40
0.0406940193427382
 50
128.1677482107884032
 51
200.5176241101287076
  0
ARC
  5
85B4
  8
0
 10
3839.9223749383218092
 20
133.8099305232404959
 30
0.0
 40
0.2536380287125808
 50
202.1413571915419141
 51
231.2333626028388949
  0
ARC
  5
85B5
  8
0
 10
3840.1257407408529616
 20
134.0439573818796077
 30
0.0
 40
0.5635752676132161
 50
230.0103467450277037
 51
254.2822219189278883
  0
ARC
  5
85B6
  8
0
 10
3840.1645944733550095
 20
134.1825276514817062
 30
0.0
 40
0.7074895374080369
 50
254.293370566899199
 51
270.0764358622523105
  0
LINE
  5
85B7
  8
0
 10
3843.1476591471828215
 20
134.9007319593276009
 30
0.0
 11
3841.1123333591090159
 21
134.9007319593276009
 31
0.0
  0
ARC
  5
85B8
  8
0
 10
3843.118301144491852
 20
134.0355200205227106
 30
0.0
 40
1.2992125984
 50
223.4912946750663991
 51
138.2446744879134997
  0
ARC
  5
85B9
  8
0
 10
3843.0966545373757981
 20
134.0261951165146002
 30
0.0
 40
0.8858320376842733
 50
272.697002552785591
 51
284.3175135806744152
  0
ARC
  5
85BA
  8
0
 10
3843.0455506790917752
 20
134.1036622586817941
 30
0.0
 40
0.9740040629265255
 50
286.10369015028391
 51
333.6338606378176905
  0
ARC
  5
85BB
  8
0
 10
3842.0676156050690224
 20
134.5175976864101131
 30
0.0
 40
2.035028735112645
 50
335.4200372074075176
 51
2.4161173846977109
  0
ARC
  5
85BC
  8
0
 10
3844.019457365260223
 20
134.5999541210894108
 30
0.0
 40
0.0814502649308598
 50
2.4161173846977109
 51
60.7733415292600228
  0
ARC
  5
85BD
  8
0
 10
3843.1057197196191737
 20
132.8012599804197862
 30
0.0
 40
2.0988653141564599
 50
62.9803255165925009
 51
84.2621732565768298
  0
ARC
  5
85BE
  8
0
 10
3843.0869431709379569
 20
132.7113877786175919
 30
0.0
 40
2.190185921646858
 50
84.0084874398541643
 51
88.4114522515720864
  0
ARC
  5
85BF
  8
0
 10
3839.9089504873008991
 20
134.5234370003011861
 30
0.0
 40
1.1426549201367751
 50
309.039213485381822
 51
333.0891378311193876
  0
ARC
  5
85C0
  8
0
 10
3839.7786778864128792
 20
134.6220723361828107
 30
0.0
 40
1.303785646146173
 50
331.8149405990196783
 51
345.6318328628228187
  0
ARC
  5
85C1
  8
0
 10
3840.7345084896160188
 20
134.2965292701576061
 30
0.0
 40
0.3071807202318068
 50
0.3742432105387207
 51
27.6245539511998892
  0
ARC
  5
85C2
  8
0
 10
3841.0685835530348413
 20
134.394334004472114
 30
0.0
 40
0.0763193306537016
 50
109.4945105210946963
 51
144.2148591869128893
  0
ARC
  5
85C3
  8
0
 10
3841.3939312431980397
 20
133.3983124901957922
 30
0.0
 40
1.1241099370987491
 50
100.1475937997469998
 51
108.1848663235366956
  0
ARC
  5
85C4
  8
0
 10
3847.2228819924498566
 20
67.4029539484908753
 30
0.0
 40
67.3720091131836369
 50
94.5798715584977998
 51
95.1324579667622316
  0
ARC
  5
85C5
  8
0
 10
3843.3974851572611442
 20
107.2045941571657011
 30
0.0
 40
27.3993636860770913
 50
90.145983261914779
 51
93.251732426406619
  0
ARC
  5
85C6
  8
0
 10
3843.7530106295730548
 20
196.8850011986858988
 30
0.0
 40
62.282584644391072
 50
269.6087165811064779
 51
270.3199768418602957
  0
ARC
  5
85C7
  8
0
 10
3841.2277551158867936
 20
134.692525019629386
 30
0.0
 40
0.1004164467506317
 50
293.5970787619673956
 51
17.0047267626204608
  0
ARC
  5
85C8
  8
0
 10
3841.329899768598807
 20
134.9453301945341082
 30
0.0
 40
0.2235220779830475
 50
198.0676367587867901
 51
268.431477569852575
  0
ARC
  5
85C9
  8
0
 10
3843.305793006769818
 20
135.3372778956405966
 30
0.0
 40
2.236478835229311
 50
182.2595227744959061
 51
191.9026031538354005
  0
LINE
  5
85CA
  8
0
 10
3841.0710530398509945
 20
135.8812534672246102
 30
0.0
 11
3841.0710530398509945
 21
135.2491027251992932
 31
0.0
  0
LINE
  5
85CB
  8
0
 10
3841.0671200426309042
 20
135.8812534672246102
 30
0.0
 11
3841.0671200426309042
 21
135.8891274858262932
 31
0.0
  0
ARC
  5
85CC
  8
0
 10
3840.1655452479108135
 20
135.5099542638996013
 30
0.0
 40
0.9780641301568387
 50
22.8100487195724817
 51
31.6371252633504412
  0
ARC
  5
85CD
  8
0
 10
3840.2520806382190131
 20
136.0058032502628862
 30
0.0
 40
0.8164797867095298
 50
1.20585663211404
 51
20.0044364918745501
  0
ARC
  5
85CE
  8
0
 10
3840.2600227480438662
 20
136.0076808786880918
 30
0.0
 40
0.8083750929791481
 50
20.0719543048406415
 51
37.3100953080676518
  0
ARC
  5
85CF
  8
0
 10
3839.5926461893632222
 20
135.499090327509407
 30
0.0
 40
1.647455434678833
 50
37.3100953080676518
 51
44.6593266353338265
  0
ARC
  5
85D0
  8
0
 10
3838.4338790118581528
 20
134.3540216244294925
 30
0.0
 40
3.27654220536823
 50
44.6593266353338265
 51
48.7249601834027217
  0
ARC
  5
85D1
  8
0
 10
3840.1637926572511788
 20
136.5800703514526049
 30
0.0
 40
0.2721323313074889
 50
270.368025744617114
 51
280.118471714449413
  0
ARC
  5
85D2
  8
0
 10
3840.1562293724127812
 20
136.5727566121383916
 30
0.0
 40
0.2664041912447053
 50
281.9964965858026744
 51
307.5381469914237869
  0
ARC
  5
85D3
  8
0
 10
3839.9272870833469824
 20
136.8707090585324124
 30
0.0
 40
0.6421570781734847
 50
307.5381469914237869
 51
331.2392185684071251
  0
ARC
  5
85D4
  8
0
 10
3839.3967975032551294
 20
137.1618754896848884
 30
0.0
 40
1.24729928064757
 50
331.2392185684071251
 51
347.169630138708726
  0
ARC
  5
85D5
  8
0
 10
3840.5097672164920368
 20
136.9083945150370027
 30
0.0
 40
0.1058290939630719
 50
347.169630138708726
 51
48.7995154666035305
  0
ARC
  5
85D6
  8
0
 10
3840.1320683550047761
 20
136.4769599429756113
 30
0.0
 40
0.6792331573758594
 50
48.7995154666040634
 51
71.3070418358424263
  0
ARC
  5
85D7
  8
0
 10
3840.1740082045271265
 20
136.6060364492095118
 30
0.0
 40
0.5435263782030825
 50
71.1340484388855856
 51
86.0113319307225197
  0
ARC
  5
85D8
  8
0
 10
3840.0876491804210673
 20
132.4545366604625087
 30
0.0
 40
4.6953516972684071
 50
88.4846645906208948
 51
89.0494736322706331
  0
ARC
  5
85D9
  8
0
 10
3839.7383495605758981
 20
138.9019240758273099
 30
0.0
 40
2.1672348073391081
 50
281.3682101387890953
 51
288.2570538389807098
  0
ARC
  5
85DA
  8
0
 10
3840.1730759995662083
 20
137.4856382695606101
 30
0.0
 40
0.6867459989274018
 50
290.8319687261537183
 51
305.8964623664455758
  0
ARC
  5
85DB
  8
0
 10
3840.5535191938661228
 20
136.9602078242573953
 30
0.0
 40
0.0380442725049344
 50
305.720266139692626
 51
46.977193205417251
  0
ARC
  5
85DC
  8
0
 10
3841.3644528556001205
 20
133.709448931550412
 30
0.0
 40
0.8962664036603714
 50
96.1810057853347757
 51
103.1884262947946951
  0
ARC
  5
85DD
  8
0
 10
3841.681541449229826
 20
136.9647342969668102
 30
0.0
 40
2.4390777133597759
 50
247.8385694217454045
 51
257.6524423907001164
  0
ARC
  5
85DE
  8
0
 10
3839.9977799306298039
 20
132.6070067126426011
 30
0.0
 40
2.2334624336454398
 50
70.0051942803940506
 51
81.3712888603592148
  0
ARC
  5
85DF
  8
0
 10
3841.1193653512559649
 20
134.6499833908654864
 30
0.0
 40
0.216695080898514
 50
19.3806014239147686
 51
89.6539701008711347
  0
ARC
  5
85E0
  8
0
 10
3840.1562718120439968
 20
134.8585586686498914
 30
0.0
 40
0.6667339638082732
 50
68.6073317739765969
 51
89.2034615556875821
  0
ARC
  5
85E1
  8
0
 10
3840.3785727343529288
 20
135.4277980097863008
 30
0.0
 40
0.055631621885696
 50
345.0526832218429263
 51
67.9384344879869531
  0
ARC
  5
85E2
  8
0
 10
3841.2349958315471667
 20
135.1991639405248122
 30
0.0
 40
0.8307847921279304
 50
165.0526832218428979
 51
199.7297066602195912
  0
ARC
  5
85E3
  8
0
 10
3840.4344382035937997
 20
134.9120544388227074
 30
0.0
 40
0.0197
 50
270.0
 51
19.7297066602195983
  0
ARC
  5
85E4
  8
0
 10
3835.1345999858231153
 20
-685.3943122098995673
 30
0.0
 40
820.1643161775973567
 50
89.6388847167129654
 51
89.6485418013744777
  0
ARC
  5
85E5
  8
0
 10
3840.305157818121188
 20
134.973123114722398
 30
0.0
 40
0.2194133108626937
 50
269.6388847167129938
 51
277.2554021487193836
  0
ARC
  5
85E6
  8
0
 10
3840.330035490092996
 20
134.7777158054720985
 30
0.0
 40
0.0224287554498263
 50
277.2554021487193836
 51
303.8605316912286867
  0
ARC
  5
85E7
  8
0
 10
3840.3322502322071159
 20
134.7555488819162974
 30
0.0
 40
0.0108750012868387
 50
19.0089942532221592
 51
86.7431010228407615
  0
LINE
  5
85E8
  8
0
 10
3840.3328680736908609
 20
134.7554666360227031
 30
0.0
 11
3840.3328680736908609
 21
134.8923544388227072
 31
0.0
  0
ARC
  5
85E9
  8
0
 10
3840.3228710277480786
 20
143.6240019883923082
 30
0.0
 40
9.4437133009277137
 50
269.045419425698924
 51
271.407702636929173
  0
ARC
  5
85EA
  8
0
 10
3840.4761656434361612
 20
137.3859180907948883
 30
0.0
 40
3.203746157371381
 50
271.407702636929173
 51
277.4298779338138274
  0
ARC
  5
85EB
  8
0
 10
3840.8563747325888471
 20
134.5217896681062086
 30
0.0
 40
0.3145697478307375
 50
276.2188088056403785
 51
303.7790741110629256
  0
ARC
  5
85EC
  8
0
 10
3840.1655406222162128
 20
136.248715778222703
 30
0.0
 40
0.1764054048996027
 50
143.5766314508175867
 51
36.4233685491823209
  0
ARC
  5
85ED
  8
0
 10
3840.1655406222162128
 20
136.248715778222703
 30
0.0
 40
0.1456627702731642
 50
142.485214125284898
 51
37.5147858747144127
  0
LINE
  5
85EE
  8
0
 10
3839.603759635417191
 20
133.3287607301226956
 30
0.0
 11
3840.7273179364078715
 21
133.3287607301226956
 31
0.0
  0
ARC
  5
85EF
  8
0
 10
3837.2215697611559335
 20
133.3598953404950009
 30
0.0
 40
2.3823933262571231
 50
359.2512014984010875
 51
5.3074204019350786
  0
ARC
  5
85F0
  8
0
 10
3838.5175411581349181
 20
133.480288260331406
 30
0.0
 40
1.0808418224992189
 50
5.3074204019350786
 51
15.9445932937907493
  0
ARC
  5
85F1
  8
0
 10
3843.1095062713020525
 20
133.3600128994814042
 30
0.0
 40
2.3823933262571231
 50
174.6948675418119876
 51
180.7516259991087111
  0
ARC
  5
85F2
  8
0
 10
3841.8135300678081876
 20
133.4803540682956111
 30
0.0
 40
1.0808418224992189
 50
164.0576946499575115
 51
174.6948675418119876
  0
LINE
  5
85F3
  8
0
 10
3839.9316131251739534
 20
135.4793563286432061
 30
0.0
 11
3840.3994681192571079
 21
135.4793563286432061
 31
0.0
  0
LINE
  5
85F4
  8
0
 10
3839.8987592730782126
 20
135.413448902650714
 30
0.0
 11
3840.4323219713528488
 21
135.413448902650714
 31
0.0
  0
LINE
  5
85F5
  8
0
 10
3850.3375147732808728
 20
143.3333286140224914
 30
0.0
 11
3850.3375147732808728
 21
127.9687839148862025
 31
0.0
  0
LINE
  5
85F6
  8
0
 10
3850.9753636987261416
 20
143.3333286140224914
 30
0.0
 11
3850.9753636987261416
 21
128.1249516648896076
 31
0.0
  0
LINE
  5
85F7
  8
0
 10
3839.6930950605387807
 20
132.9199134446226935
 30
0.0
 11
3839.6930950605387807
 21
133.3287607301226956
 31
0.0
  0
LINE
  5
85F8
  8
0
 10
3839.7127800526400279
 20
132.9002284546226917
 30
0.0
 11
3839.6930950605387807
 21
132.9199134446226935
 31
0.0
  0
LINE
  5
85F9
  8
0
 10
3839.7127800526400279
 20
132.9002284546226917
 30
0.0
 11
3840.618301191791943
 21
132.9002284546226917
 31
0.0
  0
LINE
  5
85FA
  8
0
 10
3839.7305360054401717
 20
132.8182512919227065
 30
0.0
 11
3839.7305360054401717
 21
132.9002284546226917
 31
0.0
  0
LINE
  5
85FB
  8
0
 10
3839.7127800999401188
 20
132.8182512919227065
 30
0.0
 11
3840.618301144491852
 21
132.8182512919227065
 31
0.0
  0
LINE
  5
85FC
  8
0
 10
3839.7127800999401188
 20
132.8182512919227065
 30
0.0
 11
3839.7127800999401188
 21
132.4493540598226957
 31
0.0
  0
LINE
  5
85FD
  8
0
 10
3839.7127800999401188
 20
132.4493540598226957
 30
0.0
 11
3840.618301144491852
 21
132.4493540598226957
 31
0.0
  0
LINE
  5
85FE
  8
0
 10
3839.7305360054401717
 20
132.3673768971227105
 30
0.0
 11
3839.7305360054401717
 21
132.4493540598226957
 31
0.0
  0
LINE
  5
85FF
  8
0
 10
3839.7305360054401717
 20
132.3673768971227105
 30
0.0
 11
3840.6005452389908896
 21
132.3673768971227105
 31
0.0
  0
LINE
  5
8600
  8
0
 10
3839.870912911339019
 20
132.3673768971227105
 30
0.0
 11
3839.870912911339019
 21
132.2215481769227097
 31
0.0
  0
LINE
  5
8601
  8
0
 10
3839.8466383676400255
 20
132.2215481769227097
 30
0.0
 11
3840.4844428767919453
 21
132.2215481769227097
 31
0.0
  0
LINE
  5
8602
  8
0
 10
3839.8466383676400255
 20
132.2215481769227097
 30
0.0
 11
3839.8466383676400255
 21
127.7266156081396957
 31
0.0
  0
LINE
  5
8603
  8
0
 10
3839.7137456746399948
 20
132.8182512919227065
 30
0.0
 11
3839.7137456746399948
 21
132.4493540598226957
 31
0.0
  0
LINE
  5
8604
  8
0
 10
3839.7140203064400339
 20
132.8182512919227065
 30
0.0
 11
3839.7140203064400339
 21
132.4493540598226957
 31
0.0
  0
LINE
  5
8605
  8
0
 10
3839.7169123264397967
 20
132.8182512919227065
 30
0.0
 11
3839.7169123264397967
 21
132.4493540598226957
 31
0.0
  0
LINE
  5
8606
  8
0
 10
3839.7174602520390181
 20
132.8182512919227065
 30
0.0
 11
3839.7174602520390181
 21
132.4493540598226957
 31
0.0
  0
LINE
  5
8607
  8
0
 10
3839.72226462774006
 20
132.8182512919227065
 30
0.0
 11
3839.72226462774006
 21
132.4493540598226957
 31
0.0
  0
LINE
  5
8608
  8
0
 10
3839.7230831777401363
 20
132.8182512919227065
 30
0.0
 11
3839.7230831777401363
 21
132.4493540598226957
 31
0.0
  0
LINE
  5
8609
  8
0
 10
3839.7297765026401066
 20
132.8182512919227065
 30
0.0
 11
3839.7297765026401066
 21
132.4493540598226957
 31
0.0
  0
LINE
  5
860A
  8
0
 10
3839.7308616890400117
 20
132.8182512919227065
 30
0.0
 11
3839.7308616890400117
 21
132.4493540598226957
 31
0.0
  0
LINE
  5
860B
  8
0
 10
3839.7394113540399303
 20
132.8182512919227065
 30
0.0
 11
3839.7394113540399303
 21
132.4493540598226957
 31
0.0
  0
LINE
  5
860C
  8
0
 10
3839.7407578900401859
 20
132.8182512919227065
 30
0.0
 11
3839.7407578900401859
 21
132.4493540598226957
 31
0.0
  0
LINE
  5
860D
  8
0
 10
3839.7511222418402212
 20
132.8182512919227065
 30
0.0
 11
3839.7511222418402212
 21
132.4493540598226957
 31
0.0
  0
LINE
  5
860E
  8
0
 10
3839.752723567240082
 20
132.8182512919227065
 30
0.0
 11
3839.752723567240082
 21
132.4493540598226957
 31
0.0
  0
LINE
  5
860F
  8
0
 10
3839.7648521118399003
 20
132.8182512919227065
 30
0.0
 11
3839.7648521118399003
 21
132.4493540598226957
 31
0.0
  0
LINE
  5
8610
  8
0
 10
3839.7667004251397884
 20
132.8182512919227065
 30
0.0
 11
3839.7667004251397884
 21
132.4493540598226957
 31
0.0
  0
LINE
  5
8611
  8
0
 10
3839.7805340735399113
 20
132.8182512919227065
 30
0.0
 11
3839.7805340735399113
 21
132.4493540598226957
 31
0.0
  0
LINE
  5
8612
  8
0
 10
3839.7826203698400604
 20
132.8182512919227065
 30
0.0
 11
3839.7826203698400604
 21
132.4493540598226957
 31
0.0
  0
LINE
  5
8613
  8
0
 10
3839.7980917259401394
 20
132.8182512919227065
 30
0.0
 11
3839.7980917259401394
 21
132.4493540598226957
 31
0.0
  0
LINE
  5
8614
  8
0
 10
3839.8004058411402184
 20
132.8182512919227065
 30
0.0
 11
3839.8004058411402184
 21
132.4493540598226957
 31
0.0
  0
LINE
  5
8615
  8
0
 10
3839.8174395299402022
 20
132.8182512919227065
 30
0.0
 11
3839.8174395299402022
 21
132.4493540598226957
 31
0.0
  0
LINE
  5
8616
  8
0
 10
3839.8199701898402054
 20
132.8182512919227065
 30
0.0
 11
3839.8199701898402054
 21
132.4493540598226957
 31
0.0
  0
LINE
  5
8617
  8
0
 10
3839.8384832250389991
 20
132.8182512919227065
 30
0.0
 11
3839.8384832250389991
 21
132.4493540598226957
 31
0.0
  0
LINE
  5
8618
  8
0
 10
3839.8412181004400736
 20
132.8182512919227065
 30
0.0
 11
3839.8412181004400736
 21
132.4493540598226957
 31
0.0
  0
LINE
  5
8619
  8
0
 10
3839.8611202883398619
 20
132.8182512919227065
 30
0.0
 11
3839.8611202883398619
 21
132.4493540598226957
 31
0.0
  0
LINE
  5
861A
  8
0
 10
3839.8640460553388039
 20
132.8182512919227065
 30
0.0
 11
3839.8640460553388039
 21
132.4493540598226957
 31
0.0
  0
LINE
  5
861B
  8
0
 10
3839.8852404344402203
 20
132.8182512919227065
 30
0.0
 11
3839.8852404344402203
 21
132.4493540598226957
 31
0.0
  0
LINE
  5
861C
  8
0
 10
3839.8883428389399342
 20
132.8182512919227065
 30
0.0
 11
3839.8883428389399342
 21
132.4493540598226957
 31
0.0
  0
LINE
  5
861D
  8
0
 10
3839.9090531576398462
 20
132.8182512919227065
 30
0.0
 11
3839.9090531576398462
 21
132.4493540598226957
 31
0.0
  0
LINE
  5
861E
  8
0
 10
3839.9107261523399757
 20
132.8182512919227065
 30
0.0
 11
3839.9107261523399757
 21
132.4493540598226957
 31
0.0
  0
LINE
  5
861F
  8
0
 10
3839.9139900797399605
 20
132.8182512919227065
 30
0.0
 11
3839.9139900797399605
 21
132.4493540598226957
 31
0.0
  0
LINE
  5
8620
  8
0
 10
3839.9341863504400862
 20
132.8182512919227065
 30
0.0
 11
3839.9341863504400862
 21
132.4493540598226957
 31
0.0
  0
LINE
  5
8621
  8
0
 10
3839.9358570825402239
 20
132.8182512919227065
 30
0.0
 11
3839.9358570825402239
 21
132.4493540598226957
 31
0.0
  0
LINE
  5
8622
  8
0
 10
3839.9374532782399001
 20
132.8182512919227065
 30
0.0
 11
3839.9374532782399001
 21
132.4493540598226957
 31
0.0
  0
LINE
  5
8623
  8
0
 10
3839.9408628270398367
 20
132.8182512919227065
 30
0.0
 11
3839.9408628270398367
 21
132.4493540598226957
 31
0.0
  0
LINE
  5
8624
  8
0
 10
3839.9606427313019594
 20
132.8182512919227065
 30
0.0
 11
3839.9606427313019594
 21
132.4493540598226957
 31
0.0
  0
LINE
  5
8625
  8
0
 10
3839.962445337556801
 20
132.8182512919227065
 30
0.0
 11
3839.962445337556801
 21
132.4493540598226957
 31
0.0
  0
LINE
  5
8626
  8
0
 10
3839.9652916002451093
 20
132.8182512919227065
 30
0.0
 11
3839.9652916002451093
 21
132.4493540598226957
 31
0.0
  0
LINE
  5
8627
  8
0
 10
3839.9689996780771253
 20
132.8182512919227065
 30
0.0
 11
3839.9689996780771253
 21
132.4493540598226957
 31
0.0
  0
LINE
  5
8628
  8
0
 10
3839.988189174010131
 20
132.8182512919227065
 30
0.0
 11
3839.988189174010131
 21
132.4493540598226957
 31
0.0
  0
LINE
  5
8629
  8
0
 10
3839.989505903240115
 20
132.8182512919227065
 30
0.0
 11
3839.989505903240115
 21
132.4493540598226957
 31
0.0
  0
LINE
  5
862A
  8
0
 10
3839.9941054929390702
 20
132.8182512919227065
 30
0.0
 11
3839.9941054929390702
 21
132.4493540598226957
 31
0.0
  0
LINE
  5
862B
  8
0
 10
3839.9977558230398245
 20
132.8182512919227065
 30
0.0
 11
3839.9977558230398245
 21
132.4493540598226957
 31
0.0
  0
LINE
  5
862C
  8
0
 10
3840.0173031946860647
 20
132.8182512919227065
 30
0.0
 11
3840.0173031946860647
 21
132.4493540598226957
 31
0.0
  0
LINE
  5
862D
  8
0
 10
3840.0186199239151392
 20
132.8182512919227065
 30
0.0
 11
3840.0186199239151392
 21
132.4493540598226957
 31
0.0
  0
LINE
  5
862E
  8
0
 10
3840.0232195136159135
 20
132.8182512919227065
 30
0.0
 11
3840.0232195136159135
 21
132.4493540598226957
 31
0.0
  0
LINE
  5
862F
  8
0
 10
3840.0268698437148487
 20
132.8182512919227065
 30
0.0
 11
3840.0268698437148487
 21
132.4493540598226957
 31
0.0
  0
LINE
  5
8630
  8
0
 10
3840.0446871764402204
 20
132.8182512919227065
 30
0.0
 11
3840.0446871764402204
 21
132.4493540598226957
 31
0.0
  0
LINE
  5
8631
  8
0
 10
3840.0465809496390648
 20
132.8182512919227065
 30
0.0
 11
3840.0465809496390648
 21
132.4493540598226957
 31
0.0
  0
LINE
  5
8632
  8
0
 10
3840.0540944075401057
 20
132.8182512919227065
 30
0.0
 11
3840.0540944075401057
 21
132.4493540598226957
 31
0.0
  0
LINE
  5
8633
  8
0
 10
3840.0579144694402203
 20
132.8182512919227065
 30
0.0
 11
3840.0579144694402203
 21
132.4493540598226957
 31
0.0
  0
LINE
  5
8634
  8
0
 10
3840.0754445097318239
 20
132.8182512919227065
 30
0.0
 11
3840.0754445097318239
 21
132.4493540598226957
 31
0.0
  0
LINE
  5
8635
  8
0
 10
3840.0849771695397976
 20
132.8182512919227065
 30
0.0
 11
3840.0849771695397976
 21
132.4493540598226957
 31
0.0
  0
LINE
  5
8636
  8
0
 10
3840.0888543654400564
 20
132.8182512919227065
 30
0.0
 11
3840.0888543654400564
 21
132.4493540598226957
 31
0.0
  0
LINE
  5
8637
  8
0
 10
3840.074131131840204
 20
132.8182512919227065
 30
0.0
 11
3840.074131131840204
 21
132.4493540598226957
 31
0.0
  0
LINE
  5
8638
  8
0
 10
3840.1040204025398452
 20
132.8182512919227065
 30
0.0
 11
3840.1040204025398452
 21
132.4493540598226957
 31
0.0
  0
LINE
  5
8639
  8
0
 10
3840.1059713209401707
 20
132.8182512919227065
 30
0.0
 11
3840.1059713209401707
 21
132.4493540598226957
 31
0.0
  0
LINE
  5
863A
  8
0
 10
3840.11625240614012
 20
132.8182512919227065
 30
0.0
 11
3840.11625240614012
 21
132.4493540598226957
 31
0.0
  0
LINE
  5
863B
  8
0
 10
3840.1201678466400153
 20
132.8182512919227065
 30
0.0
 11
3840.1201678466400153
 21
132.4493540598226957
 31
0.0
  0
LINE
  5
863C
  8
0
 10
3840.13482687820715
 20
132.8182512919227065
 30
0.0
 11
3840.13482687820715
 21
132.4493540598226957
 31
0.0
  0
LINE
  5
863D
  8
0
 10
3840.1361746632392169
 20
132.8182512919227065
 30
0.0
 11
3840.1361746632392169
 21
132.4493540598226957
 31
0.0
  0
LINE
  5
863E
  8
0
 10
3840.147767747439957
 20
132.8182512919227065
 30
0.0
 11
3840.147767747439957
 21
132.4493540598226957
 31
0.0
  0
LINE
  5
863F
  8
0
 10
3840.1517023569399498
 20
132.8182512919227065
 30
0.0
 11
3840.1517023569399498
 21
132.4493540598226957
 31
0.0
  0
LINE
  5
8640
  8
0
 10
3840.1655406222162128
 20
132.8182512919227065
 30
0.0
 11
3840.1655406222162128
 21
132.4493540598226957
 31
0.0
  0
LINE
  5
8641
  8
0
 10
3840.618301191791943
 20
132.9002284546226917
 30
0.0
 11
3840.6379861838909164
 21
132.9199134446226935
 31
0.0
  0
LINE
  5
8642
  8
0
 10
3840.6005452389908896
 20
132.8182512919227065
 30
0.0
 11
3840.6005452389908896
 21
132.9002284546226917
 31
0.0
  0
LINE
  5
8643
  8
0
 10
3840.618301144491852
 20
132.8182512919227065
 30
0.0
 11
3840.618301144491852
 21
132.4493540598226957
 31
0.0
  0
LINE
  5
8644
  8
0
 10
3840.6005452389908896
 20
132.3673768971227105
 30
0.0
 11
3840.6005452389908896
 21
132.4493540598226957
 31
0.0
  0
LINE
  5
8645
  8
0
 10
3840.4601683330911328
 20
132.3673768971227105
 30
0.0
 11
3840.4601683330911328
 21
132.2215481769227097
 31
0.0
  0
LINE
  5
8646
  8
0
 10
3840.6173355697910665
 20
132.8182512919227065
 30
0.0
 11
3840.6173355697910665
 21
132.4493540598226957
 31
0.0
  0
LINE
  5
8647
  8
0
 10
3840.617060937991937
 20
132.8182512919227065
 30
0.0
 11
3840.617060937991937
 21
132.4493540598226957
 31
0.0
  0
LINE
  5
8648
  8
0
 10
3840.6141689179908099
 20
132.8182512919227065
 30
0.0
 11
3840.6141689179908099
 21
132.4493540598226957
 31
0.0
  0
LINE
  5
8649
  8
0
 10
3840.6136209923920433
 20
132.8182512919227065
 30
0.0
 11
3840.6136209923920433
 21
132.4493540598226957
 31
0.0
  0
LINE
  5
864A
  8
0
 10
3840.6088166166919109
 20
132.8182512919227065
 30
0.0
 11
3840.6088166166919109
 21
132.4493540598226957
 31
0.0
  0
LINE
  5
864B
  8
0
 10
3840.6079980666918345
 20
132.8182512919227065
 30
0.0
 11
3840.6079980666918345
 21
132.4493540598226957
 31
0.0
  0
LINE
  5
864C
  8
0
 10
3840.6013047417918642
 20
132.8182512919227065
 30
0.0
 11
3840.6013047417918642
 21
132.4493540598226957
 31
0.0
  0
LINE
  5
864D
  8
0
 10
3840.6002195553910497
 20
132.8182512919227065
 30
0.0
 11
3840.6002195553910497
 21
132.4493540598226957
 31
0.0
  0
LINE
  5
864E
  8
0
 10
3840.5916698903920405
 20
132.8182512919227065
 30
0.0
 11
3840.5916698903920405
 21
132.4493540598226957
 31
0.0
  0
LINE
  5
864F
  8
0
 10
3840.590323354391785
 20
132.8182512919227065
 30
0.0
 11
3840.590323354391785
 21
132.4493540598226957
 31
0.0
  0
LINE
  5
8650
  8
0
 10
3840.5799590025908401
 20
132.8182512919227065
 30
0.0
 11
3840.5799590025908401
 21
132.4493540598226957
 31
0.0
  0
LINE
  5
8651
  8
0
 10
3840.5783576771918888
 20
132.8182512919227065
 30
0.0
 11
3840.5783576771918888
 21
132.4493540598226957
 31
0.0
  0
LINE
  5
8652
  8
0
 10
3840.566229132591161
 20
132.8182512919227065
 30
0.0
 11
3840.566229132591161
 21
132.4493540598226957
 31
0.0
  0
LINE
  5
8653
  8
0
 10
3840.5643808192908182
 20
132.8182512919227065
 30
0.0
 11
3840.5643808192908182
 21
132.4493540598226957
 31
0.0
  0
LINE
  5
8654
  8
0
 10
3840.5505471708920595
 20
132.8182512919227065
 30
0.0
 11
3840.5505471708920595
 21
132.4493540598226957
 31
0.0
  0
LINE
  5
8655
  8
0
 10
3840.5484608745919104
 20
132.8182512919227065
 30
0.0
 11
3840.5484608745919104
 21
132.4493540598226957
 31
0.0
  0
LINE
  5
8656
  8
0
 10
3840.5329895184918314
 20
132.8182512919227065
 30
0.0
 11
3840.5329895184918314
 21
132.4493540598226957
 31
0.0
  0
LINE
  5
8657
  8
0
 10
3840.5306754032922072
 20
132.8182512919227065
 30
0.0
 11
3840.5306754032922072
 21
132.4493540598226957
 31
0.0
  0
LINE
  5
8658
  8
0
 10
3840.5136417144922234
 20
132.8182512919227065
 30
0.0
 11
3840.5136417144922234
 21
132.4493540598226957
 31
0.0
  0
LINE
  5
8659
  8
0
 10
3840.5111110545922202
 20
132.8182512919227065
 30
0.0
 11
3840.5111110545922202
 21
132.4493540598226957
 31
0.0
  0
LINE
  5
865A
  8
0
 10
3840.4925980193911528
 20
132.8182512919227065
 30
0.0
 11
3840.4925980193911528
 21
132.4493540598226957
 31
0.0
  0
LINE
  5
865B
  8
0
 10
3840.4898631439918972
 20
132.8182512919227065
 30
0.0
 11
3840.4898631439918972
 21
132.4493540598226957
 31
0.0
  0
LINE
  5
865C
  8
0
 10
3840.469960956092109
 20
132.8182512919227065
 30
0.0
 11
3840.469960956092109
 21
132.4493540598226957
 31
0.0
  0
LINE
  5
865D
  8
0
 10
3840.4670351890908933
 20
132.8182512919227065
 30
0.0
 11
3840.4670351890908933
 21
132.4493540598226957
 31
0.0
  0
LINE
  5
865E
  8
0
 10
3840.4458408099908411
 20
132.8182512919227065
 30
0.0
 11
3840.4458408099908411
 21
132.4493540598226957
 31
0.0
  0
LINE
  5
865F
  8
0
 10
3840.4427384054911272
 20
132.8182512919227065
 30
0.0
 11
3840.4427384054911272
 21
132.4493540598226957
 31
0.0
  0
LINE
  5
8660
  8
0
 10
3840.4220280867912152
 20
132.8182512919227065
 30
0.0
 11
3840.4220280867912152
 21
132.4493540598226957
 31
0.0
  0
LINE
  5
8661
  8
0
 10
3840.4203550920910857
 20
132.8182512919227065
 30
0.0
 11
3840.4203550920910857
 21
132.4493540598226957
 31
0.0
  0
LINE
  5
8662
  8
0
 10
3840.4170911646920104
 20
132.8182512919227065
 30
0.0
 11
3840.4170911646920104
 21
132.4493540598226957
 31
0.0
  0
LINE
  5
8663
  8
0
 10
3840.3968948939909751
 20
132.8182512919227065
 30
0.0
 11
3840.3968948939909751
 21
132.4493540598226957
 31
0.0
  0
LINE
  5
8664
  8
0
 10
3840.3952241618922017
 20
132.8182512919227065
 30
0.0
 11
3840.3952241618922017
 21
132.4493540598226957
 31
0.0
  0
LINE
  5
8665
  8
0
 10
3840.3936279661920707
 20
132.8182512919227065
 30
0.0
 11
3840.3936279661920707
 21
132.4493540598226957
 31
0.0
  0
LINE
  5
8666
  8
0
 10
3840.3902184173921341
 20
132.8182512919227065
 30
0.0
 11
3840.3902184173921341
 21
132.4493540598226957
 31
0.0
  0
LINE
  5
8667
  8
0
 10
3840.3704385131291019
 20
132.8182512919227065
 30
0.0
 11
3840.3704385131291019
 21
132.4493540598226957
 31
0.0
  0
LINE
  5
8668
  8
0
 10
3840.3686359068751699
 20
132.8182512919227065
 30
0.0
 11
3840.3686359068751699
 21
132.4493540598226957
 31
0.0
  0
LINE
  5
8669
  8
0
 10
3840.3657896441859521
 20
132.8182512919227065
 30
0.0
 11
3840.3657896441859521
 21
132.4493540598226957
 31
0.0
  0
LINE
  5
866A
  8
0
 10
3840.3620815663539361
 20
132.8182512919227065
 30
0.0
 11
3840.3620815663539361
 21
132.4493540598226957
 31
0.0
  0
LINE
  5
866B
  8
0
 10
3840.3428920704209304
 20
132.8182512919227065
 30
0.0
 11
3840.3428920704209304
 21
132.4493540598226957
 31
0.0
  0
LINE
  5
866C
  8
0
 10
3840.3415753411918558
 20
132.8182512919227065
 30
0.0
 11
3840.3415753411918558
 21
132.4493540598226957
 31
0.0
  0
LINE
  5
866D
  8
0
 10
3840.3369757514910816
 20
132.8182512919227065
 30
0.0
 11
3840.3369757514910816
 21
132.4493540598226957
 31
0.0
  0
LINE
  5
866E
  8
0
 10
3840.3333254213907821
 20
132.8182512919227065
 30
0.0
 11
3840.3333254213907821
 21
132.4493540598226957
 31
0.0
  0
LINE
  5
866F
  8
0
 10
3840.3137780497449967
 20
132.8182512919227065
 30
0.0
 11
3840.3137780497449967
 21
132.4493540598226957
 31
0.0
  0
LINE
  5
8670
  8
0
 10
3840.3124613205159221
 20
132.8182512919227065
 30
0.0
 11
3840.3124613205159221
 21
132.4493540598226957
 31
0.0
  0
LINE
  5
8671
  8
0
 10
3840.3078617308160574
 20
132.8182512919227065
 30
0.0
 11
3840.3078617308160574
 21
132.4493540598226957
 31
0.0
  0
LINE
  5
8672
  8
0
 10
3840.3042114007162127
 20
132.8182512919227065
 30
0.0
 11
3840.3042114007162127
 21
132.4493540598226957
 31
0.0
  0
LINE
  5
8673
  8
0
 10
3840.286394067990841
 20
132.8182512919227065
 30
0.0
 11
3840.286394067990841
 21
132.4493540598226957
 31
0.0
  0
LINE
  5
8674
  8
0
 10
3840.2845002947910871
 20
132.8182512919227065
 30
0.0
 11
3840.2845002947910871
 21
132.4493540598226957
 31
0.0
  0
LINE
  5
8675
  8
0
 10
3840.2769868368918651
 20
132.8182512919227065
 30
0.0
 11
3840.2769868368918651
 21
132.4493540598226957
 31
0.0
  0
LINE
  5
8676
  8
0
 10
3840.2731667749908411
 20
132.8182512919227065
 30
0.0
 11
3840.2731667749908411
 21
132.4493540598226957
 31
0.0
  0
LINE
  5
8677
  8
0
 10
3840.2556367346987827
 20
132.8182512919227065
 30
0.0
 11
3840.2556367346987827
 21
132.4493540598226957
 31
0.0
  0
LINE
  5
8678
  8
0
 10
3840.246104074890809
 20
132.8182512919227065
 30
0.0
 11
3840.246104074890809
 21
132.4493540598226957
 31
0.0
  0
LINE
  5
8679
  8
0
 10
3840.2422268789910049
 20
132.8182512919227065
 30
0.0
 11
3840.2422268789910049
 21
132.4493540598226957
 31
0.0
  0
LINE
  5
867A
  8
0
 10
3840.2569501125922216
 20
132.8182512919227065
 30
0.0
 11
3840.2569501125922216
 21
132.4493540598226957
 31
0.0
  0
LINE
  5
867B
  8
0
 10
3840.2270608418912161
 20
132.8182512919227065
 30
0.0
 11
3840.2270608418912161
 21
132.4493540598226957
 31
0.0
  0
LINE
  5
867C
  8
0
 10
3840.2251099234918001
 20
132.8182512919227065
 30
0.0
 11
3840.2251099234918001
 21
132.4493540598226957
 31
0.0
  0
LINE
  5
867D
  8
0
 10
3840.2148288382918508
 20
132.8182512919227065
 30
0.0
 11
3840.2148288382918508
 21
132.4493540598226957
 31
0.0
  0
LINE
  5
867E
  8
0
 10
3840.210913397791046
 20
132.8182512919227065
 30
0.0
 11
3840.210913397791046
 21
132.4493540598226957
 31
0.0
  0
LINE
  5
867F
  8
0
 10
3840.1962543662248208
 20
132.8182512919227065
 30
0.0
 11
3840.1962543662248208
 21
132.4493540598226957
 31
0.0
  0
LINE
  5
8680
  8
0
 10
3840.194906581190935
 20
132.8182512919227065
 30
0.0
 11
3840.194906581190935
 21
132.4493540598226957
 31
0.0
  0
LINE
  5
8681
  8
0
 10
3840.1833134969911043
 20
132.8182512919227065
 30
0.0
 11
3840.1833134969911043
 21
132.4493540598226957
 31
0.0
  0
LINE
  5
8682
  8
0
 10
3840.1793788874911115
 20
132.8182512919227065
 30
0.0
 11
3840.1793788874911115
 21
132.4493540598226957
 31
0.0
  0
LINE
  5
8683
  8
0
 10
3840.4844428767919453
 20
132.2215481769227097
 30
0.0
 11
3840.4844428767919453
 21
127.8510938621915045
 31
0.0
  0
LINE
  5
8684
  8
0
 10
3840.6379861838909164
 20
132.9199134446226935
 30
0.0
 11
3840.6379861838909164
 21
133.3287607301226956
 31
0.0
  0
LINE
  5
8685
  8
0
 10
3839.6930950605387807
 20
132.9199134446226935
 30
0.0
 11
3840.6379861838909164
 21
132.9199134446226935
 31
0.0
  0
ARC
  5
8686
  8
0
 10
3841.9366730447741247
 20
127.8458680313125058
 30
0.0
 40
1.45223957049379
 50
179.7938227919881058
 51
223.9984380194134985
  0
ARC
  5
8687
  8
0
 10
3843.0700631204322235
 20
128.9403103940668132
 30
0.0
 40
3.0277957100810191
 50
223.9984380194134985
 51
250.4810440045293092
  0
ARC
  5
8688
  8
0
 10
3845.1953119560080268
 20
134.9355236540490068
 30
0.0
 40
9.3885554638982285
 50
250.4810440045293092
 51
288.8284110766281856
  0
ARC
  5
8689
  8
0
 10
3846.5534630181077773
 20
130.9524563164804078
 30
0.0
 40
5.1803017021710103
 50
288.8284110766281856
 51
306.963575889643721
  0
ARC
  5
868A
  8
0
 10
3848.6394317366180076
 20
128.180617831082003
 30
0.0
 40
1.71124504599793
 50
306.963575889643721
 51
352.8891522039148754
  0
ARC
  5
868B
  8
0
 10
3848.8546340182710992
 20
128.1067675446834073
 30
0.0
 40
2.1208076385641621
 50
322.8366917199837189
 51
0.4912685569316817
  0
ARC
  5
868C
  8
0
 10
3847.7053288421229809
 20
128.977978168382009
 30
0.0
 40
3.562997063974819
 50
288.5228393471513186
 51
322.8366917199837189
  0
ARC
  5
868D
  8
0
 10
3845.0974289579380638
 20
136.7618564080109138
 30
0.0
 40
11.7721323567628193
 50
256.0995248403045821
 51
288.5228393471513186
  0
ARC
  5
868E
  8
0
 10
3843.1649909584398301
 20
128.9535144366784891
 30
0.0
 40
3.7282203132868461
 50
218.6273746902027142
 51
256.0995248403045821
  0
ARC
  5
868F
  8
0
 10
3841.7048930845671748
 20
127.7867910189595051
 30
0.0
 40
1.8592287844827811
 50
181.8547471600057008
 51
218.6273746902027142
  0
ARC
  5
8690
  8
0
 10
3840.1644579825619985
 20
135.0266825808982105
 30
0.0
 40
1.476232981520831
 50
268.0550181102681222
 51
270.0415165666099142
  0
ARC
  5
8691
  8
0
 10
3840.1413109875998089
 20
134.8011340137227023
 30
0.0
 40
1.249986718713326
 50
261.8728902738787951
 51
267.500551395984985
  0
ARC
  5
8692
  8
0
 10
3840.0504751573380418
 20
134.1650458918435049
 30
0.0
 40
0.6074454773480183
 50
254.0172916479004925
 51
261.8728902738787951
  0
ARC
  5
8693
  8
0
 10
3839.9269098985078017
 20
133.7336312730271004
 30
0.0
 40
0.1586839075605103
 50
238.1515416675302106
 51
254.0172916479004925
  0
ARC
  5
8694
  8
0
 10
3839.9591409253939673
 20
133.7409744619116054
 30
0.0
 40
0.1834410040904565
 50
223.8860857874566932
 51
230.7901753290055069
  0
ARC
  5
8695
  8
0
 10
3839.8673146628098038
 20
133.6527730452822027
 30
0.0
 40
0.0561165087628877
 50
180.9141719792538936
 51
223.9758829815193053
  0
ARC
  5
8696
  8
0
 10
3839.8320707676298298
 20
133.707408239258001
 30
0.0
 40
0.0209421286896199
 50
130.2984825981727113
 51
175.0391570369855003
  0
ARC
  5
8697
  8
0
 10
3839.8844028850808172
 20
133.645697011369009
 30
0.0
 40
0.1018552065226188
 50
104.541398847356902
 51
130.2984825981727113
  0
ARC
  5
8698
  8
0
 10
3840.0370932118171368
 20
133.1690718391897121
 30
0.0
 40
0.6022070790405281
 50
94.9272891843999957
 51
107.2185854540382053
  0
ARC
  5
8699
  8
0
 10
3840.1036003578187774
 20
134.0148268515322911
 30
0.0
 40
0.4281085535619859
 50
224.103453263588591
 51
226.9223312883189863
  0
ARC
  5
869A
  8
0
 10
3839.8083331770390032
 20
133.728658537190995
 30
0.0
 40
0.0169212335014852
 50
135.896546736411409
 51
224.103453263588591
  0
ARC
  5
869B
  8
0
 10
3839.9068570173358239
 20
133.5942186017001063
 30
0.0
 40
0.1833797133040367
 50
98.5209905578931711
 51
127.1229614244056023
  0
ARC
  5
869C
  8
0
 10
3839.8865234785498615
 20
133.9992155368279043
 30
0.0
 40
0.3349249569805571
 50
243.792242131985887
 51
257.0042480568047836
  0
ARC
  5
869D
  8
0
 10
3839.7665241823938231
 20
133.7554280964733948
 30
0.0
 40
0.0632042416267336
 50
226.0355383118564134
 51
243.792242131985887
  0
ARC
  5
869E
  8
0
 10
3845.9607901846848108
 20
140.2233396422479927
 30
0.0
 40
9.0188060667444301
 50
226.14675875483141
 51
226.2366218191943119
  0
ARC
  5
869F
  8
0
 10
3839.7843335836200822
 20
133.8028275103698945
 30
0.0
 40
0.1098837411002605
 50
216.5103743825090987
 51
229.1350586987061888
  0
ARC
  5
86A0
  8
0
 10
3839.7128470908442068
 20
133.7477474766637897
 30
0.0
 40
0.0197323766419836
 50
164.1073655209710864
 51
211.4563304146396945
  0
ARC
  5
86A1
  8
0
 10
3840.1198161963311577
 20
134.5306089759056078
 30
0.0
 40
0.9743726570861285
 50
260.4458558142907236
 51
265.8546257205525194
  0
ARC
  5
86A2
  8
0
 10
3840.037826347795999
 20
134.0434852600303088
 30
0.0
 40
0.4803971011815421
 50
252.2356125178995114
 51
260.4458558142907236
  0
ARC
  5
86A3
  8
0
 10
3839.9265250352159455
 20
133.6960805335882014
 30
0.0
 40
0.115598490800279
 50
234.474279081615407
 51
252.2356125178995114
  0
ARC
  5
86A4
  8
0
 10
3839.8728173044228242
 20
133.6208565248199989
 30
0.0
 40
0.0231692105795522
 50
206.7616316518152928
 51
234.474279081615407
  0
ARC
  5
86A5
  8
0
 10
3839.8644420744390118
 20
133.6166329289403052
 30
0.0
 40
0.0137892724436708
 50
144.1750807095378093
 51
206.7616316518152928
  0
ARC
  5
86A6
  8
0
 10
3839.9309583332142211
 20
133.5383716319487064
 30
0.0
 40
0.1161466659119594
 50
102.8778103916487936
 51
131.9863539326559874
  0
ARC
  5
86A7
  8
0
 10
3840.0977833653118978
 20
132.9011744537515085
 30
0.0
 40
0.774771835444621
 50
93.7162378394273361
 51
104.4025211273836931
  0
ARC
  5
86A8
  8
0
 10
3840.1632793209851116
 20
132.194701446765805
 30
0.0
 40
1.4841334694132899
 50
90.416748376563703
 51
94.4716970551516795
  0
ARC
  5
86A9
  8
0
 10
3840.1655441616389908
 20
132.0934742859303128
 30
0.0
 40
1.5853751628147541
 50
90.0001625017750655
 51
90.4719886191873996
  0
LINE
  5
86AA
  8
0
 10
3839.8112052967398995
 20
133.6518777269226916
 30
0.0
 11
3839.8112070875399695
 21
133.7092192078227129
 31
0.0
  0
LINE
  5
86AB
  8
0
 10
3840.114354903039839
 20
133.5492762768226953
 30
0.0
 11
3840.114354903039839
 21
133.6726063754699965
 31
0.0
  0
ARC
  5
86AC
  8
0
 10
3840.1609239424310545
 20
134.0941982186571124
 30
0.0
 40
0.5469082172744973
 50
257.0796614856021733
 51
265.1153700274770131
  0
ARC
  5
86AD
  8
0
 10
3840.1661597307379452
 20
134.1419121806972896
 30
0.0
 40
0.5946108998314188
 50
239.1632560562217975
 51
257.6159453429044106
  0
LINE
  5
86AE
  8
0
 10
3840.0649717123401388
 20
133.55718839332269
 30
0.0
 11
3840.0820194564571466
 21
133.5553328311239909
 31
0.0
  0
LINE
  5
86AF
  8
0
 10
3840.0820194564571466
 20
133.5553328311239909
 30
0.0
 11
3840.0828588400399894
 21
133.5551717668226956
 31
0.0
  0
LINE
  5
86B0
  8
0
 10
3840.0828588400399894
 20
133.5551717668226956
 30
0.0
 11
3840.0828588400399894
 21
133.5530168148227119
 31
0.0
  0
LINE
  5
86B1
  8
0
 10
3840.0828588400399894
 20
133.5530168148227119
 30
0.0
 11
3840.0820194564398662
 21
133.5531248105226894
 31
0.0
  0
LINE
  5
86B2
  8
0
 10
3840.0820194564398662
 20
133.5531248105226894
 30
0.0
 11
3840.0650030000401784
 21
133.5560902382923132
 31
0.0
  0
LINE
  5
86B3
  8
0
 10
3840.0650030000401784
 20
133.5560902382923132
 30
0.0
 11
3840.0649717168280404
 21
133.5571883928342061
 31
0.0
  0
LINE
  5
86B4
  8
0
 10
3840.0371328629198615
 20
133.5652842504863997
 30
0.0
 11
3840.0541806068508777
 21
133.5630715107459991
 31
0.0
  0
LINE
  5
86B5
  8
0
 10
3840.0541806068508777
 20
133.5630715107459991
 30
0.0
 11
3840.0712283509560621
 21
133.5588438222881962
 31
0.0
  0
LINE
  5
86B6
  8
0
 10
3840.0712283509560621
 20
133.5588438222881962
 30
0.0
 11
3840.071228351002901
 21
133.5568046215475135
 31
0.0
  0
LINE
  5
86B7
  8
0
 10
3840.071228351002901
 20
133.5568046215475135
 30
0.0
 11
3840.0541806068399637
 21
133.5590141854227113
 31
0.0
  0
LINE
  5
86B8
  8
0
 10
3840.0541806068399637
 20
133.5590141854227113
 30
0.0
 11
3840.0371328626661125
 21
133.5632662926001899
 31
0.0
  0
LINE
  5
86B9
  8
0
 10
3840.0371328626661125
 20
133.5632662926001899
 30
0.0
 11
3840.0371328629198615
 21
133.5652842504863997
 31
0.0
  0
LINE
  5
86BA
  8
0
 10
3840.0712283474258584
 20
133.5642704448816005
 30
0.0
 11
3840.0541806068399637
 21
133.5655265225209973
 31
0.0
  0
LINE
  5
86BB
  8
0
 10
3840.0541806068399637
 20
133.5655265225209973
 30
0.0
 11
3840.0371328626401919
 21
133.5706916346726132
 31
0.0
  0
LINE
  5
86BC
  8
0
 10
3840.0371328626401919
 20
133.5706916346726132
 30
0.0
 11
3840.0371328626401919
 21
133.5745825272227023
 31
0.0
  0
LINE
  5
86BD
  8
0
 10
3840.0371328626401919
 20
133.5745825272227023
 30
0.0
 11
3840.0541806068399637
 21
133.5733083074991043
 31
0.0
  0
LINE
  5
86BE
  8
0
 10
3840.0541806068399637
 20
133.5733083074991043
 30
0.0
 11
3840.0712283509287772
 21
133.5681613371862113
 31
0.0
  0
LINE
  5
86BF
  8
0
 10
3840.0712283509287772
 20
133.5681613371862113
 30
0.0
 11
3840.0712283474258584
 21
133.5642704448816005
 31
0.0
  0
LINE
  5
86C0
  8
0
 10
3840.0712265031497736
 20
133.5769631417043968
 30
0.0
 11
3840.0541806068399637
 21
133.5769631417043968
 31
0.0
  0
LINE
  5
86C1
  8
0
 10
3840.0541806068399637
 20
133.5769631417043968
 30
0.0
 11
3840.0371328626401919
 21
133.5834035699226945
 31
0.0
  0
LINE
  5
86C2
  8
0
 10
3840.0371328626401919
 20
133.5834035699226945
 30
0.0
 11
3840.037244225205086
 21
133.5891628546220886
 31
0.0
  0
LINE
  5
86C3
  8
0
 10
3840.037244225205086
 20
133.5891628546220886
 30
0.0
 11
3840.0541806068399637
 21
133.588806182275988
 31
0.0
  0
LINE
  5
86C4
  8
0
 10
3840.0541806068399637
 20
133.588806182275988
 30
0.0
 11
3840.0712283509401459
 21
133.5827057260227093
 31
0.0
  0
LINE
  5
86C5
  8
0
 10
3840.0712283509401459
 20
133.5827057260227093
 30
0.0
 11
3840.0712265031497736
 21
133.5769631417043968
 31
0.0
  0
LINE
  5
86C6
  8
0
 10
3840.0712283509560621
 20
133.5949297350684901
 30
0.0
 11
3840.0541806067672042
 21
133.5943560318063135
 31
0.0
  0
LINE
  5
86C7
  8
0
 10
3840.0541806067672042
 20
133.5943560318063135
 30
0.0
 11
3840.0371328626811191
 21
133.6014507640381055
 31
0.0
  0
LINE
  5
86C8
  8
0
 10
3840.0371328626811191
 20
133.6014507640381055
 30
0.0
 11
3840.0371328626401919
 21
133.6091416243226888
 31
0.0
  0
LINE
  5
86C9
  8
0
 10
3840.0371328626401919
 20
133.6091416243226888
 30
0.0
 11
3840.0541806068399637
 21
133.6096931607227134
 31
0.0
  0
LINE
  5
86CA
  8
0
 10
3840.0541806068399637
 20
133.6096931607227134
 30
0.0
 11
3840.0712283509401459
 21
133.6025762637227103
 31
0.0
  0
LINE
  5
86CB
  8
0
 10
3840.0712283509401459
 20
133.6025762637227103
 30
0.0
 11
3840.0712283509560621
 21
133.5949297350684901
 31
0.0
  0
LINE
  5
86CC
  8
0
 10
3840.0712283509951703
 20
133.6183703363275868
 30
0.0
 11
3840.0712283510019915
 21
133.6280330301486003
 31
0.0
  0
LINE
  5
86CD
  8
0
 10
3840.0712283510019915
 20
133.6280330301486003
 30
0.0
 11
3840.0541806068399637
 21
133.6362659830118105
 31
0.0
  0
LINE
  5
86CE
  8
0
 10
3840.0541806068399637
 20
133.6362659830118105
 30
0.0
 11
3840.0371328626401919
 21
133.6347747876793903
 31
0.0
  0
LINE
  5
86CF
  8
0
 10
3840.0371328626401919
 20
133.6347747876793903
 30
0.0
 11
3840.0371328626401919
 21
133.6250405116757065
 31
0.0
  0
LINE
  5
86D0
  8
0
 10
3840.0371328626401919
 20
133.6250405116757065
 30
0.0
 11
3840.0541806068399637
 21
133.6168691785078977
 31
0.0
  0
LINE
  5
86D1
  8
0
 10
3840.0541806068399637
 20
133.6168691785078977
 30
0.0
 11
3840.0712283509951703
 21
133.6183703363275868
 31
0.0
  0
LINE
  5
86D2
  8
0
 10
3840.0712283510338239
 20
133.6476686634482007
 30
0.0
 11
3840.0712283509710687
 21
133.6595379884678891
 31
0.0
  0
LINE
  5
86D3
  8
0
 10
3840.0712283509710687
 20
133.6595379884678891
 30
0.0
 11
3840.0541806068399637
 21
133.6690385427694991
 31
0.0
  0
LINE
  5
86D4
  8
0
 10
3840.0541806068399637
 20
133.6690385427694991
 30
0.0
 11
3840.0371328626551986
 21
133.6665469855630874
 31
0.0
  0
LINE
  5
86D5
  8
0
 10
3840.0371328626551986
 20
133.6665469855630874
 30
0.0
 11
3840.0371328626401919
 21
133.6545711561226994
 31
0.0
  0
LINE
  5
86D6
  8
0
 10
3840.0371328626401919
 20
133.6545711561226994
 30
0.0
 11
3840.0541806068399637
 21
133.6451930351996111
 31
0.0
  0
LINE
  5
86D7
  8
0
 10
3840.0541806068399637
 20
133.6451930351996111
 30
0.0
 11
3840.0712283510338239
 21
133.6476686634482007
 31
0.0
  0
LINE
  5
86D8
  8
0
 10
3840.0541806068399637
 20
133.5590141854227113
 30
0.0
 11
3840.0541806068508777
 21
133.5630715107459991
 31
0.0
  0
LINE
  5
86D9
  8
0
 10
3840.0541806068399637
 20
133.5655265225209973
 30
0.0
 11
3840.0541806068399637
 21
133.5733083074991043
 31
0.0
  0
LINE
  5
86DA
  8
0
 10
3840.0541806068399637
 20
133.5769631417043968
 30
0.0
 11
3840.0541806068399637
 21
133.588806182275988
 31
0.0
  0
LINE
  5
86DB
  8
0
 10
3840.0541806067672042
 20
133.5943560318063135
 30
0.0
 11
3840.0536849317868473
 21
133.6096771244172032
 31
0.0
  0
LINE
  5
86DC
  8
0
 10
3840.0541806068399637
 20
133.6168691785078977
 30
0.0
 11
3840.0541806068399637
 21
133.6362659830118105
 31
0.0
  0
LINE
  5
86DD
  8
0
 10
3840.0541806068399637
 20
133.6451930351996111
 30
0.0
 11
3840.0541806068399637
 21
133.6690385427694991
 31
0.0
  0
LINE
  5
86DE
  8
0
 10
3840.0433895013397887
 20
133.5649811149226878
 30
0.0
 11
3840.0433895013411529
 21
133.5679410312984032
 31
0.0
  0
LINE
  5
86DF
  8
0
 10
3840.0433895013411529
 20
133.5679410312984032
 30
0.0
 11
3840.0263417571400169
 21
133.5734605849490038
 31
0.0
  0
LINE
  5
86E0
  8
0
 10
3840.0263417571400169
 20
133.5734605849490038
 30
0.0
 11
3840.0092940130398347
 21
133.576055040530207
 31
0.0
  0
LINE
  5
86E1
  8
0
 10
3840.0092940130398347
 20
133.576055040530207
 30
0.0
 11
3840.0092940130180068
 21
133.5731086846589051
 31
0.0
  0
LINE
  5
86E2
  8
0
 10
3840.0092940130180068
 20
133.5731086846589051
 30
0.0
 11
3840.0263417571400169
 21
133.5677476121439895
 31
0.0
  0
LINE
  5
86E3
  8
0
 10
3840.0263417571400169
 20
133.5677476121439895
 30
0.0
 11
3840.0433895013397887
 21
133.5649811149226878
 31
0.0
  0
LINE
  5
86E4
  8
0
 10
3840.0433895013397887
 20
133.5649811149226878
 30
0.0
 11
3840.0433895013397887
 21
133.5679410312986022
 31
0.0
  0
LINE
  5
86E5
  8
0
 10
3840.0433895013397887
 20
133.5750552448093913
 30
0.0
 11
3840.0433895013397887
 21
133.579877113410987
 31
0.0
  0
LINE
  5
86E6
  8
0
 10
3840.0433895013397887
 20
133.579877113410987
 30
0.0
 11
3840.0263417571400169
 21
133.5863410584854023
 31
0.0
  0
LINE
  5
86E7
  8
0
 10
3840.0263417571400169
 20
133.5863410584854023
 30
0.0
 11
3840.0092940130421084
 21
133.5880046831302082
 31
0.0
  0
LINE
  5
86E8
  8
0
 10
3840.0092940130421084
 20
133.5880046831302082
 30
0.0
 11
3840.0092940129711678
 21
133.5831692539381947
 31
0.0
  0
LINE
  5
86E9
  8
0
 10
3840.0092940129711678
 20
133.5831692539381947
 30
0.0
 11
3840.0263417571400169
 21
133.5766839058227049
 31
0.0
  0
LINE
  5
86EA
  8
0
 10
3840.0263417571400169
 20
133.5766839058227049
 30
0.0
 11
3840.0433895013397887
 21
133.5750552448093913
 31
0.0
  0
LINE
  5
86EB
  8
0
 10
3840.0433895013397887
 20
133.5904089077226899
 30
0.0
 11
3840.0433895013470647
 21
133.5971191089255115
 31
0.0
  0
LINE
  5
86EC
  8
0
 10
3840.0433895013470647
 20
133.5971191089255115
 30
0.0
 11
3840.0263417571231912
 21
133.6045846069822005
 31
0.0
  0
LINE
  5
86ED
  8
0
 10
3840.0263417571231912
 20
133.6045846069822005
 30
0.0
 11
3840.0092940130398347
 21
133.6051146943379138
 31
0.0
  0
LINE
  5
86EE
  8
0
 10
3840.0092940130398347
 20
133.6051146943379138
 30
0.0
 11
3840.0092940130398347
 21
133.5985866513877056
 31
0.0
  0
LINE
  5
86EF
  8
0
 10
3840.0092940130398347
 20
133.5985866513877056
 30
0.0
 11
3840.0263417571450191
 21
133.5911227489060877
 31
0.0
  0
LINE
  5
86F0
  8
0
 10
3840.0263417571450191
 20
133.5911227489060877
 30
0.0
 11
3840.0433895013397887
 21
133.5904089077226899
 31
0.0
  0
LINE
  5
86F1
  8
0
 10
3840.0433895013429719
 20
133.6111668620198998
 30
0.0
 11
3840.0433895013397887
 21
133.6198484103227031
 31
0.0
  0
LINE
  5
86F2
  8
0
 10
3840.0433895013397887
 20
133.6198484103227031
 30
0.0
 11
3840.0263417572068647
 21
133.6284066154838115
 31
0.0
  0
LINE
  5
86F3
  8
0
 10
3840.0263417572068647
 20
133.6284066154838115
 30
0.0
 11
3840.0092940130398347
 21
133.6282468388056941
 31
0.0
  0
LINE
  5
86F4
  8
0
 10
3840.0092940130398347
 20
133.6282468388056941
 30
0.0
 11
3840.0092940130398347
 21
133.6194912824929872
 31
0.0
  0
LINE
  5
86F5
  8
0
 10
3840.0092940130398347
 20
133.6194912824929872
 30
0.0
 11
3840.0263417571400169
 21
133.6112252957339024
 31
0.0
  0
LINE
  5
86F6
  8
0
 10
3840.0263417571400169
 20
133.6112252957339024
 30
0.0
 11
3840.0433895013429719
 21
133.6112252957395867
 31
0.0
  0
LINE
  5
86F7
  8
0
 10
3840.0433895013179608
 20
133.6376237250333929
 30
0.0
 11
3840.0433895013120491
 21
133.648429296388997
 31
0.0
  0
LINE
  5
86F8
  8
0
 10
3840.0433895013120491
 20
133.648429296388997
 30
0.0
 11
3840.0263417571982245
 21
133.6582179942224116
 31
0.0
  0
LINE
  5
86F9
  8
0
 10
3840.0263417571982245
 20
133.6582179942224116
 30
0.0
 11
3840.0097868962629946
 21
133.6582179942224116
 31
0.0
  0
LINE
  5
86FA
  8
0
 10
3840.0097868962629946
 20
133.6582179942224116
 30
0.0
 11
3840.0096092512108044
 21
133.6460049443728906
 31
0.0
  0
LINE
  5
86FB
  8
0
 10
3840.0096092512108044
 20
133.6460049443728906
 30
0.0
 11
3840.0263417571400169
 21
133.636493623322707
 31
0.0
  0
LINE
  5
86FC
  8
0
 10
3840.0263417571400169
 20
133.636493623322707
 30
0.0
 11
3840.0433895013397887
 21
133.6376237250352119
 31
0.0
  0
LINE
  5
86FD
  8
0
 10
3840.0155506516398418
 20
133.5684322274227043
 30
0.0
 11
3840.0155506516680362
 21
133.5704328491829074
 31
0.0
  0
LINE
  5
86FE
  8
0
 10
3840.0155506516680362
 20
133.5704328491829074
 30
0.0
 11
3839.9985029075401144
 21
133.5763516553226964
 31
0.0
  0
LINE
  5
86FF
  8
0
 10
3839.9985029075401144
 20
133.5763516553226964
 30
0.0
 11
3839.9814551633057818
 21
133.5803260351464132
 31
0.0
  0
LINE
  5
8700
  8
0
 10
3839.9814551633057818
 20
133.5803260351464132
 30
0.0
 11
3839.9814551633057818
 21
133.5789577997796869
 31
0.0
  0
LINE
  5
8701
  8
0
 10
3839.9814551633057818
 20
133.5789577997796869
 30
0.0
 11
3839.9985029074728118
 21
133.5723841992127063
 31
0.0
  0
LINE
  5
8702
  8
0
 10
3839.9985029074728118
 20
133.5723841992127063
 30
0.0
 11
3840.0155506516398418
 21
133.5684322257204997
 31
0.0
  0
LINE
  5
8703
  8
0
 10
3840.0155506516398418
 20
133.5758245359751868
 30
0.0
 11
3840.0155506516798596
 21
133.5797154284840076
 31
0.0
  0
LINE
  5
8704
  8
0
 10
3840.0155506516798596
 20
133.5797154284840076
 30
0.0
 11
3839.9985029075401144
 21
133.5865700651226859
 31
0.0
  0
LINE
  5
8705
  8
0
 10
3839.9985029075401144
 20
133.5865700651226859
 30
0.0
 11
3839.9814551633589872
 21
133.5895776280621021
 31
0.0
  0
LINE
  5
8706
  8
0
 10
3839.9814551633589872
 20
133.5895776280621021
 30
0.0
 11
3839.9814551633398878
 21
133.5856867355226996
 31
0.0
  0
LINE
  5
8707
  8
0
 10
3839.9814551633398878
 20
133.5856867355226996
 30
0.0
 11
3839.9985029074928207
 21
133.5787882800483999
 31
0.0
  0
LINE
  5
8708
  8
0
 10
3839.9985029074928207
 20
133.5787882800483999
 30
0.0
 11
3840.0155506517030517
 21
133.5758245359656087
 31
0.0
  0
LINE
  5
8709
  8
0
 10
3840.0155506516630339
 20
133.5885521684743082
 30
0.0
 11
3840.0155506516398418
 21
133.5943333319227122
 31
0.0
  0
LINE
  5
870A
  8
0
 10
3840.0155506516398418
 20
133.5943333319227122
 30
0.0
 11
3839.9985029075401144
 21
133.6021761960950016
 31
0.0
  0
LINE
  5
870B
  8
0
 10
3839.9985029075401144
 20
133.6021761960950016
 30
0.0
 11
3839.9814551633571682
 21
133.6042607490296064
 31
0.0
  0
LINE
  5
870C
  8
0
 10
3839.9814551633571682
 20
133.6042607490296064
 30
0.0
 11
3839.9814551633398878
 21
133.5984453545850954
 31
0.0
  0
LINE
  5
870D
  8
0
 10
3839.9814551633398878
 20
133.5984453545850954
 30
0.0
 11
3839.9985029074541671
 21
133.590580082134295
 31
0.0
  0
LINE
  5
870E
  8
0
 10
3839.9985029074541671
 20
133.590580082134295
 30
0.0
 11
3840.0155506516630339
 21
133.5885521684743082
 31
0.0
  0
LINE
  5
870F
  8
0
 10
3840.0155506516921378
 20
133.6066651600706052
 30
0.0
 11
3840.0155506516980495
 21
133.6143922319421904
 31
0.0
  0
LINE
  5
8710
  8
0
 10
3840.0155506516980495
 20
133.6143922319421904
 30
0.0
 11
3839.9985029074828162
 21
133.6233076972378058
 31
0.0
  0
LINE
  5
8711
  8
0
 10
3839.9985029074828162
 20
133.6233076972378058
 30
0.0
 11
3839.9814551633398878
 21
133.6244869757227036
 31
0.0
  0
LINE
  5
8712
  8
0
 10
3839.9814551633398878
 20
133.6244869757227036
 30
0.0
 11
3839.9814551633398878
 21
133.6166883157081031
 31
0.0
  0
LINE
  5
8713
  8
0
 10
3839.9814551633398878
 20
133.6166883157081031
 30
0.0
 11
3839.9985029075401144
 21
133.6077828110227017
 31
0.0
  0
LINE
  5
8714
  8
0
 10
3839.9985029075401144
 20
133.6077828110227017
 30
0.0
 11
3840.0155506516398418
 21
133.6066651600226862
 31
0.0
  0
LINE
  5
8715
  8
0
 10
3840.0155506516889545
 20
133.6303767988048037
 30
0.0
 11
3840.0155506516398418
 21
133.6401696409276099
 31
0.0
  0
LINE
  5
8716
  8
0
 10
3840.0155506516398418
 20
133.6401696409276099
 30
0.0
 11
3839.9985029074700833
 21
133.6502846681061101
 31
0.0
  0
LINE
  5
8717
  8
0
 10
3839.9985029074700833
 20
133.6502846681061101
 30
0.0
 11
3839.9814551633830888
 21
133.6505499730349982
 31
0.0
  0
LINE
  5
8718
  8
0
 10
3839.9814551633830888
 20
133.6505499730349982
 30
0.0
 11
3839.9814551632821349
 21
133.6406410951047974
 31
0.0
  0
LINE
  5
8719
  8
0
 10
3839.9814551632821349
 20
133.6406410951047974
 30
0.0
 11
3839.9985029075560306
 21
133.6305840778711911
 31
0.0
  0
LINE
  5
871A
  8
0
 10
3839.9985029075560306
 20
133.6305840778711911
 30
0.0
 11
3840.0155506516889545
 21
133.6303767988048037
 31
0.0
  0
LINE
  5
871B
  8
0
 10
3839.9877118020399394
 20
133.5748530326023058
 30
0.0
 11
3839.9877118020222042
 21
133.5757556277636979
 31
0.0
  0
LINE
  5
871C
  8
0
 10
3839.9877118020222042
 20
133.5757556277636979
 30
0.0
 11
3839.9706640578401675
 21
133.5821085394788099
 31
0.0
  0
LINE
  5
871D
  8
0
 10
3839.9706640578401675
 20
133.5821085394788099
 30
0.0
 11
3839.9536163136390314
 21
133.5875487184227097
 31
0.0
  0
LINE
  5
871E
  8
0
 10
3839.9536163136390314
 20
133.5875487184227097
 30
0.0
 11
3839.9536163136390314
 21
133.5868130802010967
 31
0.0
  0
LINE
  5
871F
  8
0
 10
3839.9877118020399394
 20
133.5793624622226901
 30
0.0
 11
3839.9877118020399394
 21
133.5822981121816042
 31
0.0
  0
LINE
  5
8720
  8
0
 10
3839.9877118020399394
 20
133.5822981121816042
 30
0.0
 11
3839.9706640578401675
 21
133.5895779747862093
 31
0.0
  0
LINE
  5
8721
  8
0
 10
3839.9706640578401675
 20
133.5895779747862093
 30
0.0
 11
3839.9536163136699543
 21
133.5939937445045018
 31
0.0
  0
LINE
  5
8722
  8
0
 10
3839.9536163136699543
 20
133.5939937445045018
 30
0.0
 11
3839.9536163136390314
 21
133.591078818622691
 31
0.0
  0
LINE
  5
8723
  8
0
 10
3839.9536163136390314
 20
133.591078818622691
 30
0.0
 11
3839.9706640577560393
 21
133.5837270676560138
 31
0.0
  0
LINE
  5
8724
  8
0
 10
3839.9706640577560393
 20
133.5837270676560138
 30
0.0
 11
3839.9877118020058333
 21
133.5793624622019138
 31
0.0
  0
LINE
  5
8725
  8
0
 10
3839.9877118019958289
 20
133.5894123255984027
 30
0.0
 11
3839.9877118020021953
 21
133.5942584606931121
 31
0.0
  0
LINE
  5
8726
  8
0
 10
3839.9877118020021953
 20
133.5942584606931121
 30
0.0
 11
3839.9706640578401675
 21
133.6023206343191987
 31
0.0
  0
LINE
  5
8727
  8
0
 10
3839.9706640578401675
 20
133.6023206343191987
 30
0.0
 11
3839.9536163136831419
 21
133.6059748171444994
 31
0.0
  0
LINE
  5
8728
  8
0
 10
3839.9536163136831419
 20
133.6059748171444994
 30
0.0
 11
3839.9536163136390314
 21
133.6013446542945076
 31
0.0
  0
LINE
  5
8729
  8
0
 10
3839.9536163136390314
 20
133.6013446542945076
 30
0.0
 11
3839.9706640578979204
 21
133.5928012956723023
 31
0.0
  0
LINE
  5
872A
  8
0
 10
3839.9706640578979204
 20
133.5928012956723023
 30
0.0
 11
3839.9877118019958289
 21
133.5894123255984027
 31
0.0
  0
LINE
  5
872B
  8
0
 10
3839.9877118020222042
 20
133.6048800531291931
 30
0.0
 11
3839.9877118020399394
 21
133.6112898241568985
 31
0.0
  0
LINE
  5
872C
  8
0
 10
3839.9877118020399394
 20
133.6112898241568985
 30
0.0
 11
3839.9706640578579027
 21
133.6209754523852098
 31
0.0
  0
LINE
  5
872D
  8
0
 10
3839.9706640578579027
 20
133.6209754523852098
 30
0.0
 11
3839.9536163136390314
 21
133.6232084425465132
 31
0.0
  0
LINE
  5
872E
  8
0
 10
3839.9536163136390314
 20
133.6232084425465132
 30
0.0
 11
3839.9536163136390314
 21
133.6166731437226929
 31
0.0
  0
LINE
  5
872F
  8
0
 10
3839.9536163136390314
 20
133.6166731437226929
 30
0.0
 11
3839.9706640578128827
 21
133.6073420724133882
 31
0.0
  0
LINE
  5
8730
  8
0
 10
3839.9706640578128827
 20
133.6073420724133882
 30
0.0
 11
3839.9877118020222042
 21
133.6048800531291931
 31
0.0
  0
LINE
  5
8731
  8
0
 10
3839.9877118020399394
 20
133.625900630993101
 30
0.0
 11
3839.9877118020290254
 21
133.6347147534164037
 31
0.0
  0
LINE
  5
8732
  8
0
 10
3839.9877118020290254
 20
133.6347147534164037
 30
0.0
 11
3839.9706640578087899
 21
133.6451983682314903
 31
0.0
  0
LINE
  5
8733
  8
0
 10
3839.9706640578087899
 20
133.6451983682314903
 30
0.0
 11
3839.9536163136390314
 21
133.6468463875966961
 31
0.0
  0
LINE
  5
8734
  8
0
 10
3839.9536163136390314
 20
133.6468463875966961
 30
0.0
 11
3839.9536163136390314
 21
133.6379185425859077
 31
0.0
  0
LINE
  5
8735
  8
0
 10
3839.9536163136390314
 20
133.6379185425859077
 30
0.0
 11
3839.9706640578401675
 21
133.6274580172226933
 31
0.0
  0
LINE
  5
8736
  8
0
 10
3839.9706640578401675
 20
133.6274580172226933
 30
0.0
 11
3839.9877118020399394
 21
133.625900630993101
 31
0.0
  0
LINE
  5
8737
  8
0
 10
3839.9566483874350524
 20
133.6629830353633963
 30
0.0
 11
3839.9706640578401675
 21
133.6534427759227128
 31
0.0
  0
LINE
  5
8738
  8
0
 10
3839.9706640578401675
 20
133.6534427759227128
 30
0.0
 11
3839.9877118020399394
 21
133.6527939621227006
 31
0.0
  0
LINE
  5
8739
  8
0
 10
3839.9877118020399394
 20
133.6527939621227006
 30
0.0
 11
3839.9877118020649505
 21
133.6638034680971998
 31
0.0
  0
LINE
  5
873A
  8
0
 10
3839.9877118020649505
 20
133.6638034680971998
 30
0.0
 11
3839.9824907347260705
 21
133.6673200054129893
 31
0.0
  0
LINE
  5
873B
  8
0
 10
3839.9856692215739713
 20
133.6677915783787967
 30
0.0
 11
3839.9985029074609884
 21
133.6593659481544876
 31
0.0
  0
LINE
  5
873C
  8
0
 10
3839.9985029074609884
 20
133.6593659481544876
 30
0.0
 11
3840.0155506516398418
 21
133.660097671975592
 31
0.0
  0
LINE
  5
873D
  8
0
 10
3840.0155506516398418
 20
133.660097671975592
 30
0.0
 11
3840.0155506516398418
 21
133.6715699221961984
 31
0.0
  0
LINE
  5
873E
  8
0
 10
3839.9598729523631846
 20
133.5930849527935891
 30
0.0
 11
3839.9598729523399925
 21
133.596975845322703
 31
0.0
  0
LINE
  5
873F
  8
0
 10
3839.9598729523399925
 20
133.596975845322703
 30
0.0
 11
3839.9428252082398103
 21
133.6056876865741003
 31
0.0
  0
LINE
  5
8740
  8
0
 10
3839.9428252082398103
 20
133.6056876865741003
 30
0.0
 11
3839.9257774640400385
 21
133.6105951840227135
 31
0.0
  0
LINE
  5
8741
  8
0
 10
3839.9257774640400385
 20
133.6105951840227135
 30
0.0
 11
3839.9257774640400385
 21
133.6067042915227034
 31
0.0
  0
LINE
  5
8742
  8
0
 10
3839.9257774640400385
 20
133.6067042915227034
 30
0.0
 11
3839.9428252082398103
 21
133.5979059016553947
 31
0.0
  0
LINE
  5
8743
  8
0
 10
3839.9428252082398103
 20
133.5979059016553947
 30
0.0
 11
3839.9598729523631846
 21
133.5930849527935891
 31
0.0
  0
LINE
  5
8744
  8
0
 10
3839.9598729523399925
 20
133.5858083576227102
 30
0.0
 11
3839.9598729523399925
 21
133.5877482404227123
 31
0.0
  0
LINE
  5
8745
  8
0
 10
3839.9598729523399925
 20
133.5877482404227123
 30
0.0
 11
3839.9428252081620485
 21
133.5954973881898127
 31
0.0
  0
LINE
  5
8746
  8
0
 10
3839.9428252081620485
 20
133.5954973881898127
 30
0.0
 11
3839.9257772763421599
 21
133.6014135675193018
 31
0.0
  0
LINE
  5
8747
  8
0
 10
3839.9257772763421599
 20
133.6014135675193018
 30
0.0
 11
3839.9257774640400385
 21
133.5995243868227078
 31
0.0
  0
LINE
  5
8748
  8
0
 10
3839.9257774640400385
 20
133.5995243868227078
 30
0.0
 11
3839.9428252081797837
 21
133.5916674327303895
 31
0.0
  0
LINE
  5
8749
  8
0
 10
3839.9428252081797837
 20
133.5916674327303895
 30
0.0
 11
3839.9598724878351277
 21
133.5858085088430016
 31
0.0
  0
LINE
  5
874A
  8
0
 10
3839.9598729523631846
 20
133.6058675597276988
 30
0.0
 11
3839.9598729523399925
 21
133.6117094620134935
 31
0.0
  0
LINE
  5
874B
  8
0
 10
3839.9598729523399925
 20
133.6117094620134935
 30
0.0
 11
3839.9428252082398103
 21
133.6214594297065901
 31
0.0
  0
LINE
  5
874C
  8
0
 10
3839.9428252082398103
 20
133.6214594297065901
 30
0.0
 11
3839.9257774640400385
 21
133.6254254912485067
 31
0.0
  0
LINE
  5
874D
  8
0
 10
3839.9257774640400385
 20
133.6254254912485067
 30
0.0
 11
3839.9259294224420955
 21
133.6194417667676078
 31
0.0
  0
LINE
  5
874E
  8
0
 10
3839.9259294224420955
 20
133.6194417667676078
 30
0.0
 11
3839.9428252082598192
 21
133.6097258149821982
 31
0.0
  0
LINE
  5
874F
  8
0
 10
3839.9428252082598192
 20
133.6097258149821982
 30
0.0
 11
3839.9598729523399925
 21
133.6058675597323884
 31
0.0
  0
LINE
  5
8750
  8
0
 10
3839.9598729523399925
 20
133.6242112143160057
 30
0.0
 11
3839.9598729523399925
 21
133.6313777354972956
 31
0.0
  0
LINE
  5
8751
  8
0
 10
3839.9598729523399925
 20
133.6313777354972956
 30
0.0
 11
3839.9428252082880135
 21
133.6429659242382115
 31
0.0
  0
LINE
  5
8752
  8
0
 10
3839.9428252082880135
 20
133.6429659242382115
 30
0.0
 11
3839.9257774640400385
 21
133.6460301454227135
 31
0.0
  0
LINE
  5
8753
  8
0
 10
3839.9257774640400385
 20
133.6460301454227135
 30
0.0
 11
3839.9257774639750096
 21
133.6380694402577092
 31
0.0
  0
LINE
  5
8754
  8
0
 10
3839.9257774639750096
 20
133.6380694402577092
 30
0.0
 11
3839.9428252082398103
 21
133.6271529842007908
 31
0.0
  0
LINE
  5
8755
  8
0
 10
3839.9428252082398103
 20
133.6271529842007908
 30
0.0
 11
3839.9598729523399925
 21
133.6242112142226972
 31
0.0
  0
LINE
  5
8756
  8
0
 10
3839.9319866406481196
 20
133.6579986361668091
 30
0.0
 11
3839.9428252082398103
 21
133.6503965929815081
 31
0.0
  0
LINE
  5
8757
  8
0
 10
3839.9428252082398103
 20
133.6503965929815081
 30
0.0
 11
3839.9598729523399925
 21
133.6483511587227042
 31
0.0
  0
LINE
  5
8758
  8
0
 10
3839.9598729523399925
 20
133.6483511587227042
 30
0.0
 11
3839.9598729523399925
 21
133.6607881217497038
 31
0.0
  0
LINE
  5
8759
  8
0
 10
3839.93203410274009
 20
133.5997159739227129
 30
0.0
 11
3839.93203410274009
 21
133.6026150376227122
 31
0.0
  0
LINE
  5
875A
  8
0
 10
3839.93203410274009
 20
133.6026150376227122
 30
0.0
 11
3839.9149863585698768
 21
133.6118381915090083
 31
0.0
  0
LINE
  5
875B
  8
0
 10
3839.9149863585698768
 20
133.6118381915090083
 30
0.0
 11
3839.8979386144128512
 21
133.6182929502139132
 31
0.0
  0
LINE
  5
875C
  8
0
 10
3839.8979386144128512
 20
133.6182929502139132
 30
0.0
 11
3839.8979386143400916
 21
133.6154240951451015
 31
0.0
  0
LINE
  5
875D
  8
0
 10
3839.8979386143400916
 20
133.6154240951451015
 30
0.0
 11
3839.9149863585807907
 21
133.6060695958898918
 31
0.0
  0
LINE
  5
875E
  8
0
 10
3839.9149863585807907
 20
133.6060695958898918
 30
0.0
 11
3839.9320341027178074
 21
133.5997159739424092
 31
0.0
  0
LINE
  5
875F
  8
0
 10
3839.93203410274009
 20
133.6097292510227135
 30
0.0
 11
3839.93203410274009
 21
133.6146119723395884
 31
0.0
  0
LINE
  5
8760
  8
0
 10
3839.93203410274009
 20
133.6146119723395884
 30
0.0
 11
3839.9149863585398634
 21
133.6248564869227096
 31
0.0
  0
LINE
  5
8761
  8
0
 10
3839.9149863585398634
 20
133.6248564869227096
 30
0.0
 11
3839.8979386143400916
 21
133.6303200936226858
 31
0.0
  0
LINE
  5
8762
  8
0
 10
3839.8979386143400916
 20
133.6303200936226858
 30
0.0
 11
3839.8979386143400916
 21
133.6254071636226968
 31
0.0
  0
LINE
  5
8763
  8
0
 10
3839.8979386143400916
 20
133.6254071636226968
 30
0.0
 11
3839.9149863585398634
 21
133.6150615123779062
 31
0.0
  0
LINE
  5
8764
  8
0
 10
3839.9149863585398634
 20
133.6150615123779062
 30
0.0
 11
3839.93203410274009
 21
133.6097292510031878
 31
0.0
  0
LINE
  5
8765
  8
0
 10
3839.93203410274009
 20
133.6253690593227077
 30
0.0
 11
3839.932034102705984
 21
133.6322673998865866
 31
0.0
  0
LINE
  5
8766
  8
0
 10
3839.932034102705984
 20
133.6322673998865866
 30
0.0
 11
3839.9149863585589628
 21
133.6436417645664108
 31
0.0
  0
LINE
  5
8767
  8
0
 10
3839.9149863585589628
 20
133.6436417645664108
 30
0.0
 11
3839.8979386143901138
 21
133.6481811670826119
 31
0.0
  0
LINE
  5
8768
  8
0
 10
3839.8979386143901138
 20
133.6481811670826119
 30
0.0
 11
3839.8979386143400916
 21
133.6411891548304141
 31
0.0
  0
LINE
  5
8769
  8
0
 10
3839.8979386143400916
 20
133.6411891548304141
 30
0.0
 11
3839.9149863584998457
 21
133.6297534860979113
 31
0.0
  0
LINE
  5
876A
  8
0
 10
3839.9149863584998457
 20
133.6297534860979113
 30
0.0
 11
3839.93203410274009
 21
133.6253690593227077
 31
0.0
  0
LINE
  5
876B
  8
0
 10
3839.8779872037330279
 20
133.6417355881611115
 30
0.0
 11
3839.8871475089072192
 21
133.6353981811527092
 31
0.0
  0
LINE
  5
876C
  8
0
 10
3839.8871475089072192
 20
133.6353981811527092
 30
0.0
 11
3839.9041952530401431
 21
133.6294841578227022
 31
0.0
  0
LINE
  5
876D
  8
0
 10
3839.9041952530401431
 20
133.6294841578227022
 30
0.0
 11
3839.9041952530401431
 21
133.6354154963364067
 31
0.0
  0
LINE
  5
876E
  8
0
 10
3839.9041952530401431
 20
133.6354154963364067
 30
0.0
 11
3839.8883619536441074
 21
133.6464253058798022
 31
0.0
  0
LINE
  5
876F
  8
0
 10
3839.9041952530401431
 20
133.6166206672226906
 30
0.0
 11
3839.9041952530401431
 21
133.6205115597227007
 31
0.0
  0
LINE
  5
8770
  8
0
 10
3839.8700997647501936
 20
133.6372972739576994
 30
0.0
 11
3839.8700997647051736
 21
133.634501438714409
 31
0.0
  0
LINE
  5
8771
  8
0
 10
3839.8700997647051736
 20
133.634501438714409
 30
0.0
 11
3839.8871475089390515
 21
133.623537264619614
 31
0.0
  0
LINE
  5
8772
  8
0
 10
3839.8871475089390515
 20
133.623537264619614
 30
0.0
 11
3839.9041952530401431
 21
133.6166206672226906
 31
0.0
  0
LINE
  5
8773
  8
0
 10
3839.9041952530401431
 20
133.6205115597227007
 30
0.0
 11
3839.8871475089390515
 21
133.6313190497625101
 31
0.0
  0
LINE
  5
8774
  8
0
 10
3839.8871475089390515
 20
133.6313190497625101
 30
0.0
 11
3839.8711252311618409
 21
133.6379208554581908
 31
0.0
  0
LINE
  5
8775
  8
0
 10
3839.9041952530401431
 20
133.6095143919226871
 30
0.0
 11
3839.9041952531001698
 21
133.6113648384562964
 31
0.0
  0
LINE
  5
8776
  8
0
 10
3839.9041952531001698
 20
133.6113648384562964
 30
0.0
 11
3839.8871475089390515
 21
133.6211697543081982
 31
0.0
  0
LINE
  5
8777
  8
0
 10
3839.8871475089390515
 20
133.6211697543081982
 30
0.0
 11
3839.8700997647470103
 21
133.6293121661728946
 31
0.0
  0
LINE
  5
8778
  8
0
 10
3839.8700997647470103
 20
133.6293121661728946
 30
0.0
 11
3839.8700997646787982
 21
133.6275353796189052
 31
0.0
  0
LINE
  5
8779
  8
0
 10
3839.8700997646787982
 20
133.6275353796189052
 30
0.0
 11
3839.8871475088340048
 21
133.6175405886066017
 31
0.0
  0
LINE
  5
877A
  8
0
 10
3839.8871475088340048
 20
133.6175405886066017
 30
0.0
 11
3839.9041952530401431
 21
133.6095143918338124
 31
0.0
  0
LINE
  5
877B
  8
0
 10
3839.9016491257712005
 20
133.6095209840918869
 30
0.0
 11
3839.9017024981981194
 21
133.6103214350312953
 31
0.0
  0
LINE
  5
877C
  8
0
 10
3839.9017024981981194
 20
133.6103214350312953
 30
0.0
 11
3839.9149863585139428
 21
133.6045199532966024
 31
0.0
  0
LINE
  5
877D
  8
0
 10
3839.9149863585139428
 20
133.6045199532966024
 30
0.0
 11
3839.93203410274009
 21
133.5962446339227085
 31
0.0
  0
LINE
  5
877E
  8
0
 10
3839.93203410274009
 20
133.5962446339227085
 30
0.0
 11
3839.93203410274009
 21
133.5948170522501073
 31
0.0
  0
LINE
  5
877F
  8
0
 10
3840.0828588400399894
 20
133.5569665000226962
 30
0.0
 11
3840.0828588400399894
 21
133.5627615319226891
 31
0.0
  0
LINE
  5
8780
  8
0
 10
3840.0828588400399894
 20
133.5627615319226891
 30
0.0
 11
3840.0820194560988057
 21
133.5629674533064133
 31
0.0
  0
LINE
  5
8781
  8
0
 10
3840.0820194560988057
 20
133.5629674533064133
 30
0.0
 11
3840.0649717123401388
 21
133.5638761813063127
 31
0.0
  0
LINE
  5
8782
  8
0
 10
3840.0649717123401388
 20
133.5638761813063127
 30
0.0
 11
3840.0649717123401388
 21
133.5609096170227019
 31
0.0
  0
LINE
  5
8783
  8
0
 10
3840.0649717123401388
 20
133.5609096170227019
 30
0.0
 11
3840.0820194564398662
 21
133.557026582722699
 31
0.0
  0
LINE
  5
8784
  8
0
 10
3840.0820194564398662
 20
133.557026582722699
 30
0.0
 11
3840.0828588400399894
 21
133.557026582722699
 31
0.0
  0
LINE
  5
8785
  8
0
 10
3840.0828588400399894
 20
133.5661764295226988
 30
0.0
 11
3840.0828588400399894
 21
133.5755618143226968
 31
0.0
  0
LINE
  5
8786
  8
0
 10
3840.0828588400399894
 20
133.5755618143226968
 30
0.0
 11
3840.0820194564398662
 21
133.5758134738227056
 31
0.0
  0
LINE
  5
8787
  8
0
 10
3840.0820194564398662
 20
133.5758134738227056
 30
0.0
 11
3840.0649717123401388
 21
133.5758056155227962
 31
0.0
  0
LINE
  5
8788
  8
0
 10
3840.0649717123401388
 20
133.5758056155227962
 30
0.0
 11
3840.0649717123401388
 21
133.5709903947227133
 31
0.0
  0
LINE
  5
8789
  8
0
 10
3840.0649717123401388
 20
133.5709903947227133
 30
0.0
 11
3840.0820194564398662
 21
133.5661907741227026
 31
0.0
  0
LINE
  5
878A
  8
0
 10
3840.0820194564398662
 20
133.5661907741227026
 30
0.0
 11
3840.0828588400399894
 21
133.5661907741227026
 31
0.0
  0
LINE
  5
878B
  8
0
 10
3840.0828588400399894
 20
133.5805968764227032
 30
0.0
 11
3840.0828588400399894
 21
133.5936223410226944
 31
0.0
  0
LINE
  5
878C
  8
0
 10
3840.0828588400399894
 20
133.5936223410226944
 30
0.0
 11
3840.0820194564398662
 21
133.5939219135227063
 31
0.0
  0
LINE
  5
878D
  8
0
 10
3840.0820194564398662
 20
133.5939219135227063
 30
0.0
 11
3840.0649717123401388
 21
133.5930025098226963
 31
0.0
  0
LINE
  5
878E
  8
0
 10
3840.0649717123401388
 20
133.5930025098226963
 30
0.0
 11
3840.0649717123219489
 21
133.5863128187274924
 31
0.0
  0
LINE
  5
878F
  8
0
 10
3840.0649717123219489
 20
133.5863128187274924
 30
0.0
 11
3840.082019456389844
 21
133.5805663639208944
 31
0.0
  0
LINE
  5
8790
  8
0
 10
3840.082019456389844
 20
133.5805663639208944
 30
0.0
 11
3840.0828588400399894
 21
133.5805968764227032
 31
0.0
  0
LINE
  5
8791
  8
0
 10
3840.0828588400399894
 20
133.6003229968227117
 30
0.0
 11
3840.0828588400399894
 21
133.6171506573226964
 31
0.0
  0
LINE
  5
8792
  8
0
 10
3840.0828588400399894
 20
133.6171506573226964
 30
0.0
 11
3840.0820138725398465
 21
133.6174992567227093
 31
0.0
  0
LINE
  5
8793
  8
0
 10
3840.0820138725398465
 20
133.6174992567227093
 30
0.0
 11
3840.0649717123401388
 21
133.6156442777227085
 31
0.0
  0
LINE
  5
8794
  8
0
 10
3840.0649717123401388
 20
133.6156442777227085
 30
0.0
 11
3840.0651090153851328
 21
133.6069417225708946
 31
0.0
  0
LINE
  5
8795
  8
0
 10
3840.0651090153851328
 20
133.6069417225708946
 30
0.0
 11
3840.0820194564398662
 21
133.6002472776227137
 31
0.0
  0
LINE
  5
8796
  8
0
 10
3840.0820194564398662
 20
133.6002472776227137
 30
0.0
 11
3840.0828588400399894
 21
133.6003229968227117
 31
0.0
  0
LINE
  5
8797
  8
0
 10
3840.0828588400399894
 20
133.6256086325226988
 30
0.0
 11
3840.0828588400399894
 21
133.646513769322695
 31
0.0
  0
LINE
  5
8798
  8
0
 10
3840.0828588400399894
 20
133.646513769322695
 30
0.0
 11
3840.0820194565349084
 21
133.6469224105765079
 31
0.0
  0
LINE
  5
8799
  8
0
 10
3840.0820194565349084
 20
133.6469224105765079
 30
0.0
 11
3840.0649717123401388
 21
133.6440867687227012
 31
0.0
  0
LINE
  5
879A
  8
0
 10
3840.0649717123401388
 20
133.6440867687227012
 30
0.0
 11
3840.0649717123401388
 21
133.633336714022704
 31
0.0
  0
LINE
  5
879B
  8
0
 10
3840.0649717123401388
 20
133.633336714022704
 30
0.0
 11
3840.0820194565021666
 21
133.6254860126983033
 31
0.0
  0
LINE
  5
879C
  8
0
 10
3840.0820194565021666
 20
133.6254860126983033
 30
0.0
 11
3840.0828588400399894
 21
133.6256086325226988
 31
0.0
  0
LINE
  5
879D
  8
0
 10
3840.0649717123401388
 20
133.6755754350292023
 30
0.0
 11
3840.0649717123401388
 21
133.6658264484125027
 31
0.0
  0
LINE
  5
879E
  8
0
 10
3840.0649717123401388
 20
133.6658264484125027
 30
0.0
 11
3840.0820194564398662
 21
133.6567331302582033
 31
0.0
  0
LINE
  5
879F
  8
0
 10
3840.0820194564398662
 20
133.6567331302582033
 30
0.0
 11
3840.0828588400399894
 21
133.6569060327227021
 31
0.0
  0
LINE
  5
87A0
  8
0
 10
3840.0828588400399894
 20
133.6569060327227021
 30
0.0
 11
3840.0828588400399894
 21
133.6647794299686893
 31
0.0
  0
LINE
  5
87A1
  8
0
 10
3840.0828588400399894
 20
133.6647794299686893
 30
0.0
 11
3840.0990672005968918
 21
133.6657496952566078
 31
0.0
  0
LINE
  5
87A2
  8
0
 10
3840.0990672005968918
 20
133.6657496952566078
 30
0.0
 11
3840.0990672006400928
 21
133.6735886623226861
 31
0.0
  0
LINE
  5
87A3
  8
0
 10
3840.0990672006400928
 20
133.6735886623226861
 30
0.0
 11
3840.0923155459340705
 21
133.6771373805125052
 31
0.0
  0
LINE
  5
87A4
  8
0
 10
3840.0201853879912051
 20
133.6720505468518922
 30
0.0
 11
3840.026341757200953
 21
133.668173158094902
 31
0.0
  0
LINE
  5
87A5
  8
0
 10
3840.026341757200953
 20
133.668173158094902
 30
0.0
 11
3840.0433895013397887
 21
133.6702923107712877
 31
0.0
  0
LINE
  5
87A6
  8
0
 10
3840.0433895013397887
 20
133.6702923107712877
 30
0.0
 11
3840.0433895013397887
 21
133.6740345345941989
 31
0.0
  0
LINE
  5
87A7
  8
0
 10
3839.9110489765548664
 20
133.6531064088204062
 30
0.0
 11
3839.9149863585398634
 21
133.6502688902340026
 31
0.0
  0
LINE
  5
87A8
  8
0
 10
3839.9149863585398634
 20
133.6502688902340026
 30
0.0
 11
3839.93203410274009
 21
133.6467868754226913
 31
0.0
  0
LINE
  5
87A9
  8
0
 10
3839.93203410274009
 20
133.6467868754226913
 30
0.0
 11
3839.93203410274009
 21
133.6558020838226923
 31
0.0
  0
LINE
  5
87AA
  8
0
 10
3839.93203410274009
 20
133.6558020838226923
 30
0.0
 11
3839.9296827131302052
 21
133.6574902394744981
 31
0.0
  0
LINE
  5
87AB
  8
0
 10
3840.0820194560988057
 20
133.5629674533064133
 30
0.0
 11
3840.0820194560988057
 21
133.557026582722699
 31
0.0
  0
LINE
  5
87AC
  8
0
 10
3840.0820194564398662
 20
133.5530918635296871
 30
0.0
 11
3840.0820194564571466
 21
133.5553328311239909
 31
0.0
  0
LINE
  5
87AD
  8
0
 10
3840.0820194564398662
 20
133.5661907741227026
 30
0.0
 11
3840.0820150207769075
 21
133.5758134717781047
 31
0.0
  0
LINE
  5
87AE
  8
0
 10
3840.082019456389844
 20
133.5805663639208944
 30
0.0
 11
3840.0820194564398662
 21
133.5939219135227063
 31
0.0
  0
LINE
  5
87AF
  8
0
 10
3840.0820194564398662
 20
133.6002472776227137
 30
0.0
 11
3840.0820194564398662
 21
133.6174479560243071
 31
0.0
  0
LINE
  5
87B0
  8
0
 10
3840.0820194565021666
 20
133.6254860126983033
 30
0.0
 11
3840.0820194565349084
 21
133.6469224105765079
 31
0.0
  0
LINE
  5
87B1
  8
0
 10
3840.0263417571400169
 20
133.5677476121439895
 30
0.0
 11
3840.0263417571400169
 21
133.5734605849490038
 31
0.0
  0
LINE
  5
87B2
  8
0
 10
3840.0263417571400169
 20
133.5766839058227049
 30
0.0
 11
3840.0263417571400169
 21
133.5863410584854023
 31
0.0
  0
LINE
  5
87B3
  8
0
 10
3840.0263417571450191
 20
133.5911227489060877
 30
0.0
 11
3840.0263417571231912
 21
133.6045846069822005
 31
0.0
  0
LINE
  5
87B4
  8
0
 10
3840.0263417571400169
 20
133.6112252957339024
 30
0.0
 11
3840.0261807426932137
 21
133.6284051064064897
 31
0.0
  0
LINE
  5
87B5
  8
0
 10
3840.0263417571400169
 20
133.636493623322707
 30
0.0
 11
3840.0263417571400169
 21
133.6582179942224116
 31
0.0
  0
LINE
  5
87B6
  8
0
 10
3840.026341757200953
 20
133.668173158094902
 30
0.0
 11
3840.026341757200953
 21
133.6726454471327088
 31
0.0
  0
LINE
  5
87B7
  8
0
 10
3839.9985029074728118
 20
133.5723841992127063
 30
0.0
 11
3839.9985029075401144
 21
133.5763516553226964
 31
0.0
  0
LINE
  5
87B8
  8
0
 10
3839.9985029074928207
 20
133.5787882800483999
 30
0.0
 11
3839.9985029075401144
 21
133.5865700651226859
 31
0.0
  0
LINE
  5
87B9
  8
0
 10
3839.9985029074541671
 20
133.590580082134295
 30
0.0
 11
3839.9985029075401144
 21
133.6021761960950016
 31
0.0
  0
LINE
  5
87BA
  8
0
 10
3839.9985029075401144
 20
133.6077828110227017
 30
0.0
 11
3839.9985029074828162
 21
133.6233076972378058
 31
0.0
  0
LINE
  5
87BB
  8
0
 10
3839.9985029075560306
 20
133.6305840778711911
 30
0.0
 11
3839.9985029074700833
 21
133.6502846681061101
 31
0.0
  0
LINE
  5
87BC
  8
0
 10
3839.9985029074609884
 20
133.6593659481544876
 30
0.0
 11
3839.9985029074609884
 21
133.6695589848860095
 31
0.0
  0
LINE
  5
87BD
  8
0
 10
3839.9706640577560393
 20
133.5837270676560138
 30
0.0
 11
3839.9706640578401675
 21
133.5895779747862093
 31
0.0
  0
LINE
  5
87BE
  8
0
 10
3839.9706640578979204
 20
133.5928012956723023
 30
0.0
 11
3839.9706640578401675
 21
133.6023206343191987
 31
0.0
  0
LINE
  5
87BF
  8
0
 10
3839.9706640578128827
 20
133.6073420724133882
 30
0.0
 11
3839.9706640578579027
 21
133.6209754523852098
 31
0.0
  0
LINE
  5
87C0
  8
0
 10
3839.9706640578401675
 20
133.6274580172226933
 30
0.0
 11
3839.9706640578087899
 21
133.6451983682314903
 31
0.0
  0
LINE
  5
87C1
  8
0
 10
3839.9706640578401675
 20
133.6534427759227128
 30
0.0
 11
3839.9706640578401675
 21
133.6654467080338122
 31
0.0
  0
LINE
  5
87C2
  8
0
 10
3839.9428252081620485
 20
133.5954973881898127
 30
0.0
 11
3839.9428252081797837
 21
133.5916674327303895
 31
0.0
  0
LINE
  5
87C3
  8
0
 10
3839.9428252082398103
 20
133.5979059016553947
 30
0.0
 11
3839.9428252082398103
 21
133.6056876865741003
 31
0.0
  0
LINE
  5
87C4
  8
0
 10
3839.9428252082598192
 20
133.6097258149821982
 30
0.0
 11
3839.9428252082398103
 21
133.6214594297065901
 31
0.0
  0
LINE
  5
87C5
  8
0
 10
3839.9428252082398103
 20
133.6271529842007908
 30
0.0
 11
3839.9428252082880135
 21
133.6429659242382115
 31
0.0
  0
LINE
  5
87C6
  8
0
 10
3839.9428252082398103
 20
133.6503965929815081
 30
0.0
 11
3839.9428252082398103
 21
133.6602919456819052
 31
0.0
  0
LINE
  5
87C7
  8
0
 10
3839.9149863585807907
 20
133.6060695958898918
 30
0.0
 11
3839.9149863585698768
 21
133.6118381915090083
 31
0.0
  0
LINE
  5
87C8
  8
0
 10
3839.9149863585398634
 20
133.6150615123779062
 30
0.0
 11
3839.9149863585398634
 21
133.6248564869227096
 31
0.0
  0
LINE
  5
87C9
  8
0
 10
3839.9149863584998457
 20
133.6297534860979113
 30
0.0
 11
3839.9149863585589628
 21
133.6436417645664108
 31
0.0
  0
LINE
  5
87CA
  8
0
 10
3839.9149863585398634
 20
133.6502688902340026
 30
0.0
 11
3839.9149863585398634
 21
133.6540732858086926
 31
0.0
  0
LINE
  5
87CB
  8
0
 10
3839.8871475089072192
 20
133.6353981811527092
 30
0.0
 11
3839.8871475089072192
 21
133.6459386328178027
 31
0.0
  0
LINE
  5
87CC
  8
0
 10
3839.8871475089390515
 20
133.623537264619614
 30
0.0
 11
3839.8871475089390515
 21
133.6313190497625101
 31
0.0
  0
LINE
  5
87CD
  8
0
 10
3839.8871475089390515
 20
133.6211697543081982
 30
0.0
 11
3839.8871475088340048
 21
133.6175405886066017
 31
0.0
  0
LINE
  5
87CE
  8
0
 10
3839.9149863585139428
 20
133.6045199532966024
 30
0.0
 11
3839.9149863585139428
 21
133.6029557267198982
 31
0.0
  0
LINE
  5
87CF
  8
0
 10
3839.9706640578401675
 20
133.5821085394788099
 30
0.0
 11
3839.9706640578401675
 21
133.5803575848865137
 31
0.0
  0
LINE
  5
87D0
  8
0
 10
3840.1655087863400695
 20
133.5659385567226991
 30
0.0
 11
3840.1547448999399421
 21
133.5659385567226991
 31
0.0
  0
LINE
  5
87D1
  8
0
 10
3840.1547448999399421
 20
133.5659385567226991
 30
0.0
 11
3840.1547448999808694
 21
133.580330947905594
 31
0.0
  0
LINE
  5
87D2
  8
0
 10
3840.1547448999808694
 20
133.580330947905594
 30
0.0
 11
3840.1376971558302102
 21
133.587820248451095
 31
0.0
  0
LINE
  5
87D3
  8
0
 10
3840.1376971558302102
 20
133.587820248451095
 30
0.0
 11
3840.1206494116399881
 21
133.5803309479240113
 31
0.0
  0
LINE
  5
87D4
  8
0
 10
3840.1206494116399881
 20
133.5803309479240113
 30
0.0
 11
3840.1206494115758687
 21
133.5674026084807906
 31
0.0
  0
LINE
  5
87D5
  8
0
 10
3840.1206494115758687
 20
133.5674026084807906
 30
0.0
 11
3840.114354903039839
 21
133.5678232370399883
 31
0.0
  0
LINE
  5
87D6
  8
0
 10
3840.114354903039839
 20
133.5810434081330129
 30
0.0
 11
3840.1269060502968387
 21
133.586557064866895
 31
0.0
  0
LINE
  5
87D7
  8
0
 10
3840.1269060502968387
 20
133.586557064866895
 30
0.0
 11
3840.1269060503400397
 21
133.6007419518560084
 31
0.0
  0
LINE
  5
87D8
  8
0
 10
3840.1269060503400397
 20
133.6007419518560084
 30
0.0
 11
3840.114354903039839
 21
133.6056934463364883
 31
0.0
  0
LINE
  5
87D9
  8
0
 10
3840.1547448999399421
 20
133.6062827526226897
 30
0.0
 11
3840.1547448999399421
 21
133.6188945613579051
 31
0.0
  0
LINE
  5
87DA
  8
0
 10
3840.1547448999399421
 20
133.6188945613579051
 30
0.0
 11
3840.1376971557401703
 21
133.6248105026226938
 31
0.0
  0
LINE
  5
87DB
  8
0
 10
3840.1376971557401703
 20
133.6248105026226938
 30
0.0
 11
3840.1206494116399881
 21
133.6188945613226906
 31
0.0
  0
LINE
  5
87DC
  8
0
 10
3840.1206494116399881
 20
133.6188945613226906
 30
0.0
 11
3840.1206494115240275
 21
133.6062827526193075
 31
0.0
  0
LINE
  5
87DD
  8
0
 10
3840.1206494115240275
 20
133.6062827526193075
 30
0.0
 11
3840.1376971557779143
 21
133.5995704386523926
 31
0.0
  0
LINE
  5
87DE
  8
0
 10
3840.1376971557779143
 20
133.5995704386523926
 30
0.0
 11
3840.1547448999399421
 21
133.6062827526226897
 31
0.0
  0
LINE
  5
87DF
  8
0
 10
3840.1206494115808709
 20
133.5683734043961124
 30
0.0
 11
3840.1376971557401703
 21
133.5701807730249016
 31
0.0
  0
LINE
  5
87E0
  8
0
 10
3840.1376971557401703
 20
133.5701807730249016
 30
0.0
 11
3840.1547448999422159
 21
133.566597275853411
 31
0.0
  0
LINE
  5
87E1
  8
0
 10
3840.114354903039839
 20
133.6194583069479052
 30
0.0
 11
3840.1269060503400397
 21
133.6238134641226907
 31
0.0
  0
LINE
  5
87E2
  8
0
 10
3840.1269060503400397
 20
133.6238134641226907
 30
0.0
 11
3840.1269060503400397
 21
133.6349846614587875
 31
0.0
  0
LINE
  5
87E3
  8
0
 10
3840.1269060503400397
 20
133.6349846614587875
 30
0.0
 11
3840.114354903039839
 21
133.6388662640354994
 31
0.0
  0
LINE
  5
87E4
  8
0
 10
3840.1547448999399421
 20
133.6393290974646959
 30
0.0
 11
3840.1547448999422159
 21
133.6491590613989899
 31
0.0
  0
LINE
  5
87E5
  8
0
 10
3840.1547448999422159
 20
133.6491590613989899
 30
0.0
 11
3840.1376971557401703
 21
133.6537336699039997
 31
0.0
  0
LINE
  5
87E6
  8
0
 10
3840.1376971557401703
 20
133.6537336699039997
 30
0.0
 11
3840.1206494116399881
 21
133.6491590613227061
 31
0.0
  0
LINE
  5
87E7
  8
0
 10
3840.1206494116399881
 20
133.6491590613227061
 30
0.0
 11
3840.1206494116399881
 21
133.6393290974226886
 31
0.0
  0
LINE
  5
87E8
  8
0
 10
3840.1206494116399881
 20
133.6393290974226886
 30
0.0
 11
3840.1381108543100709
 21
133.6341950674886903
 31
0.0
  0
LINE
  5
87E9
  8
0
 10
3840.1381108543100709
 20
133.6341950674886903
 30
0.0
 11
3840.1547448999399421
 21
133.6393290974646959
 31
0.0
  0
LINE
  5
87EA
  8
0
 10
3840.114354903039839
 20
133.6495986393115913
 30
0.0
 11
3840.1269060503050241
 21
133.6529646376409062
 31
0.0
  0
LINE
  5
87EB
  8
0
 10
3840.1269060503050241
 20
133.6529646376409062
 30
0.0
 11
3840.1269060502650063
 21
133.6615277507665098
 31
0.0
  0
LINE
  5
87EC
  8
0
 10
3840.1269060502650063
 20
133.6615277507665098
 30
0.0
 11
3840.114354903039839
 21
133.6644696190720083
 31
0.0
  0
LINE
  5
87ED
  8
0
 10
3840.1547448999399421
 20
133.6648209599705126
 30
0.0
 11
3840.1547426434131012
 21
133.6695956477873892
 31
0.0
  0
LINE
  5
87EE
  8
0
 10
3840.1547426434131012
 20
133.6695956477873892
 30
0.0
 11
3840.137697155746082
 21
133.6770085116976077
 31
0.0
  0
LINE
  5
87EF
  8
0
 10
3840.137697155746082
 20
133.6770085116976077
 30
0.0
 11
3840.1206494116217982
 21
133.6713534800774994
 31
0.0
  0
LINE
  5
87F0
  8
0
 10
3840.1206494116217982
 20
133.6713534800774994
 30
0.0
 11
3840.1206494116399881
 21
133.6648209470226902
 31
0.0
  0
LINE
  5
87F1
  8
0
 10
3840.1206494116399881
 20
133.6648209470226902
 30
0.0
 11
3840.1376971557228899
 21
133.6608272907351136
 31
0.0
  0
LINE
  5
87F2
  8
0
 10
3840.1376971557228899
 20
133.6608272907351136
 30
0.0
 11
3840.1547448999399421
 21
133.6648209599705126
 31
0.0
  0
LINE
  5
87F3
  8
0
 10
3840.0977582808409352
 20
133.6773879100246916
 30
0.0
 11
3840.1098583061398131
 21
133.6712133182736011
 31
0.0
  0
LINE
  5
87F4
  8
0
 10
3840.1098583061398131
 20
133.6712133182736011
 30
0.0
 11
3840.1269060502690991
 21
133.6764947529161134
 31
0.0
  0
LINE
  5
87F5
  8
0
 10
3840.1269060502690991
 20
133.6764947529161134
 30
0.0
 11
3840.1269060503691435
 21
133.6783891296078934
 31
0.0
  0
LINE
  5
87F6
  8
0
 10
3840.114354903039839
 20
133.6691383884551101
 30
0.0
 11
3840.1199859261269012
 21
133.66894185404891
 31
0.0
  0
LINE
  5
87F7
  8
0
 10
3840.1484882612280671
 20
133.6787612095731959
 30
0.0
 11
3840.1484882612971887
 21
133.6753731425108072
 31
0.0
  0
LINE
  5
87F8
  8
0
 10
3840.1484882612971887
 20
133.6753731425108072
 30
0.0
 11
3840.1655395944007978
 21
133.6682363721853903
 31
0.0
  0
LINE
  5
87F9
  8
0
 10
3840.1655395761290492
 20
133.6654990500090889
 30
0.0
 11
3840.1484882612699039
 21
133.6615277507796975
 31
0.0
  0
LINE
  5
87FA
  8
0
 10
3840.1484882612699039
 20
133.6615277507796975
 30
0.0
 11
3840.1484882612508045
 21
133.6529646376473011
 31
0.0
  0
LINE
  5
87FB
  8
0
 10
3840.1484882612508045
 20
133.6529646376473011
 30
0.0
 11
3840.1655394618428545
 21
133.6483779783704904
 31
0.0
  0
LINE
  5
87FC
  8
0
 10
3840.1655393959790672
 20
133.6400293313926113
 30
0.0
 11
3840.1484882613240188
 21
133.634984661485305
 31
0.0
  0
LINE
  5
87FD
  8
0
 10
3840.1484882613240188
 20
133.634984661485305
 30
0.0
 11
3840.1484882612398906
 21
133.6238134641226907
 31
0.0
  0
LINE
  5
87FE
  8
0
 10
3840.1484882612398906
 20
133.6238134641226907
 30
0.0
 11
3840.1655392584029869
 21
133.6179009771371113
 31
0.0
  0
LINE
  5
87FF
  8
0
 10
3840.1655391885929021
 20
133.6074428679347932
 30
0.0
 11
3840.1484882612398906
 21
133.6007419518226982
 31
0.0
  0
LINE
  5
8800
  8
0
 10
3840.1484882612398906
 20
133.6007419518226982
 30
0.0
 11
3840.1484882612398906
 21
133.5865570648226992
 31
0.0
  0
LINE
  5
8801
  8
0
 10
3840.1484882612398906
 20
133.5865570648226992
 30
0.0
 11
3840.1655389990010008
 21
133.5790402553529077
 31
0.0
  0
ARC
  5
8802
  8
0
 10
3840.1679233806839875
 20
134.2088672848072122
 30
0.0
 40
0.7345768813876568
 50
269.813967316564117
 51
283.8077382344407056
  0
ARC
  5
8803
  8
0
 10
3840.1662817963051566
 20
134.2155467247712011
 30
0.0
 40
0.7414550873677479
 50
283.8077382344407056
 51
308.5795966197853772
  0
ARC
  5
8804
  8
0
 10
3840.1574842776030891
 20
136.7368322778384879
 30
0.0
 40
2.9737442667930991
 50
270.1552235390165038
 51
273.9151141352976992
  0
ARC
  5
8805
  8
0
 10
3840.7798074485649522
 20
127.6436074751161982
 30
0.0
 40
6.1407509711210944
 50
92.5590102394194503
 51
93.9151084468039556
  0
ARC
  5
8806
  8
0
 10
3840.530395630762996
 20
133.2241796000373881
 30
0.0
 40
0.5546081608890768
 50
85.5116587862275566
 51
92.5590102394194503
  0
ARC
  5
8807
  8
0
 10
3840.5623596762620764
 20
133.6313806336868026
 30
0.0
 40
0.1461545135681119
 50
62.1334165750367617
 51
85.5116587862275566
  0
ARC
  5
8808
  8
0
 10
3840.6055264404481022
 20
133.7285933340870088
 30
0.0
 40
0.0406940193427382
 50
339.4816109704432847
 51
51.8314868697826014
  0
ARC
  5
8809
  8
0
 10
3840.4087061421269027
 20
133.8099272768916137
 30
0.0
 40
0.2536380287125807
 50
308.7658724777435282
 51
337.8578778890340004
  0
ARC
  5
880A
  8
0
 10
3840.2053434639569787
 20
134.0439568505169916
 30
0.0
 40
0.5635752676132159
 50
285.717013161662976
 51
309.9888883355536109
  0
ARC
  5
880B
  8
0
 10
3840.1613008122290012
 20
134.220350812491688
 30
0.0
 40
0.7453241149489797
 50
270.3257532415221931
 51
285.3029104904646829
  0
ARC
  5
880C
  8
0
 10
3840.1666393419891392
 20
135.026682566337314
 30
0.0
 40
1.476232981520831
 50
269.9577185139576159
 51
271.9442169702958267
  0
ARC
  5
880D
  8
0
 10
3840.1897833257939965
 20
134.8011336901610093
 30
0.0
 40
1.249986718713326
 50
272.4986416689940256
 51
278.1263448066897013
  0
ARC
  5
880E
  8
0
 10
3840.280610664040978
 20
134.1650443556472112
 30
0.0
 40
0.6074454773480182
 50
278.1263448066897013
 51
285.9819434326656165
  0
ARC
  5
880F
  8
0
 10
3840.4041701633191224
 20
133.7336280872283112
 30
0.0
 40
0.1586839075605103
 50
285.9819434326656165
 51
301.8476934130450218
  0
ARC
  5
8810
  8
0
 10
3840.3719392344692096
 20
133.7409717064080894
 30
0.0
 40
0.1834410040904564
 50
309.2090597515741024
 51
316.1131492931210119
  0
ARC
  5
8811
  8
0
 10
3840.4637643195251258
 20
133.6527690638725971
 30
0.0
 40
0.0561165087628877
 50
316.0233520990385045
 51
359.0850631013178145
  0
ARC
  5
8812
  8
0
 10
3840.499008944101206
 20
133.7074037873248074
 30
0.0
 40
0.0209421286896199
 50
4.9600780435867833
 51
49.7007524824013913
  0
ARC
  5
8813
  8
0
 10
3840.4466760027871715
 20
133.6456932580940986
 30
0.0
 40
0.1018552065226188
 50
49.7007524824013913
 51
75.4578362332163692
  0
ARC
  5
8814
  8
0
 10
3840.2939793129457939
 20
133.1690701244284014
 30
0.0
 40
0.6022070790405279
 50
72.7806496265375955
 51
85.0719458612661157
  0
ARC
  5
8815
  8
0
 10
3840.2274834580848619
 20
134.0148260245902065
 30
0.0
 40
0.4281085535619858
 50
313.0769037922457869
 51
315.8957818169939173
  0
ARC
  5
8816
  8
0
 10
3840.5227468183879864
 20
133.7286537683505117
 30
0.0
 40
0.0169212335014852
 50
315.8957818169939173
 51
44.1026883441446671
  0
ARC
  5
8817
  8
0
 10
3840.4242211832788598
 20
133.5942151482005045
 30
0.0
 40
0.1833797133040367
 50
52.8762736561600093
 51
81.4782445226613703
  0
ARC
  5
8818
  8
0
 10
3840.4445601289189653
 20
133.9992118118321116
 30
0.0
 40
0.334924956980557
 50
282.9949870237639971
 51
296.2069929485882085
  0
ARC
  5
8819
  8
0
 10
3840.5645561704131978
 20
133.755422769465298
 30
0.0
 40
0.0632042416267336
 50
296.2069929485882085
 51
313.9636967687131914
  0
ARC
  5
881A
  8
0
 10
3834.3703765176378511
 20
140.2234170103602082
 30
0.0
 40
9.0188060667444283
 50
313.7626132613756909
 51
313.8524763257336758
  0
ARC
  5
881B
  8
0
 10
3840.5467474019887959
 20
133.8028224211194868
 30
0.0
 40
0.1098837411002604
 50
310.8641763818584991
 51
323.4888606980711074
  0
ARC
  5
881C
  8
0
 10
3840.618233159420015
 20
133.7477414330477075
 30
0.0
 40
0.0197323766419836
 50
328.5429046659245955
 51
15.8918695596017105
  0
ARC
  5
881D
  8
0
 10
3840.2112745054528204
 20
134.5306083654047882
 30
0.0
 40
0.9743726570861282
 50
274.1446310199547725
 51
279.5533792662656083
  0
ARC
  5
881E
  8
0
 10
3840.293257850703867
 20
134.0434835549787067
 30
0.0
 40
0.4803971011815419
 50
279.5533792662656083
 51
287.7636225626861233
  0
ARC
  5
881F
  8
0
 10
3840.4045545252938609
 20
133.6960773426546893
 30
0.0
 40
0.1155984908002789
 50
287.7636225626861233
 51
305.5249559989653108
  0
ARC
  5
8820
  8
0
 10
3840.4582612518138376
 20
133.62085261687551
 30
0.0
 40
0.0231692105795522
 50
305.5249559989653108
 51
333.2376034287539142
  0
ARC
  5
8821
  8
0
 10
3840.4666364254107975
 20
133.6166289091837882
 30
0.0
 40
0.0137892724436708
 50
333.2376034287539142
 51
35.8241543710364283
  0
ARC
  5
8822
  8
0
 10
3840.4001191218249005
 20
133.5383685002153982
 30
0.0
 40
0.1161466659119594
 50
48.0128811479280415
 51
77.1214246889332458
  0
ARC
  5
8823
  8
0
 10
3840.2332855829281471
 20
132.9011735492495916
 30
0.0
 40
0.7747718354446207
 50
75.5967139532059491
 51
86.2829972411474557
  0
ARC
  5
8824
  8
0
 10
3840.1677801955911491
 20
132.1947014167216139
 30
0.0
 40
1.4841334694132899
 50
85.5275380254328041
 51
89.5824867039993222
  0
ARC
  5
8825
  8
0
 10
3840.1655140035190925
 20
132.0934742861315954
 30
0.0
 40
1.5853751628147541
 50
89.5272464613832568
 51
89.9990725812376269
  0
LINE
  5
8826
  8
0
 10
3840.5198736736369938
 20
133.6518729964327861
 30
0.0
 11
3840.5198726483658902
 21
133.7092144773517077
 31
0.0
  0
ARC
  5
8827
  8
0
 10
3840.1701793233678472
 20
134.0941027538090111
 30
0.0
 40
0.5468111174899661
 50
274.8830517884215965
 51
282.9199304645987922
  0
ARC
  5
8828
  8
0
 10
3840.1649257818071419
 20
134.1419121889342136
 30
0.0
 40
0.5946108998314187
 50
282.3832897376785809
 51
300.835979024359915
  0
LINE
  5
8829
  8
0
 10
3840.2661059939218831
 20
133.5571870507149015
 30
0.0
 11
3840.2490582250338775
 21
133.555331716110004
 31
0.0
  0
LINE
  5
882A
  8
0
 10
3840.2490582250338775
 20
133.555331716110004
 30
0.0
 11
3840.2482188393009892
 21
133.5551706630147919
 31
0.0
  0
LINE
  5
882B
  8
0
 10
3840.2482188393009892
 20
133.5551706630147919
 30
0.0
 11
3840.2482188105318528
 21
133.5530157110150071
 31
0.0
  0
LINE
  5
882C
  8
0
 10
3840.2482188105318528
 20
133.5530157110150071
 30
0.0
 11
3840.2490581955730704
 21
133.5531236955089014
 31
0.0
  0
LINE
  5
882D
  8
0
 10
3840.2490581955730704
 20
133.5531236955089014
 30
0.0
 11
3840.2660746915607888
 21
133.5560888961022954
 31
0.0
  0
LINE
  5
882E
  8
0
 10
3840.2660746915607888
 20
133.5560888961022954
 30
0.0
 11
3840.2661059894339814
 21
133.5571870502265028
 31
0.0
  0
LINE
  5
882F
  8
0
 10
3840.2939449514219632
 20
133.5652825362190868
 30
0.0
 11
3840.2768971779519234
 21
133.5630700240724877
 31
0.0
  0
LINE
  5
8830
  8
0
 10
3840.2768971779519234
 20
133.5630700240724877
 30
0.0
 11
3840.2598493774071358
 21
133.5588425632086
 31
0.0
  0
LINE
  5
8831
  8
0
 10
3840.2598493774071358
 20
133.5588425632086
 30
0.0
 11
3840.2598493501359371
 21
133.5568033624682016
 31
0.0
  0
LINE
  5
8832
  8
0
 10
3840.2598493501359371
 20
133.5568033624682016
 30
0.0
 11
3840.2768971237960614
 21
133.5590126987495978
 31
0.0
  0
LINE
  5
8833
  8
0
 10
3840.2768971237960614
 20
133.5590126987495978
 30
0.0
 11
3840.2939449247351149
 21
133.5632645783331043
 31
0.0
  0
LINE
  5
8834
  8
0
 10
3840.2939449247351149
 20
133.5632645783331043
 30
0.0
 11
3840.2939449514219632
 21
133.5652825362190868
 31
0.0
  0
LINE
  5
8835
  8
0
 10
3840.2598494533840494
 20
133.5642691858014928
 30
0.0
 11
3840.2768972107378431
 21
133.565525035847287
 31
0.0
  0
LINE
  5
8836
  8
0
 10
3840.2768972107378431
 20
133.565525035847287
 30
0.0
 11
3840.2939450238927748
 21
133.5706899204049023
 31
0.0
  0
LINE
  5
8837
  8
0
 10
3840.2939450238927748
 20
133.5706899204049023
 30
0.0
 11
3840.2939450758372004
 21
133.5745808129547072
 31
0.0
  0
LINE
  5
8838
  8
0
 10
3840.2939450758372004
 20
133.5745808129547072
 30
0.0
 11
3840.2768973146280587
 21
133.5733068208247118
 31
0.0
  0
LINE
  5
8839
  8
0
 10
3840.2768973146280587
 20
133.5733068208247118
 30
0.0
 11
3840.2598495018251015
 21
133.5681600781059046
 31
0.0
  0
LINE
  5
883A
  8
0
 10
3840.2598495018251015
 20
133.5681600781059046
 30
0.0
 11
3840.2598494533840494
 21
133.5642691858014928
 31
0.0
  0
LINE
  5
883B
  8
0
 10
3840.2598514671130943
 20
133.5769618825985958
 30
0.0
 11
3840.2768973634210852
 21
133.5769616550296917
 31
0.0
  0
LINE
  5
883C
  8
0
 10
3840.2768973634210852
 20
133.5769616550296917
 30
0.0
 11
3840.2939451936022124
 21
133.5834018556539036
 31
0.0
  0
LINE
  5
883D
  8
0
 10
3840.2939451936022124
 20
133.5834018556539036
 30
0.0
 11
3840.2938339079250909
 21
133.589161141839412
 31
0.0
  0
LINE
  5
883E
  8
0
 10
3840.2938339079250909
 20
133.589161141839412
 30
0.0
 11
3840.2768975215299179
 21
133.5888046956002029
 31
0.0
  0
LINE
  5
883F
  8
0
 10
3840.2768975215299179
 20
133.5888046956002029
 30
0.0
 11
3840.2598496959881231
 21
133.5827044669410952
 31
0.0
  0
LINE
  5
8840
  8
0
 10
3840.2598496959881231
 20
133.5827044669410952
 30
0.0
 11
3840.2598514671130943
 21
133.5769618825985958
 31
0.0
  0
LINE
  5
8841
  8
0
 10
3840.259849859166934
 20
133.594928475985796
 30
0.0
 11
3840.2768975956960276
 21
133.5943545451299883
 31
0.0
  0
LINE
  5
8842
  8
0
 10
3840.2768975956960276
 20
133.5943545451299883
 30
0.0
 11
3840.2939454344978003
 21
133.6014490497676093
 31
0.0
  0
LINE
  5
8843
  8
0
 10
3840.2939454344978003
 20
133.6014490497676093
 30
0.0
 11
3840.2939455372138582
 21
133.6091399100515957
 31
0.0
  0
LINE
  5
8844
  8
0
 10
3840.2939455372138582
 20
133.6091399100515957
 30
0.0
 11
3840.2768978003791744
 21
133.6096916740451093
 31
0.0
  0
LINE
  5
8845
  8
0
 10
3840.2768978003791744
 20
133.6096916740451093
 30
0.0
 11
3840.2598499612668093
 21
133.6025750046393057
 31
0.0
  0
LINE
  5
8846
  8
0
 10
3840.2598499612668093
 20
133.6025750046393057
 30
0.0
 11
3840.259849859166934
 21
133.594928475985796
 31
0.0
  0
LINE
  5
8847
  8
0
 10
3840.2598501720690365
 20
133.6183690772427042
 30
0.0
 11
3840.2598503010622153
 21
133.6280317710628083
 31
0.0
  0
LINE
  5
8848
  8
0
 10
3840.2598503010622153
 20
133.6280317710628083
 30
0.0
 11
3840.2768981551348588
 21
133.6362644963319042
 31
0.0
  0
LINE
  5
8849
  8
0
 10
3840.2768981551348588
 20
133.6362644963319042
 30
0.0
 11
3840.2939458794271559
 21
133.6347730734059951
 31
0.0
  0
LINE
  5
884A
  8
0
 10
3840.2939458794271559
 20
133.6347730734059951
 30
0.0
 11
3840.2939457494708222
 21
133.6250387974031071
 31
0.0
  0
LINE
  5
884B
  8
0
 10
3840.2939457494708222
 20
133.6250387974031071
 30
0.0
 11
3840.2768978961821631
 21
133.6168676918296114
 31
0.0
  0
LINE
  5
884C
  8
0
 10
3840.2768978961821631
 20
133.6168676918296114
 30
0.0
 11
3840.2598501720690365
 21
133.6183690772427042
 31
0.0
  0
LINE
  5
884D
  8
0
 10
3840.2598505631731314
 20
133.6476674043607886
 30
0.0
 11
3840.2598507216971484
 21
133.659536729379397
 31
0.0
  0
LINE
  5
884E
  8
0
 10
3840.2598507216971484
 20
133.659536729379397
 30
0.0
 11
3840.2768985926609275
 21
133.6690370560866086
 31
0.0
  0
LINE
  5
884F
  8
0
 10
3840.2768985926609275
 20
133.6690370560866086
 30
0.0
 11
3840.2939463035818335
 21
133.6665452712867932
 31
0.0
  0
LINE
  5
8850
  8
0
 10
3840.2939463035818335
 20
133.6665452712867932
 30
0.0
 11
3840.293946143714038
 21
133.6545694418475136
 31
0.0
  0
LINE
  5
8851
  8
0
 10
3840.293946143714038
 20
133.6545694418475136
 30
0.0
 11
3840.276898274315954
 21
133.645191548518909
 31
0.0
  0
LINE
  5
8852
  8
0
 10
3840.276898274315954
 20
133.645191548518909
 30
0.0
 11
3840.2598505631731314
 21
133.6476674043607886
 31
0.0
  0
LINE
  5
8853
  8
0
 10
3840.2768971237960614
 20
133.5590126987495978
 30
0.0
 11
3840.2768971779519234
 21
133.5630700240724877
 31
0.0
  0
LINE
  5
8854
  8
0
 10
3840.2768972107378431
 20
133.565525035847287
 30
0.0
 11
3840.2768973146280587
 21
133.5733068208247118
 31
0.0
  0
LINE
  5
8855
  8
0
 10
3840.2768973634210852
 20
133.5769616550296917
 30
0.0
 11
3840.2768975215299179
 21
133.5888046956002029
 31
0.0
  0
LINE
  5
8856
  8
0
 10
3840.2768975956960276
 20
133.5943545451299883
 30
0.0
 11
3840.2773934752181049
 21
133.6096756311222009
 31
0.0
  0
LINE
  5
8857
  8
0
 10
3840.2768978961821631
 20
133.6168676918296114
 30
0.0
 11
3840.2768981551348588
 21
133.6362644963319042
 31
0.0
  0
LINE
  5
8858
  8
0
 10
3840.276898274315954
 20
133.645191548518909
 30
0.0
 11
3840.2768985926609275
 21
133.6690370560866086
 31
0.0
  0
LINE
  5
8859
  8
0
 10
3840.2876883089561488
 20
133.5649794841839082
 30
0.0
 11
3840.2876883484709651
 21
133.567939400559311
 31
0.0
  0
LINE
  5
885A
  8
0
 10
3840.2876883484709651
 20
133.567939400559311
 30
0.0
 11
3840.3047361663589072
 21
133.5734587266157973
 31
0.0
  0
LINE
  5
885B
  8
0
 10
3840.3047361663589072
 20
133.5734587266157973
 30
0.0
 11
3840.3217839450940119
 21
133.5760529546033126
 31
0.0
  0
LINE
  5
885C
  8
0
 10
3840.3217839450940119
 20
133.5760529546033126
 30
0.0
 11
3840.3217839057811034
 21
133.5731065987322097
 31
0.0
  0
LINE
  5
885D
  8
0
 10
3840.3217839057811034
 20
133.5731065987322097
 30
0.0
 11
3840.3047360900882268
 21
133.5677457538114083
 31
0.0
  0
LINE
  5
885E
  8
0
 10
3840.3047360900882268
 20
133.5677457538114083
 30
0.0
 11
3840.2876883089561488
 21
133.5649794841839082
 31
0.0
  0
LINE
  5
885F
  8
0
 10
3840.2876883089561488
 20
133.5649794841839082
 30
0.0
 11
3840.2876883484718746
 21
133.56793940055951
 31
0.0
  0
LINE
  5
8860
  8
0
 10
3840.2876884434490421
 20
133.5750536140695885
 30
0.0
 11
3840.2876885078230771
 21
133.5798754826709001
 31
0.0
  0
LINE
  5
8861
  8
0
 10
3840.2876885078230771
 20
133.5798754826709001
 30
0.0
 11
3840.30473633831798
 21
133.5863392001510874
 31
0.0
  0
LINE
  5
8862
  8
0
 10
3840.30473633831798
 20
133.5863392001510874
 30
0.0
 11
3840.32178410462393
 21
133.5880025972022054
 31
0.0
  0
LINE
  5
8863
  8
0
 10
3840.32178410462393
 20
133.5880025972022054
 30
0.0
 11
3840.3217840401398462
 21
133.5831671680107036
 31
0.0
  0
LINE
  5
8864
  8
0
 10
3840.3217840401398462
 20
133.5831671680107036
 30
0.0
 11
3840.3047362093911943
 21
133.5766820474892995
 31
0.0
  0
LINE
  5
8865
  8
0
 10
3840.3047362093911943
 20
133.5766820474892995
 30
0.0
 11
3840.2876884434490421
 21
133.5750536140695885
 31
0.0
  0
LINE
  5
8866
  8
0
 10
3840.2876886484259558
 20
133.5904072769816082
 30
0.0
 11
3840.2876887380029984
 21
133.5971174781838045
 31
0.0
  0
LINE
  5
8867
  8
0
 10
3840.2876887380029984
 20
133.5971174781838045
 30
0.0
 11
3840.3047365818920298
 21
133.604582748646294
 31
0.0
  0
LINE
  5
8868
  8
0
 10
3840.3047365818920298
 20
133.604582748646294
 30
0.0
 11
3840.3217843330498908
 21
133.605112608408291
 31
0.0
  0
LINE
  5
8869
  8
0
 10
3840.3217843330498908
 20
133.605112608408291
 30
0.0
 11
3840.3217842458998348
 21
133.5985845654587933
 31
0.0
  0
LINE
  5
886A
  8
0
 10
3840.3217842458998348
 20
133.5985845654587933
 30
0.0
 11
3840.3047364021508656
 21
133.5911208905714034
 31
0.0
  0
LINE
  5
886B
  8
0
 10
3840.3047364021508656
 20
133.5911208905714034
 30
0.0
 11
3840.2876886484259558
 21
133.5904072769816082
 31
0.0
  0
LINE
  5
886C
  8
0
 10
3840.2876889255489914
 20
133.6111652312769138
 30
0.0
 11
3840.2876890414540867
 21
133.6198467795790066
 31
0.0
  0
LINE
  5
886D
  8
0
 10
3840.2876890414540867
 20
133.6198467795790066
 30
0.0
 11
3840.3047368998409183
 21
133.6284047571458018
 31
0.0
  0
LINE
  5
886E
  8
0
 10
3840.3047368998409183
 20
133.6284047571458018
 30
0.0
 11
3840.3217846418729096
 21
133.6282447528741102
 31
0.0
  0
LINE
  5
886F
  8
0
 10
3840.3217846418729096
 20
133.6282447528741102
 30
0.0
 11
3840.3217845249828315
 21
133.6194891965621991
 31
0.0
  0
LINE
  5
8870
  8
0
 10
3840.3217845249828315
 20
133.6194891965621991
 30
0.0
 11
3840.3047366705309287
 21
133.611223437397399
 31
0.0
  0
LINE
  5
8871
  8
0
 10
3840.3047366705309287
 20
133.611223437397399
 30
0.0
 11
3840.2876889263297926
 21
133.611223664996686
 31
0.0
  0
LINE
  5
8872
  8
0
 10
3840.2876892787830911
 20
133.6376220942881048
 30
0.0
 11
3840.2876894230471407
 21
133.6484276656427994
 31
0.0
  0
LINE
  5
8873
  8
0
 10
3840.2876894230471407
 20
133.6484276656427994
 30
0.0
 11
3840.3047372978421663
 21
133.6582161358817018
 31
0.0
  0
LINE
  5
8874
  8
0
 10
3840.3047372978421663
 20
133.6582161358817018
 30
0.0
 11
3840.321292158776032
 21
133.6582159148682933
 31
0.0
  0
LINE
  5
8875
  8
0
 10
3840.321292158776032
 20
133.6582159148682933
 30
0.0
 11
3840.3214696407790143
 21
133.6460028626482881
 31
0.0
  0
LINE
  5
8876
  8
0
 10
3840.3214696407790143
 20
133.6460028626482881
 30
0.0
 11
3840.3047370078729728
 21
133.6364917649839867
 31
0.0
  0
LINE
  5
8877
  8
0
 10
3840.3047370078729728
 20
133.6364917649839867
 30
0.0
 11
3840.2876892787608085
 21
133.6376220942898954
 31
0.0
  0
LINE
  5
8878
  8
0
 10
3840.3155272047270046
 20
133.5684302250249118
 30
0.0
 11
3840.3155272314070316
 21
133.5704308467848023
 31
0.0
  0
LINE
  5
8879
  8
0
 10
3840.3155272314070316
 20
133.5704308467848023
 30
0.0
 11
3840.3325750545532173
 21
133.5763494253305907
 31
0.0
  0
LINE
  5
887A
  8
0
 10
3840.3325750545532173
 20
133.5763494253305907
 30
0.0
 11
3840.3496228518438329
 21
133.5803235775603071
 31
0.0
  0
LINE
  5
887B
  8
0
 10
3840.3496228518438329
 20
133.5803235775603071
 30
0.0
 11
3840.3496228335779961
 21
133.5789553421936944
 31
0.0
  0
LINE
  5
887C
  8
0
 10
3840.3496228335779961
 20
133.5789553421936944
 30
0.0
 11
3840.3325750016520033
 21
133.5723819692209133
 31
0.0
  0
LINE
  5
887D
  8
0
 10
3840.3325750016520033
 20
133.5723819692209133
 30
0.0
 11
3840.3155272047270046
 21
133.5684302233225935
 31
0.0
  0
LINE
  5
887E
  8
0
 10
3840.3155273034171842
 20
133.5758225335767122
 30
0.0
 11
3840.3155273553211373
 21
133.5797134260851067
 31
0.0
  0
LINE
  5
887F
  8
0
 10
3840.3155273553211373
 20
133.5797134260851067
 30
0.0
 11
3840.3325751909719656
 21
133.5865678351296992
 31
0.0
  0
LINE
  5
8880
  8
0
 10
3840.3325751909719656
 20
133.5865678351296992
 30
0.0
 11
3840.3496229753041007
 21
133.5895751704752001
 31
0.0
  0
LINE
  5
8881
  8
0
 10
3840.3496229753041007
 20
133.5895751704752001
 30
0.0
 11
3840.3496229233778649
 21
133.5856842779361955
 31
0.0
  0
LINE
  5
8882
  8
0
 10
3840.3496229233778649
 20
133.5856842779361955
 30
0.0
 11
3840.3325750871299533
 21
133.57878605005601
 31
0.0
  0
LINE
  5
8883
  8
0
 10
3840.3325750871299533
 20
133.57878605005601
 30
0.0
 11
3840.3155273033539743
 21
133.5758225335671057
 31
0.0
  0
LINE
  5
8884
  8
0
 10
3840.3155274733130682
 20
133.5885501660746115
 30
0.0
 11
3840.3155275505168902
 21
133.5943313295225039
 31
0.0
  0
LINE
  5
8885
  8
0
 10
3840.3155275505168902
 20
133.5943313295225039
 30
0.0
 11
3840.3325753993190119
 21
133.6021739661005938
 31
0.0
  0
LINE
  5
8886
  8
0
 10
3840.3325753993190119
 20
133.6021739661005938
 30
0.0
 11
3840.3496231713311317
 21
133.604258291441397
 31
0.0
  0
LINE
  5
8887
  8
0
 10
3840.3496231713311317
 20
133.604258291441397
 30
0.0
 11
3840.3496230937098517
 21
133.5984428969973976
 31
0.0
  0
LINE
  5
8888
  8
0
 10
3840.3496230937098517
 20
133.5984428969973976
 30
0.0
 11
3840.3325752445939543
 21
133.5905778521409104
 31
0.0
  0
LINE
  5
8889
  8
0
 10
3840.3325752445939543
 20
133.5905778521409104
 30
0.0
 11
3840.3155274733130682
 21
133.5885501660746115
 31
0.0
  0
LINE
  5
888A
  8
0
 10
3840.3155277150981419
 20
133.6066631576692885
 30
0.0
 11
3840.3155278182521215
 21
133.6143902295401915
 31
0.0
  0
LINE
  5
888B
  8
0
 10
3840.3155278182521215
 20
133.6143902295401915
 30
0.0
 11
3840.3325756814901979
 21
133.6233054672414085
 31
0.0
  0
LINE
  5
888C
  8
0
 10
3840.3325756814901979
 20
133.6233054672414085
 30
0.0
 11
3840.3496234413751154
 21
133.6244845181327037
 31
0.0
  0
LINE
  5
888D
  8
0
 10
3840.3496234413751154
 20
133.6244845181327037
 30
0.0
 11
3840.3496233372597999
 21
133.6166858581188137
 31
0.0
  0
LINE
  5
888E
  8
0
 10
3840.3496233372597999
 20
133.6166858581188137
 30
0.0
 11
3840.3325754741699711
 21
133.6077805810278107
 31
0.0
  0
LINE
  5
888F
  8
0
 10
3840.3325754741699711
 20
133.6077805810278107
 30
0.0
 11
3840.3155277151508926
 21
133.6066631576215116
 31
0.0
  0
LINE
  5
8890
  8
0
 10
3840.3155280316609606
 20
133.6303747964014121
 30
0.0
 11
3840.3155281624472082
 21
133.6401676385233088
 31
0.0
  0
LINE
  5
8891
  8
0
 10
3840.3155281624472082
 20
133.6401676385233088
 30
0.0
 11
3840.332576041655102
 21
133.6502824381072969
 31
0.0
  0
LINE
  5
8892
  8
0
 10
3840.332576041655102
 20
133.6502824381072969
 30
0.0
 11
3840.3496237892832141
 21
133.6505475154426108
 31
0.0
  0
LINE
  5
8893
  8
0
 10
3840.3496237892832141
 20
133.6505475154426108
 30
0.0
 11
3840.3496236570967994
 21
133.6406386375134048
 31
0.0
  0
LINE
  5
8894
  8
0
 10
3840.3496236570967994
 20
133.6406386375134048
 30
0.0
 11
3840.3325757785578389
 21
133.6305818478741969
 31
0.0
  0
LINE
  5
8895
  8
0
 10
3840.3325757785578389
 20
133.6305818478741969
 30
0.0
 11
3840.3155280316609606
 21
133.6303747964014121
 31
0.0
  0
LINE
  5
8896
  8
0
 10
3840.3433661400449637
 20
133.5748506585451025
 30
0.0
 11
3840.3433661521121394
 21
133.5757532537064094
 31
0.0
  0
LINE
  5
8897
  8
0
 10
3840.3433661521121394
 20
133.5757532537064094
 30
0.0
 11
3840.3604139811068308
 21
133.5821059378274072
 31
0.0
  0
LINE
  5
8898
  8
0
 10
3840.3604139811068308
 20
133.5821059378274072
 30
0.0
 11
3840.3774617979338473
 21
133.5875458891773064
 31
0.0
  0
LINE
  5
8899
  8
0
 10
3840.3774617979338473
 20
133.5875458891773064
 30
0.0
 11
3840.3774617881131235
 21
133.5868102509556934
 31
0.0
  0
LINE
  5
889A
  8
0
 10
3840.3433662002471465
 20
133.5793600881650889
 30
0.0
 11
3840.3433662394390922
 21
133.5822957381238041
 31
0.0
  0
LINE
  5
889B
  8
0
 10
3840.3433662394390922
 20
133.5822957381238041
 30
0.0
 11
3840.3604140808261036
 21
133.5895753731342097
 31
0.0
  0
LINE
  5
889C
  8
0
 10
3840.3604140808261036
 20
133.5895753731342097
 30
0.0
 11
3840.3774618839479444
 21
133.5939909152585017
 31
0.0
  0
LINE
  5
889D
  8
0
 10
3840.3774618839479444
 20
133.5939909152585017
 30
0.0
 11
3840.3774618450620437
 21
133.5910759893770035
 31
0.0
  0
LINE
  5
889E
  8
0
 10
3840.3774618450620437
 20
133.5910759893770035
 30
0.0
 11
3840.3604140027978247
 21
133.5837244660044973
 31
0.0
  0
LINE
  5
889F
  8
0
 10
3840.3604140027978247
 20
133.5837244660044973
 30
0.0
 11
3840.3433662002807978
 21
133.5793600881443126
 31
0.0
  0
LINE
  5
88A0
  8
0
 10
3840.3433663344599154
 20
133.5894099515398921
 30
0.0
 11
3840.3433663991518188
 21
133.5942560866342035
 31
0.0
  0
LINE
  5
88A1
  8
0
 10
3840.3433663991518188
 20
133.5942560866342035
 30
0.0
 11
3840.3604142509448138
 21
133.6023180326660054
 31
0.0
  0
LINE
  5
88A2
  8
0
 10
3840.3604142509448138
 20
133.6023180326660054
 30
0.0
 11
3840.3774620438862257
 21
133.6059719878973908
 31
0.0
  0
LINE
  5
88A3
  8
0
 10
3840.3774620438862257
 20
133.6059719878973908
 30
0.0
 11
3840.3774619821138003
 21
133.6013418250479106
 31
0.0
  0
LINE
  5
88A4
  8
0
 10
3840.3774619821138003
 20
133.6013418250479106
 30
0.0
 11
3840.360414123800183
 21
133.5927986940199048
 31
0.0
  0
LINE
  5
88A5
  8
0
 10
3840.360414123800183
 20
133.5927986940199048
 30
0.0
 11
3840.3433663344599154
 21
133.5894099515398921
 31
0.0
  0
LINE
  5
88A6
  8
0
 10
3840.3433665409338573
 20
133.6048776790694035
 30
0.0
 11
3840.3433666264891144
 21
133.611287450096512
 31
0.0
  0
LINE
  5
88A7
  8
0
 10
3840.3433666264891144
 20
133.611287450096512
 30
0.0
 11
3840.3604144999749224
 21
133.6209728507303964
 31
0.0
  0
LINE
  5
88A8
  8
0
 10
3840.3604144999749224
 20
133.6209728507303964
 30
0.0
 11
3840.3774622740038467
 21
133.6232056132978983
 31
0.0
  0
LINE
  5
88A9
  8
0
 10
3840.3774622740038467
 20
133.6232056132978983
 30
0.0
 11
3840.3774621867560199
 21
133.6166703144747032
 31
0.0
  0
LINE
  5
88AA
  8
0
 10
3840.3774621867560199
 20
133.6166703144747032
 30
0.0
 11
3840.3604143180109531
 21
133.607339470759797
 31
0.0
  0
LINE
  5
88AB
  8
0
 10
3840.3604143180109531
 20
133.607339470759797
 30
0.0
 11
3840.3433665409338573
 21
133.6048776790694035
 31
0.0
  0
LINE
  5
88AC
  8
0
 10
3840.3433668215479884
 20
133.6258982569312934
 30
0.0
 11
3840.3433669392320553
 21
133.634712379353914
 31
0.0
  0
LINE
  5
88AD
  8
0
 10
3840.3433669392320553
 20
133.634712379353914
 30
0.0
 11
3840.360414823409883
 21
133.6451957665744885
 31
0.0
  0
LINE
  5
88AE
  8
0
 10
3840.360414823409883
 20
133.6451957665744885
 30
0.0
 11
3840.3774625895789541
 21
133.6468435583458927
 31
0.0
  0
LINE
  5
88AF
  8
0
 10
3840.3774625895789541
 20
133.6468435583458927
 30
0.0
 11
3840.3774624703892187
 21
133.6379157133360138
 31
0.0
  0
LINE
  5
88B0
  8
0
 10
3840.3774624703892187
 20
133.6379157133360138
 30
0.0
 11
3840.3604145865388091
 21
133.6274554155673115
 31
0.0
  0
LINE
  5
88B1
  8
0
 10
3840.3604145865388091
 20
133.6274554155673115
 30
0.0
 11
3840.3433668215479884
 21
133.6258982569312934
 31
0.0
  0
LINE
  5
88B2
  8
0
 10
3840.3744307312140336
 20
133.6629802465905925
 30
0.0
 11
3840.3604149334450995
 21
133.6534401742650005
 31
0.0
  0
LINE
  5
88B3
  8
0
 10
3840.3604149334450995
 20
133.6534401742650005
 30
0.0
 11
3840.3433671805842096
 21
133.6527915880585908
 31
0.0
  0
LINE
  5
88B4
  8
0
 10
3840.3433671805842096
 20
133.6527915880585908
 30
0.0
 11
3840.3433673275399087
 21
133.6638010940320953
 31
0.0
  0
LINE
  5
88B5
  8
0
 10
3840.3433673275399087
 20
133.6638010940320953
 30
0.0
 11
3840.3485884418250862
 21
133.6673175616444098
 31
0.0
  0
LINE
  5
88B6
  8
0
 10
3840.345409961274072
 20
133.6677891770441988
 30
0.0
 11
3840.3325761629030239
 21
133.6593637181549923
 31
0.0
  0
LINE
  5
88B7
  8
0
 10
3840.3325761629030239
 20
133.6593637181549923
 30
0.0
 11
3840.3155284284939626
 21
133.6600956695696141
 31
0.0
  0
LINE
  5
88B8
  8
0
 10
3840.3155284284939626
 20
133.6600956695696141
 30
0.0
 11
3840.3155285816528703
 21
133.6715679197891973
 31
0.0
  0
LINE
  5
88B9
  8
0
 10
3840.3712052331220548
 20
133.5930822070760939
 30
0.0
 11
3840.3712052850901273
 21
133.5969730996048099
 31
0.0
  0
LINE
  5
88BA
  8
0
 10
3840.3712052850901273
 20
133.5969730996048099
 30
0.0
 11
3840.3882531454942182
 21
133.6056847132618088
 31
0.0
  0
LINE
  5
88BB
  8
0
 10
3840.3882531454942182
 20
133.6056847132618088
 30
0.0
 11
3840.4053009552098956
 21
133.6105919831165068
 31
0.0
  0
LINE
  5
88BC
  8
0
 10
3840.4053009552098956
 20
133.6105919831165068
 30
0.0
 11
3840.4053009032650152
 21
133.6067010906168093
 31
0.0
  0
LINE
  5
88BD
  8
0
 10
3840.4053009032650152
 20
133.6067010906168093
 30
0.0
 11
3840.3882530416049121
 21
133.5979029283438138
 31
0.0
  0
LINE
  5
88BE
  8
0
 10
3840.3882530416049121
 20
133.5979029283438138
 30
0.0
 11
3840.3712052331220548
 21
133.5930822070760939
 31
0.0
  0
LINE
  5
88BF
  8
0
 10
3840.3712051359998441
 20
133.5858056119058119
 30
0.0
 11
3840.3712051618967962
 21
133.5877454947057004
 31
0.0
  0
LINE
  5
88C0
  8
0
 10
3840.3712051618967962
 20
133.5877454947057004
 30
0.0
 11
3840.388253009528853
 21
133.5954944148784875
 31
0.0
  0
LINE
  5
88C1
  8
0
 10
3840.388253009528853
 20
133.5954944148784875
 30
0.0
 11
3840.4053010203288068
 21
133.6014103666113897
 31
0.0
  0
LINE
  5
88C2
  8
0
 10
3840.4053010203288068
 20
133.6014103666113897
 30
0.0
 11
3840.4053008074110949
 21
133.5995211859174958
 31
0.0
  0
LINE
  5
88C3
  8
0
 10
3840.4053008074110949
 20
133.5995211859174958
 30
0.0
 11
3840.388252958378871
 21
133.5916644594194906
 31
0.0
  0
LINE
  5
88C4
  8
0
 10
3840.388252958378871
 20
133.5916644594194906
 30
0.0
 11
3840.3712056005069826
 21
133.5858057631199074
 31
0.0
  0
LINE
  5
88C5
  8
0
 10
3840.3712054037741837
 20
133.6058648140090099
 30
0.0
 11
3840.3712054817879107
 21
133.6117067162942931
 31
0.0
  0
LINE
  5
88C6
  8
0
 10
3840.3712054817879107
 20
133.6117067162942931
 30
0.0
 11
3840.3882533560531556
 21
133.6214564563929912
 31
0.0
  0
LINE
  5
88C7
  8
0
 10
3840.3882533560531556
 20
133.6214564563929912
 30
0.0
 11
3840.405301153200071
 21
133.6254222903409925
 31
0.0
  0
LINE
  5
88C8
  8
0
 10
3840.405301153200071
 20
133.6254222903409925
 30
0.0
 11
3840.4051491149130015
 21
133.61943856788929
 31
0.0
  0
LINE
  5
88C9
  8
0
 10
3840.4051491149130015
 20
133.61943856788929
 30
0.0
 11
3840.388253199384053
 21
133.6097228416695941
 31
0.0
  0
LINE
  5
88CA
  8
0
 10
3840.388253199384053
 20
133.6097228416695941
 30
0.0
 11
3840.3712054037978305
 21
133.6058648140136995
 31
0.0
  0
LINE
  5
88CB
  8
0
 10
3840.3712056486920119
 20
133.6242084685956968
 30
0.0
 11
3840.3712057443672165
 21
133.6313749897763898
 31
0.0
  0
LINE
  5
88CC
  8
0
 10
3840.3712057443672165
 20
133.6313749897763898
 30
0.0
 11
3840.3882536431237895
 21
133.6429629509227084
 31
0.0
  0
LINE
  5
88CD
  8
0
 10
3840.3882536431237895
 20
133.6429629509227084
 30
0.0
 11
3840.4053014282790173
 21
133.6460269445132951
 31
0.0
  0
LINE
  5
88CE
  8
0
 10
3840.4053014282790173
 20
133.6460269445132951
 30
0.0
 11
3840.4053013220668618
 21
133.6380662393490013
 31
0.0
  0
LINE
  5
88CF
  8
0
 10
3840.4053013220668618
 20
133.6380662393490013
 30
0.0
 11
3840.3882534320641753
 21
133.6271500108867087
 31
0.0
  0
LINE
  5
88D0
  8
0
 10
3840.3882534320641753
 20
133.6271500108867087
 30
0.0
 11
3840.3712056486920119
 21
133.6242084685023883
 31
0.0
  0
LINE
  5
88D1
  8
0
 10
3840.3990924114559675
 20
133.6579955181510968
 30
0.0
 11
3840.3882537423742178
 21
133.6503936196652944
 31
0.0
  0
LINE
  5
88D2
  8
0
 10
3840.3882537423742178
 20
133.6503936196652944
 30
0.0
 11
3840.3712059709691857
 21
133.6483484130002921
 31
0.0
  0
LINE
  5
88D3
  8
0
 10
3840.3712059709691857
 20
133.6483484130002921
 30
0.0
 11
3840.3712061370069932
 21
133.6607853760262117
 31
0.0
  0
LINE
  5
88D4
  8
0
 10
3840.3990441712689972
 20
133.5997128565458922
 30
0.0
 11
3840.3990442099729989
 21
133.6026119202456073
 31
0.0
  0
LINE
  5
88D5
  8
0
 10
3840.3990442099729989
 20
133.6026119202456073
 30
0.0
 11
3840.4160920772728787
 21
133.611834846537505
 31
0.0
  0
LINE
  5
88D6
  8
0
 10
3840.4160920772728787
 20
133.611834846537505
 30
0.0
 11
3840.4331399076017988
 21
133.6182893776482956
 31
0.0
  0
LINE
  5
88D7
  8
0
 10
3840.4331399076017988
 20
133.6182893776482956
 30
0.0
 11
3840.433139869374827
 21
133.6154205225797114
 31
0.0
  0
LINE
  5
88D8
  8
0
 10
3840.433139869374827
 20
133.6154205225797114
 30
0.0
 11
3840.4160920002500461
 21
133.6060662509189001
 31
0.0
  0
LINE
  5
88D9
  8
0
 10
3840.4160920002500461
 20
133.6060662509189001
 30
0.0
 11
3840.399044171290825
 21
133.5997128565655032
 31
0.0
  0
LINE
  5
88DA
  8
0
 10
3840.3990443049501664
 20
133.6097261336450117
 30
0.0
 11
3840.3990443701359254
 21
133.6146088549614035
 31
0.0
  0
LINE
  5
88DB
  8
0
 10
3840.3990443701359254
 20
133.6146088549614035
 30
0.0
 11
3840.416092251102782
 21
133.6248531419500978
 31
0.0
  0
LINE
  5
88DC
  8
0
 10
3840.416092251102782
 20
133.6248531419500978
 30
0.0
 11
3840.43314006824221
 21
133.6303165210559882
 31
0.0
  0
LINE
  5
88DD
  8
0
 10
3840.43314006824221
 20
133.6303165210559882
 30
0.0
 11
3840.4331400026530901
 21
133.6254035910565108
 31
0.0
  0
LINE
  5
88DE
  8
0
 10
3840.4331400026530901
 20
133.6254035910565108
 30
0.0
 11
3840.4160921203351791
 21
133.6150581674060902
 31
0.0
  0
LINE
  5
88DF
  8
0
 10
3840.4160921203351791
 20
133.6150581674060902
 30
0.0
 11
3840.3990443049501664
 21
133.609726133625486
 31
0.0
  0
LINE
  5
88E0
  8
0
 10
3840.3990445137469578
 20
133.6253659419436133
 30
0.0
 11
3840.3990446058760426
 21
133.6322642825068954
 31
0.0
  0
LINE
  5
88E1
  8
0
 10
3840.3990446058760426
 20
133.6322642825068954
 30
0.0
 11
3840.4160925018741182
 21
133.6436384195920084
 31
0.0
  0
LINE
  5
88E2
  8
0
 10
3840.4160925018741182
 20
133.6436384195920084
 30
0.0
 11
3840.4331403066448729
 21
133.6481775945142942
 31
0.0
  0
LINE
  5
88E3
  8
0
 10
3840.4331403066448729
 20
133.6481775945142942
 30
0.0
 11
3840.4331402133479969
 21
133.641185582262807
 31
0.0
  0
LINE
  5
88E4
  8
0
 10
3840.4331402133479969
 20
133.641185582262807
 30
0.0
 11
3840.4160923165200074
 21
133.6297501411247879
 31
0.0
  0
LINE
  5
88E5
  8
0
 10
3840.4160923165200074
 20
133.6297501411247879
 30
0.0
 11
3840.3990445137469578
 21
133.6253659419436133
 31
0.0
  0
LINE
  5
88E6
  8
0
 10
3840.4530916312478439
 20
133.6417317492349071
 30
0.0
 11
3840.4439312414688175
 21
133.6353944645204024
 31
0.0
  0
LINE
  5
88E7
  8
0
 10
3840.4439312414688175
 20
133.6353944645204024
 30
0.0
 11
3840.4268834183831132
 21
133.6294806687845096
 31
0.0
  0
LINE
  5
88E8
  8
0
 10
3840.4268834183831132
 20
133.6294806687845096
 30
0.0
 11
3840.4268834975678146
 21
133.6354120072975888
 31
0.0
  0
LINE
  5
88E9
  8
0
 10
3840.4268834975678146
 20
133.6354120072975888
 30
0.0
 11
3840.4427169439468344
 21
133.6464216054598069
 31
0.0
  0
LINE
  5
88EA
  8
0
 10
3840.4268832466500498
 20
133.6166171781856065
 30
0.0
 11
3840.4268832985949302
 21
133.6205080706853039
 31
0.0
  0
LINE
  5
88EB
  8
0
 10
3840.4609790109770984
 20
133.637293329731591
 30
0.0
 11
3840.4609789736969105
 21
133.6344974944886133
 31
0.0
  0
LINE
  5
88EC
  8
0
 10
3840.4609789736969105
 20
133.6344974944886133
 30
0.0
 11
3840.4439310830880459
 21
133.623533547988302
 31
0.0
  0
LINE
  5
88ED
  8
0
 10
3840.4439310830880459
 20
133.623533547988302
 30
0.0
 11
3840.4268832466500498
 21
133.6166171781856065
 31
0.0
  0
LINE
  5
88EE
  8
0
 10
3840.4268832985949302
 20
133.6205080706853039
 30
0.0
 11
3840.4439311869768972
 21
133.6313153331304875
 31
0.0
  0
LINE
  5
88EF
  8
0
 10
3840.4439311869768972
 20
133.6313153331304875
 30
0.0
 11
3840.459953552890056
 21
133.6379169249223935
 31
0.0
  0
LINE
  5
88F0
  8
0
 10
3840.4268831517788385
 20
133.6095109028863135
 30
0.0
 11
3840.4268831764229617
 21
133.6113613494196102
 31
0.0
  0
LINE
  5
88F1
  8
0
 10
3840.4268831764229617
 20
133.6113613494196102
 30
0.0
 11
3840.4439310514799217
 21
133.6211660376771135
 31
0.0
  0
LINE
  5
88F2
  8
0
 10
3840.4439310514799217
 20
133.6211660376771135
 30
0.0
 11
3840.4609789043761339
 21
133.6293082219474968
 31
0.0
  0
LINE
  5
88F3
  8
0
 10
3840.4609789043761339
 20
133.6293082219474968
 30
0.0
 11
3840.4609788807238147
 21
133.6275314353935926
 31
0.0
  0
LINE
  5
88F4
  8
0
 10
3840.4609788807238147
 20
133.6275314353935926
 30
0.0
 11
3840.4439310031361856
 21
133.6175368719758865
 31
0.0
  0
LINE
  5
88F5
  8
0
 10
3840.4439310031361856
 20
133.6175368719758865
 30
0.0
 11
3840.4268831517788385
 21
133.6095109027972967
 31
0.0
  0
LINE
  5
88F6
  8
0
 10
3840.4294292791350927
 20
133.6095174610636889
 30
0.0
 11
3840.4293759173951912
 21
133.6103179127156011
 31
0.0
  0
LINE
  5
88F7
  8
0
 10
3840.4293759173951912
 20
133.6103179127156011
 30
0.0
 11
3840.4160919796281632
 21
133.6045166083256959
 31
0.0
  0
LINE
  5
88F8
  8
0
 10
3840.4160919796281632
 20
133.6045166083256959
 30
0.0
 11
3840.3990441249247851
 21
133.5962415165462005
 31
0.0
  0
LINE
  5
88F9
  8
0
 10
3840.3990441249247851
 20
133.5962415165462005
 30
0.0
 11
3840.3990441058667784
 21
133.5948139348735992
 31
0.0
  0
LINE
  5
88FA
  8
0
 10
3840.2482188632611724
 20
133.5569653962145935
 30
0.0
 11
3840.2482189406268844
 21
133.5627604281141032
 31
0.0
  0
LINE
  5
88FB
  8
0
 10
3840.2482189406268844
 20
133.5627604281141032
 30
0.0
 11
3840.2490583273179254
 21
133.5629663382916874
 31
0.0
  0
LINE
  5
88FC
  8
0
 10
3840.2490583273179254
 20
133.5629663382916874
 30
0.0
 11
3840.2661060832069779
 21
133.5638748386978989
 31
0.0
  0
LINE
  5
88FD
  8
0
 10
3840.2661060832069779
 20
133.5638748386978989
 30
0.0
 11
3840.2661060436021216
 21
133.5609082744146008
 31
0.0
  0
LINE
  5
88FE
  8
0
 10
3840.2661060436021216
 20
133.5609082744146008
 30
0.0
 11
3840.2490582476639247
 21
133.5570254677085131
 31
0.0
  0
LINE
  5
88FF
  8
0
 10
3840.2490582476639247
 20
133.5570254677085131
 30
0.0
 11
3840.2482188640638014
 21
133.5570254789145963
 31
0.0
  0
LINE
  5
8900
  8
0
 10
3840.2482189862171253
 20
133.5661753257138002
 30
0.0
 11
3840.2482191115150272
 21
133.5755607105128888
 31
0.0
  0
LINE
  5
8901
  8
0
 10
3840.2482191115150272
 20
133.5755607105128888
 30
0.0
 11
3840.2490584984748239
 21
133.5758123588067861
 31
0.0
  0
LINE
  5
8902
  8
0
 10
3840.2490584984748239
 20
133.5758123588067861
 30
0.0
 11
3840.2661062424690499
 21
133.5758042729133024
 31
0.0
  0
LINE
  5
8903
  8
0
 10
3840.2661062424690499
 20
133.5758042729133024
 30
0.0
 11
3840.2661061781841454
 21
133.5709890521137027
 31
0.0
  0
LINE
  5
8904
  8
0
 10
3840.2661061781841454
 20
133.5709890521137027
 30
0.0
 11
3840.249058370009152
 21
133.5661896591076925
 31
0.0
  0
LINE
  5
8905
  8
0
 10
3840.249058370009152
 20
133.5661896591076925
 30
0.0
 11
3840.2482189864090287
 21
133.5661896703138041
 31
0.0
  0
LINE
  5
8906
  8
0
 10
3840.2482191787357806
 20
133.5805957726124973
 30
0.0
 11
3840.2482193526298033
 21
133.5936212372112948
 31
0.0
  0
LINE
  5
8907
  8
0
 10
3840.2482193526298033
 20
133.5936212372112948
 30
0.0
 11
3840.2490587402298843
 21
133.5939207985051951
 31
0.0
  0
LINE
  5
8908
  8
0
 10
3840.2490587402298843
 20
133.5939207985051951
 30
0.0
 11
3840.2661064720541617
 21
133.5930011672118098
 31
0.0
  0
LINE
  5
8909
  8
0
 10
3840.2661064720541617
 20
133.5930011672118098
 30
0.0
 11
3840.2661063827617909
 21
133.5863114761170891
 31
0.0
  0
LINE
  5
890A
  8
0
 10
3840.2661063827617909
 20
133.5863114761170891
 30
0.0
 11
3840.2490585619780177
 21
133.5805652489046054
 31
0.0
  0
LINE
  5
890B
  8
0
 10
3840.2490585619780177
 20
133.5805652489046054
 30
0.0
 11
3840.2482191787357806
 21
133.5805957726124973
 31
0.0
  0
LINE
  5
890C
  8
0
 10
3840.2482194420858832
 20
133.6003218930106868
 30
0.0
 11
3840.2482196667419885
 21
133.6171495535091935
 31
0.0
  0
LINE
  5
890D
  8
0
 10
3840.2482196667419885
 20
133.6171495535091935
 30
0.0
 11
3840.2490646388960158
 21
133.6174981416286016
 31
0.0
  0
LINE
  5
890E
  8
0
 10
3840.2490646388960158
 20
133.6174981416286016
 30
0.0
 11
3840.2661067743288186
 21
133.6156429351096904
 31
0.0
  0
LINE
  5
890F
  8
0
 10
3840.2661067743288186
 20
133.6156429351096904
 30
0.0
 11
3840.2659693551008786
 21
133.6069403817917873
 31
0.0
  0
LINE
  5
8910
  8
0
 10
3840.2659693551008786
 20
133.6069403817917873
 30
0.0
 11
3840.2490588246751031
 21
133.6002461626046909
 31
0.0
  0
LINE
  5
8911
  8
0
 10
3840.2490588246751031
 20
133.6002461626046909
 30
0.0
 11
3840.2482194420858832
 21
133.6003218930106868
 31
0.0
  0
LINE
  5
8912
  8
0
 10
3840.2482197796589389
 20
133.6256075287085139
 30
0.0
 11
3840.2482200587501211
 21
133.6465126655066058
 31
0.0
  0
LINE
  5
8913
  8
0
 10
3840.2482200587501211
 20
133.6465126655066058
 30
0.0
 11
3840.2490594477108061
 21
133.6469212955543071
 31
0.0
  0
LINE
  5
8914
  8
0
 10
3840.2490594477108061
 20
133.6469212955543071
 30
0.0
 11
3840.2661071540469493
 21
133.6440854261072104
 31
0.0
  0
LINE
  5
8915
  8
0
 10
3840.2661071540469493
 20
133.6440854261072104
 30
0.0
 11
3840.2661070105300496
 21
133.6333353714082079
 31
0.0
  0
LINE
  5
8916
  8
0
 10
3840.2661070105300496
 20
133.6333353714082079
 30
0.0
 11
3840.2490591615601261
 21
133.6254848976780067
 31
0.0
  0
LINE
  5
8917
  8
0
 10
3840.2490591615601261
 20
133.6254848976780067
 30
0.0
 11
3840.2482197796589389
 21
133.6256075287085139
 31
0.0
  0
LINE
  5
8918
  8
0
 10
3840.2661075744322261
 20
133.6755740924108125
 30
0.0
 11
3840.2661074442798963
 21
133.665825105794994
 31
0.0
  0
LINE
  5
8919
  8
0
 10
3840.2661074442798963
 20
133.665825105794994
 30
0.0
 11
3840.2490595787821803
 21
133.6567320152350931
 31
0.0
  0
LINE
  5
891A
  8
0
 10
3840.2490595787821803
 20
133.6567320152350931
 30
0.0
 11
3840.2482201974908094
 21
133.6569049289057034
 31
0.0
  0
LINE
  5
891B
  8
0
 10
3840.2482201974908094
 20
133.6569049289057034
 30
0.0
 11
3840.248220302602931
 21
133.6647783261510085
 31
0.0
  0
LINE
  5
891C
  8
0
 10
3840.248220302602931
 20
133.6647783261510085
 30
0.0
 11
3840.2320119550008712
 21
133.6657488078261906
 31
0.0
  0
LINE
  5
891D
  8
0
 10
3840.2320119550008712
 20
133.6657488078261906
 30
0.0
 11
3840.2320120596109518
 21
133.6735877748917005
 31
0.0
  0
LINE
  5
891E
  8
0
 10
3840.2320120596109518
 20
133.6735877748917005
 30
0.0
 11
3840.2387637616920983
 21
133.6771364029440861
 31
0.0
  0
LINE
  5
891F
  8
0
 10
3840.3108938517179922
 20
133.6720486063202031
 30
0.0
 11
3840.3047374307438986
 21
133.6681712997533111
 31
0.0
  0
LINE
  5
8920
  8
0
 10
3840.3047374307438986
 20
133.6681712997533111
 30
0.0
 11
3840.2876897148980788
 21
133.6702906800231005
 31
0.0
  0
LINE
  5
8921
  8
0
 10
3840.2876897148980788
 20
133.6702906800231005
 30
0.0
 11
3840.287689764857987
 21
133.6740329038456991
 31
0.0
  0
LINE
  5
8922
  8
0
 10
3840.4200300102329493
 20
133.6531030112797112
 30
0.0
 11
3840.4160925903679527
 21
133.6502655452590886
 31
0.0
  0
LINE
  5
8923
  8
0
 10
3840.4160925903679527
 20
133.6502655452590886
 30
0.0
 11
3840.3990447996829971
 21
133.6467837580416926
 31
0.0
  0
LINE
  5
8924
  8
0
 10
3840.3990447996829971
 20
133.6467837580416926
 30
0.0
 11
3840.3990449200391595
 21
133.6557989664408979
 31
0.0
  0
LINE
  5
8925
  8
0
 10
3840.3990449200391595
 20
133.6557989664408979
 30
0.0
 11
3840.4013963321858682
 21
133.657487090700613
 31
0.0
  0
LINE
  5
8926
  8
0
 10
3840.2490583273179254
 20
133.5629663382916874
 30
0.0
 11
3840.2490582480049852
 21
133.5570254677085131
 31
0.0
  0
LINE
  5
8927
  8
0
 10
3840.2490581951337845
 20
133.5530907485158991
 30
0.0
 11
3840.2490582250338775
 21
133.555331716110004
 31
0.0
  0
LINE
  5
8928
  8
0
 10
3840.249058370009152
 20
133.5661896591076925
 30
0.0
 11
3840.2490629341377826
 21
133.5758123567030111
 31
0.0
  0
LINE
  5
8929
  8
0
 10
3840.2490585619780177
 20
133.5805652489046054
 30
0.0
 11
3840.2490587402298843
 21
133.5939207985051951
 31
0.0
  0
LINE
  5
892A
  8
0
 10
3840.2490588246751031
 20
133.6002461626046909
 30
0.0
 11
3840.2490590543111466
 21
133.6174468410046927
 31
0.0
  0
LINE
  5
892B
  8
0
 10
3840.2490591615601261
 20
133.6254848976780067
 30
0.0
 11
3840.2490594477108061
 21
133.6469212955543071
 31
0.0
  0
LINE
  5
892C
  8
0
 10
3840.3047360900882268
 20
133.5677457538114083
 30
0.0
 11
3840.3047361663589072
 21
133.5734587266157973
 31
0.0
  0
LINE
  5
892D
  8
0
 10
3840.3047362093911943
 20
133.5766820474892995
 30
0.0
 11
3840.30473633831798
 21
133.5863392001510874
 31
0.0
  0
LINE
  5
892E
  8
0
 10
3840.3047364021508656
 20
133.5911208905714034
 30
0.0
 11
3840.3047365818920298
 21
133.604582748646294
 31
0.0
  0
LINE
  5
892F
  8
0
 10
3840.3047366705309287
 20
133.611223437397399
 30
0.0
 11
3840.3048979143341057
 21
133.6284032459188893
 31
0.0
  0
LINE
  5
8930
  8
0
 10
3840.3047370078729728
 20
133.6364917649839867
 30
0.0
 11
3840.3047372979008287
 21
133.6582161358817018
 31
0.0
  0
LINE
  5
8931
  8
0
 10
3840.3047374307438986
 20
133.6681712997533111
 30
0.0
 11
3840.3047374904522258
 21
133.6726435887906916
 31
0.0
  0
LINE
  5
8932
  8
0
 10
3840.3325750016520033
 20
133.5723819692209133
 30
0.0
 11
3840.3325750545532173
 21
133.5763494253305907
 31
0.0
  0
LINE
  5
8933
  8
0
 10
3840.3325750871299533
 20
133.57878605005601
 30
0.0
 11
3840.3325751909719656
 21
133.5865678351296992
 31
0.0
  0
LINE
  5
8934
  8
0
 10
3840.3325752445939543
 20
133.5905778521409104
 30
0.0
 11
3840.3325753993190119
 21
133.6021739661005938
 31
0.0
  0
LINE
  5
8935
  8
0
 10
3840.3325754741699711
 20
133.6077805810278107
 30
0.0
 11
3840.3325756814901979
 21
133.6233054672414085
 31
0.0
  0
LINE
  5
8936
  8
0
 10
3840.3325757785578389
 20
133.6305818478741969
 30
0.0
 11
3840.332576041655102
 21
133.6502824381072969
 31
0.0
  0
LINE
  5
8937
  8
0
 10
3840.3325761629030239
 20
133.6593637181549923
 30
0.0
 11
3840.332576298983895
 21
133.6695567548856047
 31
0.0
  0
LINE
  5
8938
  8
0
 10
3840.3604140027978247
 20
133.5837244660044973
 30
0.0
 11
3840.3604140808261036
 21
133.5895753731342097
 31
0.0
  0
LINE
  5
8939
  8
0
 10
3840.360414123800183
 20
133.5927986940199048
 30
0.0
 11
3840.3604142509448138
 21
133.6023180326660054
 31
0.0
  0
LINE
  5
893A
  8
0
 10
3840.3604143180109531
 20
133.607339470759797
 30
0.0
 11
3840.3604144999749224
 21
133.6209728507303964
 31
0.0
  0
LINE
  5
893B
  8
0
 10
3840.3604145865388091
 20
133.6274554155673115
 30
0.0
 11
3840.360414823409883
 21
133.6451957665744885
 31
0.0
  0
LINE
  5
893C
  8
0
 10
3840.3604149334450995
 20
133.6534401742650005
 30
0.0
 11
3840.3604150937021586
 21
133.6654441063749914
 31
0.0
  0
LINE
  5
893D
  8
0
 10
3840.388253009528853
 20
133.5954944148784875
 30
0.0
 11
3840.388252958378871
 21
133.5916644594194906
 31
0.0
  0
LINE
  5
893E
  8
0
 10
3840.3882530416049121
 20
133.5979029283438138
 30
0.0
 11
3840.3882531454942182
 21
133.6056847132618088
 31
0.0
  0
LINE
  5
893F
  8
0
 10
3840.388253199384053
 20
133.6097228416695941
 30
0.0
 11
3840.3882533560531556
 21
133.6214564563929912
 31
0.0
  0
LINE
  5
8940
  8
0
 10
3840.3882534320641753
 20
133.6271500108867087
 30
0.0
 11
3840.3882536431237895
 21
133.6429629509227084
 31
0.0
  0
LINE
  5
8941
  8
0
 10
3840.3882537423742178
 20
133.6503936196652944
 30
0.0
 11
3840.3882538744810518
 21
133.6602889723648957
 31
0.0
  0
LINE
  5
8942
  8
0
 10
3840.4160920002500461
 20
133.6060662509189001
 30
0.0
 11
3840.4160920772728787
 21
133.611834846537505
 31
0.0
  0
LINE
  5
8943
  8
0
 10
3840.4160921203351791
 20
133.6150581674060902
 30
0.0
 11
3840.416092251102782
 21
133.6248531419500978
 31
0.0
  0
LINE
  5
8944
  8
0
 10
3840.4160923165200074
 20
133.6297501411247879
 30
0.0
 11
3840.4160925018741182
 21
133.6436384195920084
 31
0.0
  0
LINE
  5
8945
  8
0
 10
3840.4160925903679527
 20
133.6502655452590886
 30
0.0
 11
3840.4160926411568653
 21
133.6540699408334092
 31
0.0
  0
LINE
  5
8946
  8
0
 10
3840.4439312414688175
 20
133.6353944645204024
 30
0.0
 11
3840.4439313821881115
 21
133.6459349161845012
 31
0.0
  0
LINE
  5
8947
  8
0
 10
3840.4439310830880459
 20
133.623533547988302
 30
0.0
 11
3840.4439311869768972
 21
133.6313153331304875
 31
0.0
  0
LINE
  5
8948
  8
0
 10
3840.4439310514799217
 20
133.6211660376771135
 30
0.0
 11
3840.4439310031361856
 21
133.6175368719758865
 31
0.0
  0
LINE
  5
8949
  8
0
 10
3840.4160919796281632
 20
133.6045166083256959
 30
0.0
 11
3840.4160919587448006
 21
133.6029523817491906
 31
0.0
  0
LINE
  5
894A
  8
0
 10
3840.3604139811068308
 20
133.5821059378274072
 30
0.0
 11
3840.3604139577309979
 21
133.5803549832353099
 31
0.0
  0
LINE
  5
894B
  8
0
 10
3840.1655690367488205
 20
133.5659385563205035
 30
0.0
 11
3840.1763329231480384
 21
133.5659384126188058
 31
0.0
  0
LINE
  5
894C
  8
0
 10
3840.1763329231480384
 20
133.5659384126188058
 30
0.0
 11
3840.1763331152510546
 21
133.5803308038003934
 31
0.0
  0
LINE
  5
894D
  8
0
 10
3840.1763331152510546
 20
133.5803308038003934
 30
0.0
 11
3840.1933809593851947
 21
133.5878198767516949
 31
0.0
  0
LINE
  5
894E
  8
0
 10
3840.1933809593851947
 20
133.5878198767516949
 30
0.0
 11
3840.2104286035892073
 21
133.5803303486316054
 31
0.0
  0
LINE
  5
894F
  8
0
 10
3840.2104286035892073
 20
133.5803303486316054
 30
0.0
 11
3840.2104284310539697
 21
133.5674020091896068
 31
0.0
  0
LINE
  5
8950
  8
0
 10
3840.2104284310539697
 20
133.5674020091896068
 30
0.0
 11
3840.216724531474938
 21
133.5678226596953948
 31
0.0
  0
LINE
  5
8951
  8
0
 10
3840.2167231216990331
 20
133.5810427248065082
 30
0.0
 11
3840.2041720480519871
 21
133.5865565491023972
 31
0.0
  0
LINE
  5
8952
  8
0
 10
3840.2041720480519871
 20
133.5865565491023972
 30
0.0
 11
3840.2041722373828634
 21
133.6007414360902033
 31
0.0
  0
LINE
  5
8953
  8
0
 10
3840.2041722373828634
 20
133.6007414360902033
 30
0.0
 11
3840.216723450786958
 21
133.6056927630079088
 31
0.0
  0
LINE
  5
8954
  8
0
 10
3840.1763334617580767
 20
133.6062826085151869
 30
0.0
 11
3840.1763336301301024
 21
133.6188944172492086
 31
0.0
  0
LINE
  5
8955
  8
0
 10
3840.1763336301301024
 20
133.6188944172492086
 30
0.0
 11
3840.1933814533081204
 21
133.6248101309199967
 31
0.0
  0
LINE
  5
8956
  8
0
 10
3840.1933814533081204
 20
133.6248101309199967
 30
0.0
 11
3840.2104291184268732
 21
133.6188939620269025
 31
0.0
  0
LINE
  5
8957
  8
0
 10
3840.2104291184268732
 20
133.6188939620269025
 30
0.0
 11
3840.2104289501708081
 21
133.6062821533245994
 31
0.0
  0
LINE
  5
8958
  8
0
 10
3840.2104289501708081
 20
133.6062821533245994
 30
0.0
 11
3840.1933811163062273
 21
133.5995700669519124
 31
0.0
  0
LINE
  5
8959
  8
0
 10
3840.1933811163062273
 20
133.5995700669519124
 30
0.0
 11
3840.1763334617580767
 21
133.6062826085151869
 31
0.0
  0
LINE
  5
895A
  8
0
 10
3840.2104284440101765
 20
133.5683728051047865
 30
0.0
 11
3840.1933807239811358
 21
133.5701804013268941
 31
0.0
  0
LINE
  5
895B
  8
0
 10
3840.1933807239811358
 20
133.5701804013268941
 30
0.0
 11
3840.1763329319401237
 21
133.5665971317494041
 31
0.0
  0
LINE
  5
895C
  8
0
 10
3840.2167236345521815
 20
133.6194576236181035
 30
0.0
 11
3840.2041725453959771
 21
133.623812948354896
 31
0.0
  0
LINE
  5
895D
  8
0
 10
3840.2041725453959771
 20
133.623812948354896
 30
0.0
 11
3840.2041726945358278
 21
133.6349841456899981
 31
0.0
  0
LINE
  5
895E
  8
0
 10
3840.2041726945358278
 20
133.6349841456899981
 30
0.0
 11
3840.2167238936558533
 21
133.6388655807039072
 31
0.0
  0
LINE
  5
895F
  8
0
 10
3840.1763339029380404
 20
133.6393289533542088
 30
0.0
 11
3840.1763340341699404
 21
133.649158917287707
 31
0.0
  0
LINE
  5
8960
  8
0
 10
3840.1763340341699404
 20
133.649158917287707
 30
0.0
 11
3840.193381839443191
 21
133.6537332981986879
 31
0.0
  0
LINE
  5
8961
  8
0
 10
3840.193381839443191
 20
133.6537332981986879
 30
0.0
 11
3840.2104295224689849
 21
133.6491584620241895
 31
0.0
  0
LINE
  5
8962
  8
0
 10
3840.2104295224689849
 20
133.6491584620241895
 30
0.0
 11
3840.2104293912348112
 21
133.6393284981251099
 31
0.0
  0
LINE
  5
8963
  8
0
 10
3840.2104293912348112
 20
133.6393284981251099
 30
0.0
 11
3840.1929678800261172
 21
133.6341947013081892
 31
0.0
  0
LINE
  5
8964
  8
0
 10
3840.1929678800261172
 20
133.6341947013081892
 30
0.0
 11
3840.1763339029380404
 21
133.6393289533542088
 31
0.0
  0
LINE
  5
8965
  8
0
 10
3840.2167240369371939
 20
133.6495979559790896
 30
0.0
 11
3840.204172934610142
 21
133.6529641218704114
 31
0.0
  0
LINE
  5
8966
  8
0
 10
3840.204172934610142
 20
133.6529641218704114
 30
0.0
 11
3840.2041730489709153
 21
133.6615272349951908
 31
0.0
  0
LINE
  5
8967
  8
0
 10
3840.2041730489709153
 20
133.6615272349951908
 30
0.0
 11
3840.2167242354698828
 21
133.6644689357381139
 31
0.0
  0
LINE
  5
8968
  8
0
 10
3840.1763342432641366
 20
133.6648208158576949
 30
0.0
 11
3840.1763365635338232
 21
133.6695955036441035
 31
0.0
  0
LINE
  5
8969
  8
0
 10
3840.1763365635338232
 20
133.6695955036441035
 30
0.0
 11
3840.1933821501647799
 21
133.6770081399901926
 31
0.0
  0
LINE
  5
896A
  8
0
 10
3840.1933821501647799
 20
133.6770081399901926
 30
0.0
 11
3840.210429818790999
 21
133.6713528807769933
 31
0.0
  0
LINE
  5
896B
  8
0
 10
3840.210429818790999
 20
133.6713528807769933
 30
0.0
 11
3840.2104297315599979
 21
133.6648203477228094
 31
0.0
  0
LINE
  5
896C
  8
0
 10
3840.2104297315599979
 20
133.6648203477228094
 30
0.0
 11
3840.1933819341629714
 21
133.6608269190290912
 31
0.0
  0
LINE
  5
896D
  8
0
 10
3840.1933819341629714
 20
133.6608269190290912
 30
0.0
 11
3840.1763342432641366
 21
133.6648208158576949
 31
0.0
  0
LINE
  5
896E
  8
0
 10
3840.2333210301321742
 20
133.6773870051187032
 30
0.0
 11
3840.2212209223998798
 21
133.6712125749079121
 31
0.0
  0
LINE
  5
896F
  8
0
 10
3840.2212209223998798
 20
133.6712125749079121
 30
0.0
 11
3840.204173248781899
 21
133.676494237143487
 31
0.0
  0
LINE
  5
8970
  8
0
 10
3840.204173248781899
 20
133.676494237143487
 30
0.0
 11
3840.2041732739730833
 21
133.6783886138352102
 31
0.0
  0
LINE
  5
8971
  8
0
 10
3840.2167242977998285
 20
133.6691377051207894
 30
0.0
 11
3840.2110932720897836
 21
133.6689412458908066
 31
0.0
  0
LINE
  5
8972
  8
0
 10
3840.1825910680818197
 20
133.6787609819307932
 30
0.0
 11
3840.1825910227807981
 21
133.6753729148686034
 31
0.0
  0
LINE
  5
8973
  8
0
 10
3840.1825910227807981
 20
133.6753729148686034
 30
0.0
 11
3840.1655395944007978
 21
133.6682363721853903
 31
0.0
  0
LINE
  5
8974
  8
0
 10
3840.1655395761290492
 20
133.6654990500090889
 30
0.0
 11
3840.1825908379678367
 21
133.6615275231388011
 31
0.0
  0
LINE
  5
8975
  8
0
 10
3840.1825908379678367
 20
133.6615275231388011
 30
0.0
 11
3840.1825907236661806
 21
133.6529644100072005
 31
0.0
  0
LINE
  5
8976
  8
0
 10
3840.1825907236661806
 20
133.6529644100072005
 30
0.0
 11
3840.1655394618428545
 21
133.6483779783704904
 31
0.0
  0
LINE
  5
8977
  8
0
 10
3840.1655393959790672
 20
133.6400293313926113
 30
0.0
 11
3840.1825904835541223
 21
133.634984433846796
 31
0.0
  0
LINE
  5
8978
  8
0
 10
3840.1825904835541223
 20
133.634984433846796
 30
0.0
 11
3840.1825903344988546
 21
133.6238132364852049
 31
0.0
  0
LINE
  5
8979
  8
0
 10
3840.1825903344988546
 20
133.6238132364852049
 30
0.0
 11
3840.1655392584029869
 21
133.6179009771371113
 31
0.0
  0
LINE
  5
897A
  8
0
 10
3840.1655391885929021
 20
133.6074428679347932
 30
0.0
 11
3840.1825900264848315
 21
133.6007417241872872
 31
0.0
  0
LINE
  5
897B
  8
0
 10
3840.1825900264848315
 20
133.6007417241872872
 30
0.0
 11
3840.1825898371121184
 21
133.5865568371885104
 31
0.0
  0
LINE
  5
897C
  8
0
 10
3840.1825898371121184
 20
133.5865568371885104
 30
0.0
 11
3840.1655389990010008
 21
133.5790402553529077
 31
0.0
  0
LINE
  5
897D
  8
0
 10
3840.2167250877869265
 20
133.5492762768226953
 30
0.0
 11
3840.2167213883999466
 21
133.6726066078616952
 31
0.0
  0
LINE
  5
897E
  8
0
 10
3840.1655389990010008
 20
133.5790402553529077
 30
0.0
 11
3840.1655391885929021
 21
133.6074428679347932
 31
0.0
  0
LINE
  5
897F
  8
0
 10
3840.1655392584029869
 20
133.6179009771371113
 30
0.0
 11
3840.1655393959790672
 21
133.6400293313926113
 31
0.0
  0
LINE
  5
8980
  8
0
 10
3840.1655394618428545
 20
133.6483779783704904
 30
0.0
 11
3840.1655395761290492
 21
133.6654990500090889
 31
0.0
  0
LINE
  5
8981
  8
0
 10
3840.1655395944007978
 20
133.6682363721853903
 30
0.0
 11
3840.1655395944007978
 21
133.6788494487398111
 31
0.0
  0
LINE
  5
8982
  8
0
 10
3840.1376971557237994
 20
133.6608272907353978
 30
0.0
 11
3840.137697155746082
 21
133.6770085116976077
 31
0.0
  0
LINE
  5
8983
  8
0
 10
3840.1381108543100709
 20
133.6341950674886903
 30
0.0
 11
3840.1376971557401703
 21
133.6537336699039997
 31
0.0
  0
LINE
  5
8984
  8
0
 10
3840.1376971557779143
 20
133.5995704386523926
 30
0.0
 11
3840.1376971557401703
 21
133.6248105026226938
 31
0.0
  0
LINE
  5
8985
  8
0
 10
3840.1376971557401703
 20
133.5701807730249016
 30
0.0
 11
3840.1376971558302102
 21
133.587820248451095
 31
0.0
  0
LINE
  5
8986
  8
0
 10
3840.1933807239811358
 20
133.5701804013268941
 30
0.0
 11
3840.1933809593851947
 21
133.5878198767516949
 31
0.0
  0
LINE
  5
8987
  8
0
 10
3840.1933811163062273
 20
133.5995700669519124
 30
0.0
 11
3840.1933814533081204
 21
133.6248101309199967
 31
0.0
  0
LINE
  5
8988
  8
0
 10
3840.1929678800261172
 20
133.6341947013081892
 30
0.0
 11
3840.193381839443191
 21
133.6537332981986879
 31
0.0
  0
LINE
  5
8989
  8
0
 10
3840.1933819341629714
 20
133.6608269190290912
 30
0.0
 11
3840.1933819341629714
 21
133.6761387296112105
 31
0.0
  0
LINE
  5
898A
  8
0
 10
3840.0820194564398662
 20
133.6567331302582033
 30
0.0
 11
3840.0820194564398662
 21
133.6766086602737005
 31
0.0
  0
LINE
  5
898B
  8
0
 10
3840.2490595787821803
 20
133.6567320152350931
 30
0.0
 11
3840.2490595787821803
 21
133.6766075598025054
 31
0.0
  0
LINE
  5
898D
  8
0
 10
3851.3747436691269286
 20
151.9335541286880016
 30
0.0
 11
3851.1898125314660319
 21
151.9308475766229947
 31
0.0
  0
LINE
  5
898E
  8
0
 10
3851.5337140998321956
 20
151.8873724568969976
 30
0.0
 11
3851.671637419714898
 21
151.812533373231787
 31
0.0
  0
ARC
  5
898F
  8
0
 10
3851.3932036635578697
 20
151.7003971501522983
 30
0.0
 40
0.2338866136277605
 50
53.0754330731391022
 51
94.5268986461379797
  0
ARC
  5
8990
  8
0
 10
3851.7254149986788434
 20
151.8831974518060122
 30
0.0
 40
0.0888
 50
232.7277278036492874
 51
299.5855698181767934
  0
ENDSEC
  0
EOF
