  0
SECTION
  2
HEADER
  9
$ACADVER
  1
AC1009
  9
$INSBASE
 10
4707.1939851629313125
 20
198.4527534172626133
 30
0.0
  9
$EXTMIN
 10
4691.3959764984219873
 20
198.4473280639620896
 30
-0.0015258207003583
  9
$EXTMAX
 10
4723.1053050015361805
 20
220.8947479209622031
 30
0.0000000349246037
  9
$LIMMIN
 10
0.0
 20
0.0
  9
$LIMMAX
 10
11.6929133858000007
 20
8.2677165353999982
  9
$ORTHOMODE
 70
     0
  9
$REGENMODE
 70
     1
  9
$FILLMODE
 70
     1
  9
$QTEXTMODE
 70
     0
  9
$MIRRTEXT
 70
     0
  9
$DRAGMODE
 70
     2
  9
$LTSCALE
 40
0.6431102362
  9
$OSMODE
 70
  4095
  9
$ATTMODE
 70
     1
  9
$TEXTSIZE
 40
0.2
  9
$TRACEWID
 40
0.05
  9
$TEXTSTYLE
  7
STANDARD
  9
$CLAYER
  8
0
  9
$CELTYPE
  6
BYLAYER
  9
$CECOLOR
 62
   256
  9
$DIMSCALE
 40
1.0
  9
$DIMASZ
 40
0.1875
  9
$DIMEXO
 40
0.0625
  9
$DIMDLI
 40
0.4443307087
  9
$DIMRND
 40
0.0
  9
$DIMDLE
 40
0.0
  9
$DIMEXE
 40
0.125
  9
$DIMTP
 40
0.01
  9
$DIMTM
 40
0.01
  9
$DIMTXT
 40
2.0
  9
$DIMCEN
 40
0.1052362205
  9
$DIMTSZ
 40
0.0
  9
$DIMTOL
 70
     1
  9
$DIMLIM
 70
     0
  9
$DIMTIH
 70
     1
  9
$DIMTOH
 70
     1
  9
$DIMSE1
 70
     0
  9
$DIMSE2
 70
     0
  9
$DIMTAD
 70
     0
  9
$DIMZIN
 70
     0
  9
$DIMBLK
  1

  9
$DIMASO
 70
     1
  9
$DIMSHO
 70
     1
  9
$DIMPOST
  1
\X
  9
$DIMAPOST
  1

  9
$DIMALT
 70
     1
  9
$DIMALTD
 70
     2
  9
$DIMALTF
 40
25.3999999999999986
  9
$DIMLFAC
 40
1.0
  9
$DIMTOFL
 70
     0
  9
$DIMTVP
 40
0.0
  9
$DIMTIX
 70
     0
  9
$DIMSOXD
 70
     0
  9
$DIMSAH
 70
     0
  9
$DIMBLK1
  1

  9
$DIMBLK2
  1

  9
$DIMSTYLE
  2
STANDARD
  9
$DIMCLRD
 70
     0
  9
$DIMCLRE
 70
     0
  9
$DIMCLRT
 70
     0
  9
$DIMTFAC
 40
1.0
  9
$DIMGAP
 40
0.09
  9
$LUNITS
 70
     2
  9
$LUPREC
 70
     4
  9
$SKETCHINC
 40
0.1
  9
$FILLETRAD
 40
0.0
  9
$AUNITS
 70
     0
  9
$AUPREC
 70
     0
  9
$MENU
  1
.
  9
$ELEVATION
 40
0.0
  9
$PELEVATION
 40
0.0
  9
$THICKNESS
 40
0.0
  9
$LIMCHECK
 70
     0
  9
$BLIPMODE
 70
     0
  9
$CHAMFERA
 40
0.0
  9
$CHAMFERB
 40
0.0
  9
$SKPOLY
 70
     0
  9
$TDCREATE
 40
2458060.468368056230247
  9
$TDUPDATE
 40
2459221.9340393519960344
  9
$TDINDWG
 40
0.6373334491
  9
$TDUSRTIMER
 40
0.6373334491
  9
$USRTIMER
 70
     1
  9
$ANGBASE
 50
0.0
  9
$ANGDIR
 70
     0
  9
$PDMODE
 70
     0
  9
$PDSIZE
 40
0.3125
  9
$PLINEWID
 40
0.0
  9
$COORDS
 70
     1
  9
$SPLFRAME
 70
     0
  9
$SPLINETYPE
 70
     6
  9
$SPLINESEGS
 70
     8
  9
$ATTDIA
 70
     1
  9
$ATTREQ
 70
     1
  9
$HANDLING
 70
     1
  9
$HANDSEED
  5
127BD
  9
$SURFTAB1
 70
     6
  9
$SURFTAB2
 70
     6
  9
$SURFTYPE
 70
     6
  9
$SURFU
 70
     6
  9
$SURFV
 70
     6
  9
$UCSNAME
  2

  9
$UCSORG
 10
0.0
 20
0.0
 30
0.0
  9
$UCSXDIR
 10
1.0
 20
0.0
 30
0.0
  9
$UCSYDIR
 10
0.0
 20
1.0
 30
0.0
  9
$PUCSNAME
  2

  9
$PUCSORG
 10
0.0
 20
0.0
 30
0.0
  9
$PUCSXDIR
 10
1.0
 20
0.0
 30
0.0
  9
$PUCSYDIR
 10
0.0
 20
1.0
 30
0.0
  9
$USERI1
 70
     0
  9
$USERI2
 70
     0
  9
$USERI3
 70
     0
  9
$USERI4
 70
     0
  9
$USERI5
 70
     0
  9
$USERR1
 40
0.0
  9
$USERR2
 40
0.0
  9
$USERR3
 40
0.0
  9
$USERR4
 40
0.0
  9
$USERR5
 40
0.0
  9
$WORLDVIEW
 70
     1
  9
$SHADEDGE
 70
     3
  9
$SHADEDIF
 70
    70
  9
$TILEMODE
 70
     1
  9
$MAXACTVP
 70
    64
  9
$PLIMCHECK
 70
     0
  9
$PEXTMIN
 10
1.0000000000000000E+20
 20
1.0000000000000000E+20
 30
1.0000000000000000E+20
  9
$PEXTMAX
 10
-1.0000000000000000E+20
 20
-1.0000000000000000E+20
 30
-1.0000000000000000E+20
  9
$PLIMMIN
 10
0.0
 20
0.0
  9
$PLIMMAX
 10
12.0
 20
9.0
  9
$UNITMODE
 70
     0
  9
$VISRETAIN
 70
     1
  9
$PLINEGEN
 70
     0
  9
$PSLTSCALE
 70
     1
  0
ENDSEC
  0
SECTION
  2
TABLES
  0
TABLE
  2
VPORT
 70
     1
  0
VPORT
  2
*ACTIVE
 70
     0
 10
0.0
 20
0.0
 11
1.0
 21
1.0
 12
545.6942442656045387
 22
-16.4397942218932904
 13
0.0
 23
0.0
 14
1.0
 24
1.0
 15
0.0
 25
0.0
 16
0.0
 26
0.0
 36
202.37134017897489
 17
4161.556396484375
 27
226.1108322143554972
 37
0.0
 40
22.7487275060873593
 41
2.8789237668161429
 42
50.0
 43
0.0
 44
0.0
 50
0.0
 51
0.0
 71
     0
 72
   100
 73
     1
 74
     1
 75
     0
 76
     0
 77
     0
 78
     0
  0
ENDTAB
  0
TABLE
  2
LTYPE
 70
     2
  0
LTYPE
  2
CONTINUOUS
 70
     0
  3
Solid line
 72
    65
 73
     0
 40
0.0
  0
LTYPE
  2
PHANTOM2
 70
     0
  3
___ _ _ ___ _ _ ___ _ _ ___ _ _
 72
    65
 73
     6
 40
1.25
 49
0.625
 49
-0.125
 49
0.125
 49
-0.125
 49
0.125
 49
-0.125
  0
ENDTAB
  0
TABLE
  2
LAYER
 70
     2
  0
LAYER
  2
0
 70
     0
 62
   255
  6
CONTINUOUS
  0
LAYER
  2
DEFPOINTS
 70
     0
 62
     7
  6
CONTINUOUS
  0
ENDTAB
  0
TABLE
  2
STYLE
 70
     1
  0
STYLE
  2
STANDARD
 70
     0
 40
0.0
 41
0.8
 50
0.0
 71
     0
 42
0.2
  3
txt
  4

  0
ENDTAB
  0
TABLE
  2
VIEW
 70
     0
  0
ENDTAB
  0
TABLE
  2
UCS
 70
     0
  0
ENDTAB
  0
TABLE
  2
APPID
 70
     9
  0
APPID
  2
ACAD
 70
     0
  0
APPID
  2
ACAD_MLEADERVER
 70
     0
  0
APPID
  2
ACAD_EXEMPT_FROM_CAD_STANDARDS
 70
     0
  0
APPID
  2
ACAD_NAV_VCDISPLAY
 70
     0
  0
APPID
  2
ACAECLAYERSTANDARD
 70
     0
  0
APPID
  2
ACCMTRANSPARENCY
 70
     0
  0
APPID
  2
ACAD_DSTYLE_DIMJAG
 70
     0
  0
APPID
  2
ACAD_DSTYLE_DIMTALN
 70
     0
  0
APPID
  2
ACDBATTR
 70
     0
  0
ENDTAB
  0
TABLE
  2
DIMSTYLE
 70
     1
  0
DIMSTYLE
  2
STANDARD
 70
     0
  3

  4

  5

  6

  7

 40
1.0
 41
0.1875
 42
0.0625
 43
0.38
 44
0.125
 45
0.0
 46
0.0
 47
0.01
 48
0.01
140
0.15625
141
0.09
142
0.0
143
25.3999999999999986
144
1.0
145
0.0
146
1.0
147
0.09
 71
     1
 72
     0
 73
     1
 74
     1
 75
     0
 76
     0
 77
     0
 78
     4
170
     0
171
     2
172
     0
173
     0
174
     0
175
     0
176
     0
177
     0
178
     0
  0
ENDTAB
  0
ENDSEC
  0
SECTION
  2
BLOCKS
  0
BLOCK
  8
0
  2
$MODEL_SPACE
 70
     0
 10
0.0
 20
0.0
 30
0.0
  3
$MODEL_SPACE
  1

  0
ENDBLK
  5
21
  8
0
  0
BLOCK
 67
     1
  8
0
  2
$PAPER_SPACE
 70
     0
 10
0.0
 20
0.0
 30
0.0
  3
$PAPER_SPACE
  1

  0
ENDBLK
  5
1D
 67
     1
  8
0
  0
ENDSEC
  0
SECTION
  2
ENTITIES
  0
ATTDEF
  5
3930
  8
DEFPOINTS
 10
4707.1896958324132356
 20
198.4569704988446119
 30
0.0
 40
0.001
  1
K-99016T
  3

  2
MODELNUMBER
 70
     0
1001
ACDBATTR
1070
     0
1070
     1
  0
ATTDEF
  5
3931
  8
DEFPOINTS
 10
4707.1896958324132356
 20
198.4553038321780036
 30
0.0
 40
0.001
  1
ALEUTIAN
  3

  2
TRADENAME
 70
     0
1001
ACDBATTR
1070
     0
1070
     1
  0
ATTDEF
  5
3932
  8
DEFPOINTS
 10
4707.1896958324132356
 20
198.4536371655113101
 30
0.0
 40
0.001
  1
BATH
  3

  2
PRODUCT
 70
     0
1001
ACDBATTR
1070
     0
1070
     1
  0
LINE
  5
12667
  8
0
 10
4722.9422085829619391
 20
219.1952889296626097
 30
0.0
 11
4691.4457617429006859
 21
219.1952889296626097
 31
0.0
  0
LINE
  5
12668
  8
0
 10
4722.6551569204502812
 20
220.8835671302171022
 30
0.0
 11
4691.7328134053750546
 21
220.8835671302171022
 31
0.0
  0
LINE
  5
12669
  8
0
 10
4722.8912130337912458
 20
220.6556103913418951
 30
0.0
 11
4722.9422085829619391
 21
219.1952889296626097
 31
0.0
  0
LINE
  5
1266A
  8
0
 10
4691.4967572920340899
 20
220.6556103913358982
 30
0.0
 11
4691.4457617429006859
 21
219.1952889296626097
 31
0.0
  0
ARC
  5
1266B
  8
0
 10
4691.7328134053750546
 20
220.6473671302171056
 30
0.0
 40
0.2362
 50
90.0
 51
178.0000000005674963
  0
ARC
  5
1266C
  8
0
 10
4722.6551569204502812
 20
220.6473671302171056
 30
0.0
 40
0.2362
 50
2.0000000008876588
 51
90.0
  0
LINE
  5
1266D
  8
0
 10
4699.5168198085812037
 20
198.4527534172626133
 30
0.0
 11
4701.4853237455818089
 21
198.4527534172626133
 31
0.0
  0
LINE
  5
1266E
  8
0
 10
4709.3593394935805918
 20
198.4527534172626133
 30
0.0
 11
4711.327843430581197
 21
198.4527534172626133
 31
0.0
  0
LINE
  5
1266F
  8
0
 10
4712.9026465801807717
 20
198.4527534172626133
 30
0.0
 11
4714.8711505172814213
 21
198.4527534172626133
 31
0.0
  0
LINE
  5
12670
  8
0
 10
4717.9725505176838851
 20
202.8755844959117951
 30
0.0
 11
4719.1374546247443504
 21
218.6697806732042011
 31
0.0
  0
ARC
  5
12671
  8
0
 10
4715.3494279457308949
 20
203.3666802388351016
 30
0.0
 40
2.668697632966341
 50
312.1629364352654079
 51
349.3959545840983196
  0
ARC
  5
12672
  8
0
 10
4715.509187572844894
 20
203.1902607130180058
 30
0.0
 40
2.4306913566945978
 50
276.318340211228815
 51
312.1629364352654079
  0
LINE
  5
12673
  8
0
 10
4715.776691159130678
 20
201.0909048080056891
 30
0.0
 11
4715.776691159130678
 21
200.4378201170679006
 31
0.0
  0
ARC
  5
12674
  8
0
 10
4714.1755179054198379
 20
171.9316356076365082
 30
0.0
 40
29.2031973607000488
 50
86.8570055068292959
 51
91.5623877366446948
  0
ARC
  5
12675
  8
0
 10
4706.208371476260254
 20
464.0298795558799156
 30
0.0
 40
263.0036806211011253
 50
268.6165660438923055
 51
271.5623877366446095
  0
ARC
  5
12676
  8
0
 10
4699.652484028059007
 20
189.3693886000262125
 30
0.0
 40
11.7352836338151594
 50
88.9934269589996489
 51
95.2830649749041498
  0
LINE
  5
12677
  8
0
 10
4698.5719428234806401
 20
199.9670026325811989
 30
0.0
 11
4698.5719428234806401
 21
201.0548202425158024
 31
0.0
  0
LINE
  5
12678
  8
0
 10
4698.5719428234806401
 20
199.9670026325811989
 30
0.0
 11
4699.5168198085812037
 21
199.9340068011925098
 31
0.0
  0
LINE
  5
12679
  8
0
 10
4701.4853237455818089
 20
199.8652651289775122
 30
0.0
 11
4703.4538276825805951
 21
199.7965234567625998
 31
0.0
  0
LINE
  5
1267A
  8
0
 10
4703.4538276825805951
 20
199.7965234567625998
 30
0.0
 11
4707.3908355565818056
 21
199.7965234567625998
 31
0.0
  0
LINE
  5
1267B
  8
0
 10
4707.3908355565818056
 20
199.7965234567625998
 30
0.0
 11
4709.3593394935805918
 21
199.8652651289797859
 31
0.0
  0
LINE
  5
1267C
  8
0
 10
4711.327843430581197
 20
199.9340068011970004
 30
0.0
 11
4712.2727253203811415
 21
199.9670028038626128
 31
0.0
  0
LINE
  5
1267D
  8
0
 10
4712.2727253203811415
 20
199.9670028038626128
 30
0.0
 11
4712.2727148756812312
 21
200.1432316452772113
 31
0.0
  0
ARC
  5
1267E
  8
0
 10
4715.6588488129073085
 20
200.8099265400144873
 30
0.0
 40
0.3903203921931074
 50
274.935756720186987
 51
287.5724686703185853
  0
ARC
  5
1267F
  8
0
 10
4714.0926932203374236
 20
218.9453470102947108
 30
0.0
 40
18.5932410087863182
 50
272.3995471552968866
 51
274.935756720186987
  0
ARC
  5
12680
  8
0
 10
4713.0167714808703749
 20
196.9190303790828125
 30
0.0
 40
3.3480482864478911
 50
91.9534192843730978
 51
101.9283357588045931
  0
ARC
  5
12681
  8
0
 10
4712.3387487362297179
 20
200.1286112595932138
 30
0.0
 40
0.0676330275535107
 50
101.9283357588045931
 51
167.5156885970980909
  0
ARC
  5
12682
  8
0
 10
4698.5651948343293043
 20
200.8738969848371028
 30
0.0
 40
0.5522585566021069
 50
266.0391523319102021
 51
270.4070755431326916
  0
ARC
  5
12683
  8
0
 10
4698.6764578136280761
 20
202.4808107954067111
 30
0.0
 40
2.1630196950586331
 50
221.2001402474888891
 51
266.0391523319102021
  0
ARC
  5
12684
  8
0
 10
4699.9948083150093225
 20
203.1832258393453117
 30
0.0
 40
3.6335697019006559
 50
188.7063774583878057
 51
215.8329180738357991
  0
LINE
  5
12685
  8
0
 10
4696.4031080761806152
 20
202.6332093187025123
 30
0.0
 11
4695.264223746224161
 21
213.3823453686661935
 31
0.0
  0
LINE
  5
12686
  8
0
 10
4714.8711505172814213
 20
200.7230339628000877
 30
0.0
 11
4714.8711505172814213
 21
198.4527534172626133
 31
0.0
  0
LINE
  5
12687
  8
0
 10
4712.9026465801807717
 20
200.7023978711978884
 30
0.0
 11
4712.9026465801807717
 21
198.4527534172626133
 31
0.0
  0
LINE
  5
12688
  8
0
 10
4711.327843430581197
 20
200.0095598217046984
 30
0.0
 11
4711.327843430581197
 21
198.4527534172626133
 31
0.0
  0
LINE
  5
12689
  8
0
 10
4709.3593394935805918
 20
199.9639422647055937
 30
0.0
 11
4709.3593394935805918
 21
198.4527534172626133
 31
0.0
  0
LINE
  5
1268A
  8
0
 10
4701.4853237455818089
 20
200.6779257174121938
 30
0.0
 11
4701.4853237455818089
 21
198.4527534172626133
 31
0.0
  0
LINE
  5
1268B
  8
0
 10
4699.5168198085812037
 20
198.4527534172626133
 30
0.0
 11
4699.5168198085812037
 21
200.6891175469625921
 31
0.0
  0
ARC
  5
1268C
  8
0
 10
4700.4176378921638388
 20
186.0085366174857882
 30
0.0
 40
14.7081926029892607
 50
85.8371671801805576
 51
93.5113353276709063
  0
ARC
  5
1268D
  8
0
 10
4710.7634792736216696
 20
181.8676130514205909
 30
0.0
 40
18.1507228373472813
 50
88.2182033658357341
 51
94.4368340152711312
  0
ARC
  5
1268E
  8
0
 10
4714.040893240380683
 20
186.0229596080650083
 30
0.0
 40
14.7235020692176803
 50
86.7673801633701913
 51
94.4338545639120071
  0
LINE
  5
1268F
  8
0
 10
4704.1489957323292401
 20
199.6732258582626116
 30
0.0
 11
4706.6956675068340701
 21
199.6732258582626116
 31
0.0
  0
LINE
  5
12690
  8
0
 10
4706.9184061425494292
 20
199.7654872218301136
 30
0.0
 11
4706.949442377581363
 21
199.7965234567625998
 31
0.0
  0
LINE
  5
12691
  8
0
 10
4703.9262570962546306
 20
199.7654872221889946
 30
0.0
 11
4703.8952208616810822
 21
199.7965234567625998
 31
0.0
  0
ARC
  5
12692
  8
0
 10
4704.1489957323292401
 20
199.9882258582626093
 30
0.0
 40
0.315
 50
224.9999999999839133
 51
270.0
  0
ARC
  5
12693
  8
0
 10
4706.6956675068340701
 20
199.9882258582626946
 30
0.0
 40
0.315
 50
270.0
 51
314.9999999076844119
  0
LINE
  5
12694
  8
0
 10
4694.072260180883859
 20
213.4527534172626133
 30
0.0
 11
4695.1859617915970375
 21
213.4527534172626133
 31
0.0
  0
LINE
  5
12695
  8
0
 10
4693.2124246257817504
 20
219.1952889296626097
 30
0.0
 11
4693.4490182134486531
 21
214.0480062528617111
 31
0.0
  0
ARC
  5
12696
  8
0
 10
4694.072260180883859
 20
214.0766534172626905
 30
0.0
 40
0.6239
 50
182.6317341102295018
 51
270.0
  0
ARC
  5
12697
  8
0
 10
4695.1859617915970375
 20
213.3740534172625871
 30
0.0
 40
0.0787
 50
6.0479955055753232
 51
90.0
  0
LINE
  5
12698
  8
0
 10
4720.4129590274578732
 20
218.7666071244944135
 30
0.0
 11
4719.2143704307472944
 21
218.7426761808943922
 31
0.0
  0
ARC
  5
12699
  8
0
 10
4720.3723230802306716
 20
219.3916798650344049
 30
0.0
 40
0.6263922183210008
 50
273.7195616322666751
 51
341.7280809831332249
  0
ARC
  5
1269A
  8
0
 10
4719.2159414368352373
 20
218.6639918626354984
 30
0.0
 40
0.0787
 50
91.1438119123092179
 51
175.7817760321447906
  0
ARC
  5
1269B
  8
0
 10
4705.4847834958518433
 20
213.3265305638925042
 30
0.0
 40
10.2207121517118793
 50
175.1929317403188122
 51
179.6871090198505954
  0
ARC
  5
1269C
  8
0
 10
4688.6738260814126988
 20
214.750026408675609
 30
0.0
 40
6.6504103579129117
 50
355.1092119008488908
 51
358.8488054230986108
  0
ARC
  5
1269D
  8
0
 10
4527.259710889690723
 20
213.9347126455811861
 30
0.0
 40
168.0645657913910895
 50
0.2324032033971599
 51
1.622908698040773
  0
ARC
  5
1269E
  8
0
 10
4695.1789454982836105
 20
218.6900434298954963
 30
0.0
 40
0.0780442348716185
 50
3.289567975953489
 51
84.3914415689843338
  0
ARC
  5
1269F
  8
0
 10
4694.0232119288821195
 20
219.3976353070625862
 30
0.0
 40
0.629921259799985
 50
198.737016259621214
 51
269.9999999726942974
  0
LINE
  5
126A0
  8
0
 10
4694.0232119288821195
 20
218.7677140472625865
 30
0.0
 11
4695.1865728824932376
 21
218.7677140472625865
 31
0.0
  0
ARC
  5
126A6
  8
0
 10
4723.3236598380299256
 20
217.1502950496065978
 30
0.0
 40
3.1087871500230082
 50
145.9769840064477933
 51
161.8899509641858003
  0
ARC
  5
126A7
  8
0
 10
4620.3479089788579586
 20
250.8279499078194021
 30
0.0
 40
105.2341392538693015
 50
341.0665105707133762
 51
341.8899509641858003
  0
ARC
  5
126A8
  8
0
 10
4699.3310804358079622
 20
223.7343783920638032
 30
0.0
 40
21.7332231458565097
 50
335.4406318979192747
 51
341.0665105707133762
  0
ARC
  5
126A9
  8
0
 10
4717.9447368417213511
 20
215.2283429276147046
 30
0.0
 40
1.268110292029047
 50
313.3755914270552125
 51
335.4406318979192747
  0
ENDSEC
  0
EOF
