  0
SECTION
  2
HEADER
  9
$ACADVER
  1
AC1009
  9
$INSBASE
 10
4798.424705218316376
 20
248.7155789877105008
 30
0.0
  9
$EXTMIN
 10
4768.6057459357562038
 20
232.9503706853317055
 30
-0.0000000349181948
  9
$EXTMAX
 10
4828.2796163054063072
 20
264.4688706328464036
 30
0.0000000814935746
  9
$LIMMIN
 10
0.0
 20
0.0
  9
$LIMMAX
 10
11.6929133858000007
 20
8.2677165353999982
  9
$ORTHOMODE
 70
     0
  9
$REGENMODE
 70
     1
  9
$FILLMODE
 70
     1
  9
$QTEXTMODE
 70
     0
  9
$MIRRTEXT
 70
     0
  9
$DRAGMODE
 70
     2
  9
$LTSCALE
 40
0.6431102362
  9
$OSMODE
 70
  4095
  9
$ATTMODE
 70
     1
  9
$TEXTSIZE
 40
0.2
  9
$TRACEWID
 40
0.05
  9
$TEXTSTYLE
  7
STANDARD
  9
$CLAYER
  8
0
  9
$CELTYPE
  6
BYLAYER
  9
$CECOLOR
 62
   256
  9
$DIMSCALE
 40
1.0
  9
$DIMASZ
 40
0.1875
  9
$DIMEXO
 40
0.0625
  9
$DIMDLI
 40
0.4443307087
  9
$DIMRND
 40
0.0
  9
$DIMDLE
 40
0.0
  9
$DIMEXE
 40
0.125
  9
$DIMTP
 40
0.01
  9
$DIMTM
 40
0.01
  9
$DIMTXT
 40
2.0
  9
$DIMCEN
 40
0.1052362205
  9
$DIMTSZ
 40
0.0
  9
$DIMTOL
 70
     1
  9
$DIMLIM
 70
     0
  9
$DIMTIH
 70
     1
  9
$DIMTOH
 70
     1
  9
$DIMSE1
 70
     0
  9
$DIMSE2
 70
     0
  9
$DIMTAD
 70
     0
  9
$DIMZIN
 70
     0
  9
$DIMBLK
  1

  9
$DIMASO
 70
     1
  9
$DIMSHO
 70
     1
  9
$DIMPOST
  1
\X
  9
$DIMAPOST
  1

  9
$DIMALT
 70
     1
  9
$DIMALTD
 70
     2
  9
$DIMALTF
 40
25.3999999999999986
  9
$DIMLFAC
 40
1.0
  9
$DIMTOFL
 70
     0
  9
$DIMTVP
 40
0.0
  9
$DIMTIX
 70
     0
  9
$DIMSOXD
 70
     0
  9
$DIMSAH
 70
     0
  9
$DIMBLK1
  1

  9
$DIMBLK2
  1

  9
$DIMSTYLE
  2
STANDARD
  9
$DIMCLRD
 70
     0
  9
$DIMCLRE
 70
     0
  9
$DIMCLRT
 70
     0
  9
$DIMTFAC
 40
1.0
  9
$DIMGAP
 40
0.09
  9
$LUNITS
 70
     2
  9
$LUPREC
 70
     4
  9
$SKETCHINC
 40
0.1
  9
$FILLETRAD
 40
0.0
  9
$AUNITS
 70
     0
  9
$AUPREC
 70
     0
  9
$MENU
  1
.
  9
$ELEVATION
 40
0.0
  9
$PELEVATION
 40
0.0
  9
$THICKNESS
 40
0.0
  9
$LIMCHECK
 70
     0
  9
$BLIPMODE
 70
     0
  9
$CHAMFERA
 40
0.0
  9
$CHAMFERB
 40
0.0
  9
$SKPOLY
 70
     0
  9
$TDCREATE
 40
2458060.468368056230247
  9
$TDUPDATE
 40
2459221.9341203710064292
  9
$TDINDWG
 40
0.6367315972000001
  9
$TDUSRTIMER
 40
0.6367315972000001
  9
$USRTIMER
 70
     1
  9
$ANGBASE
 50
0.0
  9
$ANGDIR
 70
     0
  9
$PDMODE
 70
     0
  9
$PDSIZE
 40
0.3125
  9
$PLINEWID
 40
0.0
  9
$COORDS
 70
     1
  9
$SPLFRAME
 70
     0
  9
$SPLINETYPE
 70
     6
  9
$SPLINESEGS
 70
     8
  9
$ATTDIA
 70
     1
  9
$ATTREQ
 70
     1
  9
$HANDLING
 70
     1
  9
$HANDSEED
  5
1290B
  9
$SURFTAB1
 70
     6
  9
$SURFTAB2
 70
     6
  9
$SURFTYPE
 70
     6
  9
$SURFU
 70
     6
  9
$SURFV
 70
     6
  9
$UCSNAME
  2

  9
$UCSORG
 10
0.0
 20
0.0
 30
0.0
  9
$UCSXDIR
 10
1.0
 20
0.0
 30
0.0
  9
$UCSYDIR
 10
0.0
 20
1.0
 30
0.0
  9
$PUCSNAME
  2

  9
$PUCSORG
 10
0.0
 20
0.0
 30
0.0
  9
$PUCSXDIR
 10
1.0
 20
0.0
 30
0.0
  9
$PUCSYDIR
 10
0.0
 20
1.0
 30
0.0
  9
$USERI1
 70
     0
  9
$USERI2
 70
     0
  9
$USERI3
 70
     0
  9
$USERI4
 70
     0
  9
$USERI5
 70
     0
  9
$USERR1
 40
0.0
  9
$USERR2
 40
0.0
  9
$USERR3
 40
0.0
  9
$USERR4
 40
0.0
  9
$USERR5
 40
0.0
  9
$WORLDVIEW
 70
     1
  9
$SHADEDGE
 70
     3
  9
$SHADEDIF
 70
    70
  9
$TILEMODE
 70
     1
  9
$MAXACTVP
 70
    64
  9
$PLIMCHECK
 70
     0
  9
$PEXTMIN
 10
1.0000000000000000E+20
 20
1.0000000000000000E+20
 30
1.0000000000000000E+20
  9
$PEXTMAX
 10
-1.0000000000000000E+20
 20
-1.0000000000000000E+20
 30
-1.0000000000000000E+20
  9
$PLIMMIN
 10
0.0
 20
0.0
  9
$PLIMMAX
 10
12.0
 20
9.0
  9
$UNITMODE
 70
     0
  9
$VISRETAIN
 70
     1
  9
$PLINEGEN
 70
     0
  9
$PSLTSCALE
 70
     1
  0
ENDSEC
  0
SECTION
  2
TABLES
  0
TABLE
  2
VPORT
 70
     1
  0
VPORT
  2
*ACTIVE
 70
     0
 10
0.0
 20
0.0
 11
1.0
 21
1.0
 12
636.8862846362062555
 22
22.5987884447336
 13
0.0
 23
0.0
 14
1.0
 24
1.0
 15
0.0
 25
0.0
 16
0.0
 26
0.0
 36
202.37134017897489
 17
4161.556396484375
 27
226.1108322143554972
 37
0.0
 40
31.9415670609042515
 41
2.8789237668161429
 42
50.0
 43
0.0
 44
0.0
 50
0.0
 51
0.0
 71
     0
 72
   100
 73
     1
 74
     1
 75
     0
 76
     0
 77
     0
 78
     0
  0
ENDTAB
  0
TABLE
  2
LTYPE
 70
     2
  0
LTYPE
  2
CONTINUOUS
 70
     0
  3
Solid line
 72
    65
 73
     0
 40
0.0
  0
LTYPE
  2
PHANTOM2
 70
     0
  3
___ _ _ ___ _ _ ___ _ _ ___ _ _
 72
    65
 73
     6
 40
1.25
 49
0.625
 49
-0.125
 49
0.125
 49
-0.125
 49
0.125
 49
-0.125
  0
ENDTAB
  0
TABLE
  2
LAYER
 70
     2
  0
LAYER
  2
0
 70
     0
 62
   255
  6
CONTINUOUS
  0
LAYER
  2
DEFPOINTS
 70
     0
 62
     7
  6
CONTINUOUS
  0
ENDTAB
  0
TABLE
  2
STYLE
 70
     1
  0
STYLE
  2
STANDARD
 70
     0
 40
0.0
 41
0.8
 50
0.0
 71
     0
 42
0.2
  3
txt
  4

  0
ENDTAB
  0
TABLE
  2
VIEW
 70
     0
  0
ENDTAB
  0
TABLE
  2
UCS
 70
     0
  0
ENDTAB
  0
TABLE
  2
APPID
 70
     9
  0
APPID
  2
ACAD
 70
     0
  0
APPID
  2
ACAD_MLEADERVER
 70
     0
  0
APPID
  2
ACAD_EXEMPT_FROM_CAD_STANDARDS
 70
     0
  0
APPID
  2
ACAD_NAV_VCDISPLAY
 70
     0
  0
APPID
  2
ACAECLAYERSTANDARD
 70
     0
  0
APPID
  2
ACCMTRANSPARENCY
 70
     0
  0
APPID
  2
ACAD_DSTYLE_DIMJAG
 70
     0
  0
APPID
  2
ACAD_DSTYLE_DIMTALN
 70
     0
  0
APPID
  2
ACDBATTR
 70
     0
  0
ENDTAB
  0
TABLE
  2
DIMSTYLE
 70
     1
  0
DIMSTYLE
  2
STANDARD
 70
     0
  3

  4

  5

  6

  7

 40
1.0
 41
0.1875
 42
0.0625
 43
0.38
 44
0.125
 45
0.0
 46
0.0
 47
0.01
 48
0.01
140
0.15625
141
0.09
142
0.0
143
25.3999999999999986
144
1.0
145
0.0
146
1.0
147
0.09
 71
     1
 72
     0
 73
     1
 74
     1
 75
     0
 76
     0
 77
     0
 78
     4
170
     0
171
     2
172
     0
173
     0
174
     0
175
     0
176
     0
177
     0
178
     0
  0
ENDTAB
  0
ENDSEC
  0
SECTION
  2
BLOCKS
  0
BLOCK
  8
0
  2
$MODEL_SPACE
 70
     0
 10
0.0
 20
0.0
 30
0.0
  3
$MODEL_SPACE
  1

  0
ENDBLK
  5
21
  8
0
  0
BLOCK
 67
     1
  8
0
  2
$PAPER_SPACE
 70
     0
 10
0.0
 20
0.0
 30
0.0
  3
$PAPER_SPACE
  1

  0
ENDBLK
  5
1D
 67
     1
  8
0
  0
ENDSEC
  0
SECTION
  2
ENTITIES
  0
ATTDEF
  5
3930
  8
DEFPOINTS
 10
4798.4200473559076272
 20
248.7136214241421044
 30
0.0
 40
0.001
  1
K-99016T
  3

  2
MODELNUMBER
 70
     0
1001
ACDBATTR
1070
     0
1070
     1
  0
ATTDEF
  5
3931
  8
DEFPOINTS
 10
4798.4200473559076272
 20
248.7119547574754108
 30
0.0
 40
0.001
  1
ALEUTIAN
  3

  2
TRADENAME
 70
     0
1001
ACDBATTR
1070
     0
1070
     1
  0
ATTDEF
  5
3932
  8
DEFPOINTS
 10
4798.4200473559076272
 20
248.7102880908086888
 30
0.0
 40
0.001
  1
BATH
  3

  2
PRODUCT
 70
     0
1001
ACDBATTR
1070
     0
1070
     1
  0
LINE
  5
12730
  8
0
 10
4768.8969542332006313
 20
264.2274024077403851
 30
0.0
 11
4768.8969542332006313
 21
233.203755567680588
 31
0.0
  0
LINE
  5
12731
  8
0
 10
4827.9524562034312112
 20
233.203755567680588
 30
0.0
 11
4827.9524562034312112
 21
260.9163024077403747
 31
0.0
  0
LINE
  5
12732
  8
0
 10
4769.1333542332013167
 20
264.4638024077405021
 30
0.0
 11
4824.4049562034324481
 21
264.4638024077405021
 31
0.0
  0
LINE
  5
12733
  8
0
 10
4769.1333542332013167
 20
232.9673555676806131
 30
0.0
 11
4827.7160562034314353
 21
232.9673555676806131
 31
0.0
  0
ARC
  5
12734
  8
0
 10
4769.1333542332013167
 20
264.2274024077403851
 30
0.0
 40
0.2364
 50
90.0
 51
180.0
  0
ARC
  5
12735
  8
0
 10
4769.1333542332013167
 20
233.203755567680588
 30
0.0
 40
0.2364
 50
179.9999999999967031
 51
270.0
  0
ARC
  5
12736
  8
0
 10
4827.7160562034314353
 20
233.203755567680588
 30
0.0
 40
0.2364
 50
270.0
 51
0.0000000000032569
  0
ARC
  5
12737
  8
0
 10
4824.4049562034324481
 20
260.9163024077403747
 30
0.0
 40
3.547499999999999
 50
0.0
 51
90.0
  0
LINE
  5
12738
  8
0
 10
4795.5428154486917265
 20
258.8589364985404018
 30
0.0
 11
4774.7676872327801902
 21
258.8589364985404018
 31
0.0
  0
LINE
  5
12739
  8
0
 10
4772.0236872327795936
 20
237.5900501548404122
 30
0.0
 11
4772.0236872327795936
 21
256.1149364985403736
 31
0.0
  0
LINE
  5
1273A
  8
0
 10
4802.558563468459397
 20
262.5859801769403816
 30
0.0
 11
4823.4372144004992151
 21
262.5859801769400974
 31
0.0
  0
ARC
  5
1273B
  8
0
 10
4795.1036846973584034
 20
263.1820042938722963
 30
0.0
 40
4.3453136802542298
 50
275.8001251224258112
 51
309.4787038149449927
  0
ARC
  5
1273C
  8
0
 10
4776.8930237448867047
 20
285.2900396190411811
 30
0.0
 40
32.9878240148033228
 50
309.4787038149449927
 51
313.7859386310676086
  0
ARC
  5
1273D
  8
0
 10
4802.4854300656861597
 20
258.5894110624967084
 30
0.0
 40
3.9972381941944062
 50
88.9516588886166346
 51
133.7859386310676086
  0
LINE
  5
1273E
  8
0
 10
4826.1812144004989023
 20
259.8419801769401261
 30
0.0
 11
4826.1812144004989023
 21
237.5900501548404122
 31
0.0
  0
ARC
  5
1273F
  8
0
 10
4823.4372144004992151
 20
259.8419801769401261
 30
0.0
 40
2.7439999999999989
 50
0.0
 51
90.0
  0
LINE
  5
12740
  8
0
 10
4823.4372144004992151
 20
234.8460501548404125
 30
0.0
 11
4774.7676872327801902
 21
234.8460501548404125
 31
0.0
  0
ARC
  5
12741
  8
0
 10
4823.4372144004992151
 20
237.5900501548404122
 30
0.0
 40
2.7439999999999989
 50
270.0
 51
0.0
  0
ARC
  5
12742
  8
0
 10
4774.7676872327801902
 20
237.5900501548404122
 30
0.0
 40
2.7439999999999989
 50
180.0
 51
270.0
  0
ARC
  5
12743
  8
0
 10
4774.7676872327801902
 20
256.1149364985403736
 30
0.0
 40
2.7439999999999989
 50
90.0
 51
180.0
  0
LINE
  5
12744
  8
0
 10
4773.570374503579842
 20
239.3523659724405945
 30
0.0
 11
4773.570374503579842
 21
254.5314177721832891
 31
0.0
  0
LINE
  5
12745
  8
0
 10
4816.5574936126131433
 20
238.0464795731404024
 30
0.0
 11
4799.4680007061797369
 21
238.0464795731404024
 31
0.0
  0
LINE
  5
12746
  8
0
 10
4798.7199922995796442
 20
238.0464795731404024
 30
0.0
 11
4792.775087416281167
 21
238.0464795731404024
 31
0.0
  0
LINE
  5
12747
  8
0
 10
4792.0270790096810742
 20
238.0464795731404024
 30
0.0
 11
4775.2943279400942629
 21
238.0464795731404024
 31
0.0
  0
LINE
  5
12748
  8
0
 10
4775.3038160161286214
 20
255.8417551636404141
 30
0.0
 11
4796.8160655979972944
 21
255.8417551636404141
 31
0.0
  0
LINE
  5
12749
  8
0
 10
4816.5744567174124313
 20
259.3456921715404064
 30
0.0
 11
4802.9912116023324415
 21
259.3456921715404064
 31
0.0
  0
LINE
  5
1274A
  8
0
 10
4818.5900595429811801
 20
258.0728079012665717
 30
0.0
 11
4818.5900595429811801
 21
239.3617648098058908
 31
0.0
  0
ARC
  5
1274B
  8
0
 10
4816.4021846315790754
 20
241.9696291052082984
 30
0.0
 40
3.9262225014069561
 50
272.2670318416447799
 51
293.0348943086466988
  0
ARC
  5
1274C
  8
0
 10
4817.5195147998465472
 20
239.34181495187579
 30
0.0
 40
1.0707306121915821
 50
293.0348943086466988
 51
1.067597015953236
  0
ARC
  5
1274D
  8
0
 10
4816.3157039931020336
 20
255.1714653159777981
 30
0.0
 40
4.1822389714168873
 50
65.5317858142992122
 51
86.4528775923940742
  0
ARC
  5
1274E
  8
0
 10
4817.6632705818119575
 20
258.1327827921613789
 30
0.0
 40
0.9287274982916144
 50
356.297405855639397
 51
65.5317858142992122
  0
ARC
  5
1274F
  8
0
 10
4775.544234832705115
 20
252.768204867852603
 30
0.0
 40
3.0829389595158609
 50
94.4726749412404416
 51
119.3911599221711981
  0
ARC
  5
12750
  8
0
 10
4774.631786140085751
 20
254.5779342942066137
 30
0.0
 40
1.062430444279334
 50
124.4212477293321939
 51
182.5093902888511934
  0
ARC
  5
12751
  8
0
 10
4775.5373967066871046
 20
241.115833243050588
 30
0.0
 40
3.0789631982673038
 50
240.9563126028195938
 51
265.4720727959996793
  0
ARC
  5
12752
  8
0
 10
4774.4948354336811462
 20
239.2383804218960108
 30
0.0
 40
0.9314616025434503
 50
172.9709373861271047
 51
240.9563126028195938
  0
ARC
  5
12753
  8
0
 10
4796.2267081393638364
 20
260.9765612470098972
 30
0.0
 40
5.1685177495925902
 50
276.5475839189625731
 51
290.5045057243235078
  0
ARC
  5
12754
  8
0
 10
4795.7170370567073405
 20
260.4852132850313069
 30
0.0
 40
4.929799216020605
 50
298.0751126821837147
 51
319.1475299103245789
  0
ARC
  5
12755
  8
0
 10
4804.8015176529142991
 20
252.9528508086901013
 30
0.0
 40
6.8730512918975171
 50
123.0099677550779944
 51
141.1889410874547082
  0
ARC
  5
12756
  8
0
 10
4803.4208608892176926
 20
254.7384639389188123
 30
0.0
 40
4.6272184406172974
 50
95.327736785363129
 51
120.718497850246294
  0
ARC
  5
12757
  8
0
 10
4773.4800105726581023
 20
238.2203936111874896
 30
0.0
 40
1.0840870764484629
 50
176.7745691205475111
 51
253.8319826010637996
  0
ARC
  5
12758
  8
0
 10
4774.9277538404539882
 20
243.2923555193426068
 30
0.0
 40
6.3586180437274331
 50
254.0286810259856907
 51
266.9716675170178064
  0
LINE
  5
12759
  8
0
 10
4774.591829502715882
 20
236.9426170786404953
 30
0.0
 11
4823.4724389908369631
 21
236.9426170786381078
 31
0.0
  0
ARC
  5
1275A
  8
0
 10
4775.1151824266307813
 20
237.9139904399658008
 30
0.0
 40
2.742264472051541
 50
172.3005607006919888
 51
207.4956906278679867
  0
ARC
  5
1275B
  8
0
 10
4775.1874811896595929
 20
237.9516198826902098
 30
0.0
 40
2.8237696013073519
 50
207.4956906278679867
 51
270.0945196142416762
  0
LINE
  5
1275C
  8
0
 10
4775.1921394994787988
 20
235.1278541237404056
 30
0.0
 11
4823.0908345997640936
 21
235.1278541237404056
 31
0.0
  0
ARC
  5
1275D
  8
0
 10
4822.9533453725216532
 20
237.8220734090166957
 30
0.0
 40
2.697725124018838
 50
272.9213379036921197
 51
344.6806972247073872
  0
ARC
  5
1275E
  8
0
 10
4824.0195418703906398
 20
237.5300089369575005
 30
0.0
 40
1.5922493767022949
 50
344.6806972247073872
 51
25.1075007941948591
  0
ARC
  5
1275F
  8
0
 10
4823.127715262806305
 20
241.5633724242379117
 30
0.0
 40
4.6335962720716433
 50
274.2665521746682771
 51
290.6031670798274149
  0
ARC
  5
12760
  8
0
 10
4824.3761559355843929
 20
238.2425072145138074
 30
0.0
 40
1.0858152959403311
 50
290.6031670798274149
 51
358.0536517180847227
  0
ARC
  5
12761
  8
0
 10
4773.4800105726581023
 20
255.4781411726933982
 30
0.0
 40
1.0840870764484629
 50
106.1680173989366978
 51
183.2254308794524889
  0
ARC
  5
12762
  8
0
 10
4774.9277538404539882
 20
250.4061792645381956
 30
0.0
 40
6.3586180437274331
 50
93.028332482982222
 51
105.9713189740141956
  0
LINE
  5
12763
  8
0
 10
4774.591829502715882
 20
256.7559177052402788
 30
0.0
 11
4795.6322412107019773
 21
256.7559177052414157
 31
0.0
  0
LINE
  5
12764
  8
0
 10
4803.043881436277843
 20
260.5433810824417833
 30
0.0
 11
4823.4724389908369631
 21
260.5433810824428065
 31
0.0
  0
ARC
  5
12765
  8
0
 10
4775.1151824266307813
 20
255.784544343915087
 30
0.0
 40
2.742264472051541
 50
152.5043093721318996
 51
187.6994392993080112
  0
ARC
  5
12766
  8
0
 10
4775.1874811896595929
 20
255.7469149011907064
 30
0.0
 40
2.8237696013073519
 50
89.9054803857582954
 51
152.5043093721318996
  0
LINE
  5
12767
  8
0
 10
4775.1921394994787988
 20
258.5706806601403969
 30
0.0
 11
4795.4083964483370437
 21
258.5706806601403969
 31
0.0
  0
LINE
  5
12768
  8
0
 10
4802.3884826794228502
 20
262.3581440373404234
 30
0.0
 11
4823.0908345997640936
 21
262.3581440373404234
 31
0.0
  0
ARC
  5
12769
  8
0
 10
4822.9533453725216532
 20
259.6639247520640765
 30
0.0
 40
2.697725124018838
 50
15.3193027752925808
 51
87.0786620963078946
  0
ARC
  5
1276A
  8
0
 10
4824.0195418703906398
 20
259.9559892241233001
 30
0.0
 40
1.5922493767022949
 50
334.8924992058052226
 51
15.3193027752925808
  0
ARC
  5
1276B
  8
0
 10
4823.127715262806305
 20
255.922625736842889
 30
0.0
 40
4.6335962720716433
 50
69.3968329201726135
 51
85.7334478253316519
  0
ARC
  5
1276C
  8
0
 10
4824.3761559355843929
 20
259.2434909465670216
 30
0.0
 40
1.0858152959403311
 50
1.9463482819152871
 51
69.3968329201726135
  0
ARC
  5
1276D
  8
0
 10
4795.1001775659487976
 20
263.198897010402618
 30
0.0
 40
6.464910985373546
 50
274.7207951995188751
 51
309.9770672956926205
  0
ARC
  5
1276E
  8
0
 10
4718.3744040215997302
 20
354.7114744358872258
 30
0.0
 40
125.8859985412739064
 50
309.9770672956926205
 51
311.3050308588660187
  0
ARC
  5
1276F
  8
0
 10
4802.822752425687213
 20
258.1002562408201015
 30
0.0
 40
2.4531117037497991
 50
84.8282092714141811
 51
123.5311683055394951
  0
ARC
  5
12770
  8
0
 10
4794.9593257663518671
 20
263.7698233529508229
 30
0.0
 40
5.2185006675884473
 50
274.9366127516875054
 51
298.3799803977777856
  0
ARC
  5
12771
  8
0
 10
4793.5277281810913337
 20
265.4015209677157827
 30
0.0
 40
7.3505044811331484
 50
302.155143950533386
 51
314.1255361606230281
  0
ARC
  5
12772
  8
0
 10
4808.7301804980634188
 20
251.0131273827358882
 30
0.0
 40
13.5916538552984107
 50
129.2767287324745098
 51
137.9006997134005132
  0
ARC
  5
12773
  8
0
 10
4802.6107068675746632
 20
258.2281740139553108
 30
0.0
 40
4.1359443883906417
 50
93.0799839482466354
 51
126.9284618175283015
  0
CIRCLE
  5
12774
  8
0
 10
4785.7081697791809347
 20
246.9441173684404021
 30
0.0
 40
0.9842519685
  0
CIRCLE
  5
12775
  8
0
 10
4785.7081697791809347
 20
246.9441173684404021
 30
0.0
 40
1.7232955059999999
  0
LINE
  5
12777
  8
0
 10
4777.348246897284298
 20
240.0543534844204885
 30
0.0
 11
4812.7255722768341002
 21
240.0543534844204885
 31
0.0
  0
LINE
  5
12778
  8
0
 10
4814.4955722768336273
 20
255.5678170026511964
 30
0.0
 11
4814.4955722768336273
 21
241.8243534844204135
 31
0.0
  0
LINE
  5
12779
  8
0
 10
4812.7255722768341002
 20
257.3378170026512066
 30
0.0
 11
4803.3606483764351651
 21
257.3378170026512066
 31
0.0
  0
LINE
  5
1277A
  8
0
 10
4777.348246897284298
 20
253.8338831511935894
 30
0.0
 11
4796.3952971551098017
 21
253.8338831511935894
 31
0.0
  0
LINE
  5
1277B
  8
0
 10
4775.578246897284771
 20
241.8243534844204135
 30
0.0
 11
4775.578246897284771
 21
252.0638831511936075
 31
0.0
  0
ARC
  5
1277C
  8
0
 10
4777.348246897284298
 20
241.8243534844204135
 30
0.0
 40
1.77
 50
180.0
 51
270.0
  0
ARC
  5
1277D
  8
0
 10
4777.348246897284298
 20
252.0638831511936075
 30
0.0
 40
1.77
 50
90.0
 51
180.0
  0
ARC
  5
1277E
  8
0
 10
4812.7255722768341002
 20
255.5678170026511964
 30
0.0
 40
1.77
 50
0.0
 51
90.0
  0
ARC
  5
1277F
  8
0
 10
4812.7255722768341002
 20
241.8243534844204135
 30
0.0
 40
1.77
 50
270.0
 51
0.0
  0
ARC
  5
12780
  8
0
 10
4796.6709327756971106
 20
259.0759359127698076
 30
0.0
 40
5.2492944431119382
 50
266.9900670954281736
 51
312.7863777506269116
  0
ARC
  5
12781
  8
0
 10
4414.3197668158645683
 20
636.1891257598385891
 30
0.0
 40
542.2790751107728511
 50
315.3699145504103853
 51
315.5857044838672891
  0
ARC
  5
12782
  8
0
 10
4803.3448552563913836
 20
254.8744404875986049
 30
0.0
 40
2.4634271407032311
 50
89.6326721794746391
 51
132.8769939255666941
  0
LINE
  5
12787
  8
0
 10
4799.4680007061797369
 20
237.2383997626500047
 30
0.0
 11
4799.4680007061797369
 21
238.0722866905404089
 31
0.0
  0
LINE
  5
12788
  8
0
 10
4798.7199922995796442
 20
237.2383997626500047
 30
0.0
 11
4798.7199922995796442
 21
238.081578283940388
 31
0.0
  0
ARC
  5
12789
  8
0
 10
4799.0990018752481774
 20
243.0677529429318895
 30
0.0
 40
5.8469309604097033
 50
269.9509508922466239
 51
272.6677008357850127
  0
ARC
  5
1278A
  8
0
 10
4799.2639408991863093
 20
239.2372016502120005
 30
0.0
 40
2.0128995803511698
 50
273.0527228334896108
 51
276.3787119717928249
  0
ARC
  5
1278B
  8
0
 10
4799.4770271116121876
 20
237.3311023160860884
 30
0.0
 40
0.0949265864115682
 50
276.3787119717928249
 51
301.1984826015129215
  0
ARC
  5
1278C
  8
0
 10
4799.4651882917387411
 20
237.0996664177320952
 30
0.0
 40
0.1621535066161786
 50
67.8980468028441919
 51
89.0062036815991036
  0
ARC
  5
1278D
  8
0
 10
4799.4664853606800534
 20
237.201633115670603
 30
0.0
 40
0.0559499878298854
 50
56.2865694003111869
 51
88.4480153929012971
  0
ARC
  5
1278E
  8
0
 10
4799.4377531651698519
 20
237.3793393484415901
 30
0.0
 40
0.1441488140093196
 50
271.5942811509341936
 51
294.5039774896034146
  0
ARC
  5
1278F
  8
0
 10
4799.1217897089800317
 20
241.2702952406864938
 30
0.0
 40
4.0477157753231214
 50
269.6065815856279073
 51
274.5339903885678723
  0
LINE
  5
12790
  8
0
 10
4799.566437447781027
 20
237.087078550241813
 30
0.0
 11
4799.566437447781027
 21
237.2088821642404071
 31
0.0
  0
LINE
  5
12791
  8
0
 10
4799.566437447781027
 20
237.2088821642404071
 30
0.0
 11
4799.5261994968795989
 21
237.2499042044404121
 31
0.0
  0
ARC
  5
12792
  8
0
 10
4799.0889911305130227
 20
243.0677529429318895
 30
0.0
 40
5.8469309604097033
 50
267.3322991642148736
 51
270.0490491077533761
  0
ARC
  5
12793
  8
0
 10
4798.9240521065758003
 20
239.2372016502120005
 30
0.0
 40
2.0128995803511698
 50
263.6212880282072888
 51
266.9472771665103892
  0
ARC
  5
12794
  8
0
 10
4798.7109658941490125
 20
237.3311023160860884
 30
0.0
 40
0.0949265864115682
 50
238.8015173984871069
 51
263.6212880282072888
  0
ARC
  5
12795
  8
0
 10
4798.7228596241502601
 20
237.0993976754251946
 30
0.0
 40
0.1624231686377167
 50
91.0115190584952387
 51
112.0842304561872993
  0
ARC
  5
12796
  8
0
 10
4798.7215076450820561
 20
237.201633115670603
 30
0.0
 40
0.0559499878298854
 50
91.5519846070987171
 51
123.713430599688806
  0
ARC
  5
12797
  8
0
 10
4798.7502398405913482
 20
237.3793393484415901
 30
0.0
 40
0.1441488140093196
 50
245.4960225103966138
 51
268.4057188490656927
  0
ARC
  5
12798
  8
0
 10
4799.0662032967811683
 20
241.2702952406864938
 30
0.0
 40
4.0477157753231214
 50
265.4660096114321277
 51
270.3934184143720927
  0
LINE
  5
12799
  8
0
 10
4798.6215555579810825
 20
237.087078550241614
 30
0.0
 11
4798.6215555579810825
 21
237.2088821642404071
 31
0.0
  0
LINE
  5
1279A
  8
0
 10
4798.6215555579810825
 20
237.2088821642404071
 30
0.0
 11
4798.6617935088797822
 21
237.2499042044404121
 31
0.0
  0
LINE
  5
1279B
  8
0
 10
4798.1107007061809782
 20
239.4295866905403898
 30
0.0
 11
4793.3843790096807425
 21
239.4295866905403898
 31
0.0
  0
LINE
  5
1279C
  8
0
 10
4798.1199922995810994
 20
238.6815782839404108
 30
0.0
 11
4793.3750874162797118
 21
238.6815782839404108
 31
0.0
  0
ARC
  5
1279D
  8
0
 10
4798.1199922995810994
 20
238.081578283940388
 30
0.0
 40
0.6
 50
0.0000000000016284
 51
90.0
  0
ARC
  5
1279E
  8
0
 10
4798.1107007061809782
 20
238.0722866905404089
 30
0.0
 40
1.3572999999999991
 50
0.0
 51
90.0
  0
LINE
  5
1279F
  8
0
 10
4792.0270790096810742
 20
237.2383997626500047
 30
0.0
 11
4792.0270790096810742
 21
238.0722866905404089
 31
0.0
  0
LINE
  5
127A0
  8
0
 10
4792.775087416281167
 20
237.2383997626500047
 30
0.0
 11
4792.775087416281167
 21
238.081578283940388
 31
0.0
  0
ARC
  5
127A1
  8
0
 10
4792.3960778406126337
 20
243.0677529429318895
 30
0.0
 40
5.8469309604097033
 50
267.3322991642148736
 51
270.0490491077533761
  0
ARC
  5
127A2
  8
0
 10
4792.2311388166754114
 20
239.2372016502120005
 30
0.0
 40
2.0128995803511698
 50
263.6212880282072888
 51
266.9472771665103892
  0
ARC
  5
127A3
  8
0
 10
4792.018052604247714
 20
237.3311023160860884
 30
0.0
 40
0.0949265864115682
 50
238.8015173984871069
 51
263.6212880282072888
  0
ARC
  5
127A4
  8
0
 10
4792.0336124000923519
 20
237.0814551388365885
 30
0.0
 40
0.1804587015751722
 50
92.0748100180574625
 51
111.0209394968638037
  0
ARC
  5
127A5
  8
0
 10
4792.0285943551816672
 20
237.201633115670603
 30
0.0
 40
0.0559499878298854
 50
91.5519846070987171
 51
123.713430599688806
  0
ARC
  5
127A6
  8
0
 10
4792.0573265506918688
 20
237.3793393484415901
 30
0.0
 40
0.1441488140093196
 50
245.4960225103966138
 51
268.4057188490656927
  0
ARC
  5
127A7
  8
0
 10
4792.3732900068816889
 20
241.2702952406864938
 30
0.0
 40
4.0477157753231214
 50
265.4660096114321277
 51
270.3934184143720927
  0
LINE
  5
127A8
  8
0
 10
4791.9286422680797841
 20
237.0870785502403066
 30
0.0
 11
4791.9286422680797841
 21
237.2088821642404071
 31
0.0
  0
LINE
  5
127A9
  8
0
 10
4791.9286422680797841
 20
237.2088821642404071
 30
0.0
 11
4791.9688802189812122
 21
237.2499042044404121
 31
0.0
  0
ARC
  5
127AA
  8
0
 10
4792.4060885853477885
 20
243.0677529429318895
 30
0.0
 40
5.8469309604097033
 50
269.9509508922466239
 51
272.6677008357850127
  0
ARC
  5
127AB
  8
0
 10
4792.5710276092859203
 20
239.2372016502120005
 30
0.0
 40
2.0128995803511698
 50
273.0527228334896108
 51
276.3787119717928249
  0
ARC
  5
127AC
  8
0
 10
4792.7841138217127082
 20
237.3311023160860884
 30
0.0
 40
0.0949265864115682
 50
276.3787119717928249
 51
301.1984826015129215
  0
ARC
  5
127AD
  8
0
 10
4792.7712327536755765
 20
237.0945654248496908
 30
0.0
 40
0.1672745273843078
 50
68.2246873332434376
 51
88.6795631504369339
  0
ARC
  5
127AE
  8
0
 10
4792.7735720707796645
 20
237.201633115670603
 30
0.0
 40
0.0559499878298854
 50
56.2865694003111869
 51
88.4480153929012971
  0
ARC
  5
127AF
  8
0
 10
4792.7448398752703724
 20
237.3793393484415901
 30
0.0
 40
0.1441488140093196
 50
271.5942811509341936
 51
294.5039774896034146
  0
ARC
  5
127B0
  8
0
 10
4792.4288764190787333
 20
241.2702952406864938
 30
0.0
 40
4.0477157753231214
 50
269.6065815856279073
 51
274.5339903885678723
  0
LINE
  5
127B1
  8
0
 10
4792.8735241578797286
 20
237.0870785502405056
 30
0.0
 11
4792.8735241578797286
 21
237.2088821642404071
 31
0.0
  0
LINE
  5
127B2
  8
0
 10
4792.8735241578797286
 20
237.2088821642404071
 30
0.0
 11
4792.8332862069801195
 21
237.2499042044404121
 31
0.0
  0
ARC
  5
127B3
  8
0
 10
4793.3750874162797118
 20
238.081578283940388
 30
0.0
 40
0.6
 50
90.0
 51
179.9999999999984084
  0
ARC
  5
127B4
  8
0
 10
4793.3843790096807425
 20
238.0722866905404089
 30
0.0
 40
1.3572999999999991
 50
90.0
 51
180.0
  0
LINE
  5
127B5
  8
0
 10
4792.8735241578797286
 20
237.0870785502405056
 30
0.0
 11
4791.9286422680797841
 21
237.0870785502403066
 31
0.0
  0
LINE
  5
127B6
  8
0
 10
4798.6215555579810825
 20
237.087078550241614
 30
0.0
 11
4799.566437447781027
 21
237.087078550241813
 31
0.0
  0
ENDSEC
  0
EOF
