  0
SECTION
  2
HEADER
  9
$ACADVER
  1
AC1009
  9
$INSBASE
 10
4613.0067929494762211
 20
205.9227455762213879
 30
0.0
  9
$EXTMIN
 10
4583.3289421634535756
 20
205.9110953953806984
 30
-0.0000000000000058
  9
$EXTMAX
 10
4642.8361286708732223
 20
228.3688651936085137
 30
0.0000000000000104
  9
$LIMMIN
 10
0.0
 20
0.0
  9
$LIMMAX
 10
11.6929133858000007
 20
8.2677165353999982
  9
$ORTHOMODE
 70
     0
  9
$REGENMODE
 70
     1
  9
$FILLMODE
 70
     1
  9
$QTEXTMODE
 70
     0
  9
$MIRRTEXT
 70
     0
  9
$DRAGMODE
 70
     2
  9
$LTSCALE
 40
0.6431102362
  9
$OSMODE
 70
  4095
  9
$ATTMODE
 70
     1
  9
$TEXTSIZE
 40
0.2
  9
$TRACEWID
 40
0.05
  9
$TEXTSTYLE
  7
STANDARD
  9
$CLAYER
  8
0
  9
$CELTYPE
  6
BYLAYER
  9
$CECOLOR
 62
   256
  9
$DIMSCALE
 40
1.0
  9
$DIMASZ
 40
0.1875
  9
$DIMEXO
 40
0.0625
  9
$DIMDLI
 40
0.4443307087
  9
$DIMRND
 40
0.0
  9
$DIMDLE
 40
0.0
  9
$DIMEXE
 40
0.125
  9
$DIMTP
 40
0.01
  9
$DIMTM
 40
0.01
  9
$DIMTXT
 40
2.0
  9
$DIMCEN
 40
0.1052362205
  9
$DIMTSZ
 40
0.0
  9
$DIMTOL
 70
     1
  9
$DIMLIM
 70
     0
  9
$DIMTIH
 70
     1
  9
$DIMTOH
 70
     1
  9
$DIMSE1
 70
     0
  9
$DIMSE2
 70
     0
  9
$DIMTAD
 70
     0
  9
$DIMZIN
 70
     0
  9
$DIMBLK
  1

  9
$DIMASO
 70
     1
  9
$DIMSHO
 70
     1
  9
$DIMPOST
  1
\X
  9
$DIMAPOST
  1

  9
$DIMALT
 70
     1
  9
$DIMALTD
 70
     2
  9
$DIMALTF
 40
25.3999999999999986
  9
$DIMLFAC
 40
1.0
  9
$DIMTOFL
 70
     0
  9
$DIMTVP
 40
0.0
  9
$DIMTIX
 70
     0
  9
$DIMSOXD
 70
     0
  9
$DIMSAH
 70
     0
  9
$DIMBLK1
  1

  9
$DIMBLK2
  1

  9
$DIMSTYLE
  2
STANDARD
  9
$DIMCLRD
 70
     0
  9
$DIMCLRE
 70
     0
  9
$DIMCLRT
 70
     0
  9
$DIMTFAC
 40
1.0
  9
$DIMGAP
 40
0.09
  9
$LUNITS
 70
     2
  9
$LUPREC
 70
     4
  9
$SKETCHINC
 40
0.1
  9
$FILLETRAD
 40
0.0
  9
$AUNITS
 70
     0
  9
$AUPREC
 70
     0
  9
$MENU
  1
.
  9
$ELEVATION
 40
0.0
  9
$PELEVATION
 40
0.0
  9
$THICKNESS
 40
0.0
  9
$LIMCHECK
 70
     0
  9
$BLIPMODE
 70
     0
  9
$CHAMFERA
 40
0.0
  9
$CHAMFERB
 40
0.0
  9
$SKPOLY
 70
     0
  9
$TDCREATE
 40
2458060.468368056230247
  9
$TDUPDATE
 40
2459221.9334606481716037
  9
$TDINDWG
 40
0.6379700230999999
  9
$TDUSRTIMER
 40
0.6379700230999999
  9
$USRTIMER
 70
     1
  9
$ANGBASE
 50
0.0
  9
$ANGDIR
 70
     0
  9
$PDMODE
 70
     0
  9
$PDSIZE
 40
0.3125
  9
$PLINEWID
 40
0.0
  9
$COORDS
 70
     1
  9
$SPLFRAME
 70
     0
  9
$SPLINETYPE
 70
     6
  9
$SPLINESEGS
 70
     8
  9
$ATTDIA
 70
     1
  9
$ATTREQ
 70
     1
  9
$HANDLING
 70
     1
  9
$HANDSEED
  5
12593
  9
$SURFTAB1
 70
     6
  9
$SURFTAB2
 70
     6
  9
$SURFTYPE
 70
     6
  9
$SURFU
 70
     6
  9
$SURFV
 70
     6
  9
$UCSNAME
  2

  9
$UCSORG
 10
0.0
 20
0.0
 30
0.0
  9
$UCSXDIR
 10
1.0
 20
0.0
 30
0.0
  9
$UCSYDIR
 10
0.0
 20
1.0
 30
0.0
  9
$PUCSNAME
  2

  9
$PUCSORG
 10
0.0
 20
0.0
 30
0.0
  9
$PUCSXDIR
 10
1.0
 20
0.0
 30
0.0
  9
$PUCSYDIR
 10
0.0
 20
1.0
 30
0.0
  9
$USERI1
 70
     0
  9
$USERI2
 70
     0
  9
$USERI3
 70
     0
  9
$USERI4
 70
     0
  9
$USERI5
 70
     0
  9
$USERR1
 40
0.0
  9
$USERR2
 40
0.0
  9
$USERR3
 40
0.0
  9
$USERR4
 40
0.0
  9
$USERR5
 40
0.0
  9
$WORLDVIEW
 70
     1
  9
$SHADEDGE
 70
     3
  9
$SHADEDIF
 70
    70
  9
$TILEMODE
 70
     1
  9
$MAXACTVP
 70
    64
  9
$PLIMCHECK
 70
     0
  9
$PEXTMIN
 10
1.0000000000000000E+20
 20
1.0000000000000000E+20
 30
1.0000000000000000E+20
  9
$PEXTMAX
 10
-1.0000000000000000E+20
 20
-1.0000000000000000E+20
 30
-1.0000000000000000E+20
  9
$PLIMMIN
 10
0.0
 20
0.0
  9
$PLIMMAX
 10
12.0
 20
9.0
  9
$UNITMODE
 70
     0
  9
$VISRETAIN
 70
     1
  9
$PLINEGEN
 70
     0
  9
$PSLTSCALE
 70
     1
  0
ENDSEC
  0
SECTION
  2
TABLES
  0
TABLE
  2
VPORT
 70
     1
  0
VPORT
  2
*ACTIVE
 70
     0
 10
0.0
 20
0.0
 11
1.0
 21
1.0
 12
451.5261389327887969
 22
-8.9708519198608752
 13
0.0
 23
0.0
 14
1.0
 24
1.0
 15
0.0
 25
0.0
 16
0.0
 26
0.0
 36
202.37134017897489
 17
4161.556396484375
 27
226.1108322143554972
 37
0.0
 40
22.7592163727006387
 41
2.8789237668161429
 42
50.0
 43
0.0
 44
0.0
 50
0.0
 51
0.0
 71
     0
 72
   100
 73
     1
 74
     1
 75
     0
 76
     0
 77
     0
 78
     0
  0
ENDTAB
  0
TABLE
  2
LTYPE
 70
     2
  0
LTYPE
  2
CONTINUOUS
 70
     0
  3
Solid line
 72
    65
 73
     0
 40
0.0
  0
LTYPE
  2
PHANTOM2
 70
     0
  3
___ _ _ ___ _ _ ___ _ _ ___ _ _
 72
    65
 73
     6
 40
1.25
 49
0.625
 49
-0.125
 49
0.125
 49
-0.125
 49
0.125
 49
-0.125
  0
ENDTAB
  0
TABLE
  2
LAYER
 70
     2
  0
LAYER
  2
0
 70
     0
 62
   255
  6
CONTINUOUS
  0
LAYER
  2
DEFPOINTS
 70
     0
 62
     7
  6
CONTINUOUS
  0
ENDTAB
  0
TABLE
  2
STYLE
 70
     1
  0
STYLE
  2
STANDARD
 70
     0
 40
0.0
 41
0.8
 50
0.0
 71
     0
 42
0.2
  3
txt
  4

  0
ENDTAB
  0
TABLE
  2
VIEW
 70
     0
  0
ENDTAB
  0
TABLE
  2
UCS
 70
     0
  0
ENDTAB
  0
TABLE
  2
APPID
 70
     9
  0
APPID
  2
ACAD
 70
     0
  0
APPID
  2
ACAD_MLEADERVER
 70
     0
  0
APPID
  2
ACAD_EXEMPT_FROM_CAD_STANDARDS
 70
     0
  0
APPID
  2
ACAD_NAV_VCDISPLAY
 70
     0
  0
APPID
  2
ACAECLAYERSTANDARD
 70
     0
  0
APPID
  2
ACCMTRANSPARENCY
 70
     0
  0
APPID
  2
ACAD_DSTYLE_DIMJAG
 70
     0
  0
APPID
  2
ACAD_DSTYLE_DIMTALN
 70
     0
  0
APPID
  2
ACDBATTR
 70
     0
  0
ENDTAB
  0
TABLE
  2
DIMSTYLE
 70
     1
  0
DIMSTYLE
  2
STANDARD
 70
     0
  3

  4

  5

  6

  7

 40
1.0
 41
0.1875
 42
0.0625
 43
0.38
 44
0.125
 45
0.0
 46
0.0
 47
0.01
 48
0.01
140
0.15625
141
0.09
142
0.0
143
25.3999999999999986
144
1.0
145
0.0
146
1.0
147
0.09
 71
     1
 72
     0
 73
     1
 74
     1
 75
     0
 76
     0
 77
     0
 78
     4
170
     0
171
     2
172
     0
173
     0
174
     0
175
     0
176
     0
177
     0
178
     0
  0
ENDTAB
  0
ENDSEC
  0
SECTION
  2
BLOCKS
  0
BLOCK
  8
0
  2
$MODEL_SPACE
 70
     0
 10
0.0
 20
0.0
 30
0.0
  3
$MODEL_SPACE
  1

  0
ENDBLK
  5
21
  8
0
  0
BLOCK
 67
     1
  8
0
  2
$PAPER_SPACE
 70
     0
 10
0.0
 20
0.0
 30
0.0
  3
$PAPER_SPACE
  1

  0
ENDBLK
  5
1D
 67
     1
  8
0
  0
ENDSEC
  0
SECTION
  2
ENTITIES
  0
ATTDEF
  5
3930
  8
DEFPOINTS
 10
4613.0056900013232735
 20
205.9304964707548038
 30
0.0
 40
0.001
  1
K-99016T
  3

  2
MODELNUMBER
 70
     0
1001
ACDBATTR
1070
     0
1070
     1
  0
ATTDEF
  5
3931
  8
DEFPOINTS
 10
4613.0056900013232735
 20
205.9288298040881955
 30
0.0
 40
0.001
  1
ALEUTIAN
  3

  2
TRADENAME
 70
     0
1001
ACDBATTR
1070
     0
1070
     1
  0
ATTDEF
  5
3932
  8
DEFPOINTS
 10
4613.0056900013232735
 20
205.9271631374215019
 30
0.0
 40
0.001
  1
BATH
  3

  2
PRODUCT
 70
     0
1001
ACDBATTR
1070
     0
1070
     1
  0
LINE
  5
12352
  8
0
 10
4642.5345439345910563
 20
226.6652810886214127
 30
0.0
 11
4583.4790419643595669
 21
226.6652810886214127
 31
0.0
  0
LINE
  5
12353
  8
0
 10
4583.7660936267720899
 20
228.3535592891759052
 30
0.0
 11
4642.2474890648491055
 21
228.3535592891759052
 31
0.0
  0
LINE
  5
12354
  8
0
 10
4593.5186039670397804
 20
205.9227455762213879
 30
0.0
 11
4591.5501000300400847
 21
205.9227455762213879
 31
0.0
  0
LINE
  5
12355
  8
0
 10
4604.8046213248408094
 20
205.9227455762213879
 30
0.0
 11
4606.7731252618414146
 21
205.9227455762213879
 31
0.0
  0
LINE
  5
12356
  8
0
 10
4607.2981315261413329
 20
205.9227455762213879
 30
0.0
 11
4609.2666354631401191
 21
205.9227455762213879
 31
0.0
  0
LINE
  5
12357
  8
0
 10
4626.195769321339867
 20
205.9227455762213879
 30
0.0
 11
4628.1642732583413817
 21
205.9227455762213879
 31
0.0
  0
LINE
  5
12358
  8
0
 10
4642.483545160108406
 20
228.1256030681072104
 30
0.0
 11
4642.5345439345910563
 21
226.6652810886214127
 31
0.0
  0
LINE
  5
12359
  8
0
 10
4583.5300375134302158
 20
228.1256025502844977
 30
0.0
 11
4583.4790419643595669
 21
226.6652810886214127
 31
0.0
  0
ARC
  5
1235A
  8
0
 10
4583.7660936267720899
 20
228.1173592891759085
 30
0.0
 40
0.2362
 50
90.0
 51
178.0000000030414071
  0
ARC
  5
1235B
  8
0
 10
4642.2474890648491055
 20
228.1173592891759085
 30
0.0
 40
0.2362
 50
2.0001256834110279
 51
90.0
  0
LINE
  5
1235C
  8
0
 10
4633.2446806575781011
 20
210.2221856369619957
 30
0.0
 11
4640.3943453107949608
 21
226.6652810886214127
 31
0.0
  0
LINE
  5
1235D
  8
0
 10
4586.5158316235401799
 20
226.6652810886214127
 30
0.0
 11
4586.7907827585586347
 21
221.4189008997948065
 31
0.0
  0
ARC
  5
1235E
  8
0
 10
4673.3402710479704183
 20
225.3526700596761998
 30
0.0
 40
86.6388392290781724
 50
182.602365009687702
 51
189.9410968144725018
  0
ARC
  5
1235F
  8
0
 10
4591.7551322655626791
 20
210.8701095770184111
 30
0.0
 40
3.782747926820393
 50
187.2043940819179966
 51
217.4139957368136891
  0
ARC
  5
12360
  8
0
 10
4590.179210080458688
 20
209.7717657410113929
 30
0.0
 40
1.865667645157671
 50
220.0285419764013
 51
269.2514781578955194
  0
ARC
  5
12361
  8
0
 10
4588.9775957776028008
 20
173.5818720179624961
 30
0.0
 40
34.3445675901018106
 50
87.9608329378480533
 51
88.0356663345668693
  0
ARC
  5
12362
  8
0
 10
4629.1307701185241967
 20
206.2908839058798094
 30
0.0
 40
2.2671956455380431
 50
91.2030579825722896
 51
92.3371429490682942
  0
ARC
  5
12363
  8
0
 10
4631.9798454769343152
 20
70.6232726634504218
 30
0.0
 40
137.9647194645997956
 50
90.6331270436809149
 51
91.2030579825722896
  0
ARC
  5
12364
  8
0
 10
4630.4152097449350549
 20
212.2115620468464954
 30
0.0
 40
3.6322147376990608
 50
270.6331270436808722
 51
302.8135067884442719
  0
ARC
  5
12365
  8
0
 10
4630.6335637892480008
 20
211.456570823463494
 30
0.0
 40
2.888189413582781
 50
307.293937665572912
 51
334.6979213634675148
  0
LINE
  5
12366
  8
0
 10
4590.1996990325651495
 20
207.946975137431906
 30
0.0
 11
4590.1997068482405666
 21
207.552953851221389
 31
0.0
  0
LINE
  5
12367
  8
0
 10
4590.1997068482405666
 20
207.552953851221389
 30
0.0
 11
4591.5501000300400847
 21
207.5029202246008992
 31
0.0
  0
LINE
  5
12368
  8
0
 10
4591.5501000300400847
 20
207.5480436250213927
 30
0.0
 11
4591.5501000300400847
 21
205.9227455762213879
 31
0.0
  0
LINE
  5
12369
  8
0
 10
4591.5501000300400847
 20
207.5480436250213927
 30
0.0
 11
4593.5186039670397804
 21
207.4900966417214079
 31
0.0
  0
LINE
  5
1236A
  8
0
 10
4593.5186039670397804
 20
207.4900966417214079
 30
0.0
 11
4593.5186039670397804
 21
205.9227455762213879
 31
0.0
  0
LINE
  5
1236B
  8
0
 10
4604.8046213248408094
 20
207.4309816272213993
 30
0.0
 11
4604.8046213248408094
 21
205.9227455762213879
 31
0.0
  0
LINE
  5
1236C
  8
0
 10
4604.8046213248408094
 20
207.4309816272213993
 30
0.0
 11
4606.7731252618414146
 21
207.4820006331214017
 31
0.0
  0
LINE
  5
1236D
  8
0
 10
4606.7731252618414146
 20
207.4820006331214017
 30
0.0
 11
4606.7731252618414146
 21
205.9227455762213879
 31
0.0
  0
LINE
  5
1236E
  8
0
 10
4593.5186039670397804
 20
207.4342452959213858
 30
0.0
 11
4598.3217535733401746
 21
207.2665156157214028
 31
0.0
  0
LINE
  5
1236F
  8
0
 10
4598.3217535733401746
 20
207.2665156157214028
 30
0.0
 11
4602.2587614473395661
 21
207.2665156157214028
 31
0.0
  0
LINE
  5
12370
  8
0
 10
4602.2587614473395661
 20
207.2665156157214028
 30
0.0
 11
4604.8046213248408094
 21
207.3554190016629093
 31
0.0
  0
LINE
  5
12371
  8
0
 10
4606.7731252618414146
 20
207.4241606738912935
 30
0.0
 11
4626.195769321339867
 21
208.1024143500210926
 31
0.0
  0
LINE
  5
12372
  8
0
 10
4628.1642732583413817
 20
208.1711560222495052
 30
0.0
 11
4629.0383149489407515
 21
208.2016782306534992
 31
0.0
  0
LINE
  5
12373
  8
0
 10
4626.195769321339867
 20
205.9227455762213879
 30
0.0
 11
4626.195769321339867
 21
208.1493017354214032
 31
0.0
  0
LINE
  5
12374
  8
0
 10
4626.195769321339867
 20
208.1493017354214032
 30
0.0
 11
4628.1642732583413817
 21
208.2150554005214076
 31
0.0
  0
LINE
  5
12375
  8
0
 10
4628.1642732583413817
 20
208.2150554005214076
 30
0.0
 11
4628.1642732583413817
 21
205.9227455762213879
 31
0.0
  0
LINE
  5
12376
  8
0
 10
4607.2981315261413329
 20
207.4424942966288086
 30
0.0
 11
4607.2981315261413329
 21
205.9227455762213879
 31
0.0
  0
LINE
  5
12377
  8
0
 10
4609.2666354631401191
 20
207.5112359688571928
 30
0.0
 11
4609.2666354631401191
 21
205.9227455762213879
 31
0.0
  0
LINE
  5
12378
  8
0
 10
4629.0383149489407515
 20
208.2016782306534992
 30
0.0
 11
4629.0383149489407515
 21
208.5995034039486882
 31
0.0
  0
ARC
  5
12379
  8
0
 10
4599.6676882662677599
 20
602.5935537605862464
 30
0.0
 40
394.760135828190073
 50
268.6256772233405741
 51
271.5353955119672946
  0
ARC
  5
1237A
  8
0
 10
4570.9581240177831205
 20
1673.6811523700589532
 30
0.0
 40
1466.232432704942994
 50
271.5353955119672946
 51
272.2701862379764179
  0
LINE
  5
1237B
  8
0
 10
4601.5641873499862413
 20
207.1432180172214998
 30
0.0
 11
4599.0175155754814114
 21
207.1432180172214998
 31
0.0
  0
LINE
  5
1237C
  8
0
 10
4598.7947769397660522
 20
207.2354793807888882
 30
0.0
 11
4598.7637407047341185
 21
207.2665156157214028
 31
0.0
  0
LINE
  5
1237D
  8
0
 10
4601.7869259860599414
 20
207.2354793811477975
 30
0.0
 11
4601.8179622206325803
 21
207.2665156157214028
 31
0.0
  0
ARC
  5
1237E
  8
0
 10
4601.5641873499862413
 20
207.4582180172214123
 30
0.0
 40
0.315
 50
270.0
 51
315.0000000000172236
  0
ARC
  5
1237F
  8
0
 10
4599.0175155754814114
 20
207.4582180172214976
 30
0.0
 40
0.315
 50
225.0000000923155881
 51
270.0
  0
LINE
  5
12380
  8
0
 10
4612.1911533058455461
 20
220.8509194086213938
 30
0.0
 11
4586.8184662584390026
 21
220.8509194086213938
 31
0.0
  0
ARC
  5
12381
  8
0
 10
4612.2728503629559782
 20
224.5169612005603881
 30
0.0
 40
3.6669519807850648
 50
268.7233855468595038
 51
299.6283081531365724
  0
ARC
  5
12382
  8
0
 10
4612.6094494488243072
 20
223.2650010322279002
 30
0.0
 40
2.4342542543055359
 50
307.3327696157110722
 51
343.3194788442082768
  0
ARC
  5
12383
  8
0
 10
4724.3332418614563721
 20
183.9573355353516035
 30
0.0
 40
116.0054066267545068
 50
159.2174426659042012
 51
160.559956505463191
  0
ARC
  5
12384
  8
0
 10
4617.8746380099573798
 20
224.3307666682993897
 30
0.0
 40
2.1484450125954302
 50
131.3086881571952063
 51
158.4864497110177126
  0
ARC
  5
12385
  8
0
 10
4617.4077106806689699
 20
224.5491109546003941
 30
0.0
 40
1.688891630034848
 50
88.9269862523359365
 51
124.2819436455368987
  0
LINE
  5
12386
  8
0
 10
4617.4393377572887402
 20
226.2377064259985104
 30
0.0
 11
4640.2084304712843732
 21
226.2377064259985104
 31
0.0
  0
ENDSEC
  0
EOF
