  0
SECTION
  2
HEADER
  9
$ACADVER
  1
AC1009
  9
$INSBASE
 10
4202.4256116293190644
 20
-70.3995741536715656
 30
0.0
  9
$EXTMIN
 10
4201.4917894050786344
 20
-70.4046219080286733
 30
0.0
  9
$EXTMAX
 10
4203.3594338535576753
 20
-64.0909398236696859
 30
0.0
  9
$LIMMIN
 10
0.0
 20
0.0
  9
$LIMMAX
 10
11.6929133858000007
 20
8.2677165353999982
  9
$ORTHOMODE
 70
     0
  9
$REGENMODE
 70
     1
  9
$FILLMODE
 70
     1
  9
$QTEXTMODE
 70
     0
  9
$MIRRTEXT
 70
     0
  9
$DRAGMODE
 70
     2
  9
$LTSCALE
 40
0.6431102362
  9
$OSMODE
 70
  4095
  9
$ATTMODE
 70
     1
  9
$TEXTSIZE
 40
0.2
  9
$TRACEWID
 40
0.05
  9
$TEXTSTYLE
  7
STANDARD
  9
$CLAYER
  8
0
  9
$CELTYPE
  6
BYLAYER
  9
$CECOLOR
 62
   256
  9
$DIMSCALE
 40
1.0
  9
$DIMASZ
 40
0.1875
  9
$DIMEXO
 40
0.0625
  9
$DIMDLI
 40
0.4443307087
  9
$DIMRND
 40
0.0
  9
$DIMDLE
 40
0.0
  9
$DIMEXE
 40
0.125
  9
$DIMTP
 40
0.01
  9
$DIMTM
 40
0.01
  9
$DIMTXT
 40
2.0
  9
$DIMCEN
 40
0.1052362205
  9
$DIMTSZ
 40
0.0
  9
$DIMTOL
 70
     1
  9
$DIMLIM
 70
     0
  9
$DIMTIH
 70
     1
  9
$DIMTOH
 70
     1
  9
$DIMSE1
 70
     0
  9
$DIMSE2
 70
     0
  9
$DIMTAD
 70
     0
  9
$DIMZIN
 70
     0
  9
$DIMBLK
  1

  9
$DIMASO
 70
     1
  9
$DIMSHO
 70
     1
  9
$DIMPOST
  1
\X
  9
$DIMAPOST
  1

  9
$DIMALT
 70
     1
  9
$DIMALTD
 70
     2
  9
$DIMALTF
 40
25.3999999999999986
  9
$DIMLFAC
 40
1.0
  9
$DIMTOFL
 70
     0
  9
$DIMTVP
 40
0.0
  9
$DIMTIX
 70
     0
  9
$DIMSOXD
 70
     0
  9
$DIMSAH
 70
     0
  9
$DIMBLK1
  1

  9
$DIMBLK2
  1

  9
$DIMSTYLE
  2
STANDARD
  9
$DIMCLRD
 70
     0
  9
$DIMCLRE
 70
     0
  9
$DIMCLRT
 70
     0
  9
$DIMTFAC
 40
1.0
  9
$DIMGAP
 40
0.09
  9
$LUNITS
 70
     2
  9
$LUPREC
 70
     4
  9
$SKETCHINC
 40
0.1
  9
$FILLETRAD
 40
0.0
  9
$AUNITS
 70
     0
  9
$AUPREC
 70
     0
  9
$MENU
  1
.
  9
$ELEVATION
 40
0.0
  9
$PELEVATION
 40
0.0
  9
$THICKNESS
 40
0.0
  9
$LIMCHECK
 70
     0
  9
$BLIPMODE
 70
     0
  9
$CHAMFERA
 40
0.0
  9
$CHAMFERB
 40
0.0
  9
$SKPOLY
 70
     0
  9
$TDCREATE
 40
2458060.468368056230247
  9
$TDUPDATE
 40
2459117.6097222222015262
  9
$TDINDWG
 40
0.6514653935
  9
$TDUSRTIMER
 40
0.6514653935
  9
$USRTIMER
 70
     1
  9
$ANGBASE
 50
0.0
  9
$ANGDIR
 70
     0
  9
$PDMODE
 70
     0
  9
$PDSIZE
 40
0.3125
  9
$PLINEWID
 40
0.0
  9
$COORDS
 70
     1
  9
$SPLFRAME
 70
     0
  9
$SPLINETYPE
 70
     6
  9
$SPLINESEGS
 70
     8
  9
$ATTDIA
 70
     1
  9
$ATTREQ
 70
     1
  9
$HANDLING
 70
     1
  9
$HANDSEED
  5
CCB7
  9
$SURFTAB1
 70
     6
  9
$SURFTAB2
 70
     6
  9
$SURFTYPE
 70
     6
  9
$SURFU
 70
     6
  9
$SURFV
 70
     6
  9
$UCSNAME
  2

  9
$UCSORG
 10
0.0
 20
0.0
 30
0.0
  9
$UCSXDIR
 10
1.0
 20
0.0
 30
0.0
  9
$UCSYDIR
 10
0.0
 20
1.0
 30
0.0
  9
$PUCSNAME
  2

  9
$PUCSORG
 10
0.0
 20
0.0
 30
0.0
  9
$PUCSXDIR
 10
1.0
 20
0.0
 30
0.0
  9
$PUCSYDIR
 10
0.0
 20
1.0
 30
0.0
  9
$USERI1
 70
     0
  9
$USERI2
 70
     0
  9
$USERI3
 70
     0
  9
$USERI4
 70
     0
  9
$USERI5
 70
     0
  9
$USERR1
 40
0.0
  9
$USERR2
 40
0.0
  9
$USERR3
 40
0.0
  9
$USERR4
 40
0.0
  9
$USERR5
 40
0.0
  9
$WORLDVIEW
 70
     1
  9
$SHADEDGE
 70
     3
  9
$SHADEDIF
 70
    70
  9
$TILEMODE
 70
     1
  9
$MAXACTVP
 70
    64
  9
$PLIMCHECK
 70
     0
  9
$PEXTMIN
 10
1.0000000000000000E+20
 20
1.0000000000000000E+20
 30
1.0000000000000000E+20
  9
$PEXTMAX
 10
-1.0000000000000000E+20
 20
-1.0000000000000000E+20
 30
-1.0000000000000000E+20
  9
$PLIMMIN
 10
0.0
 20
0.0
  9
$PLIMMAX
 10
12.0
 20
9.0
  9
$UNITMODE
 70
     0
  9
$VISRETAIN
 70
     1
  9
$PLINEGEN
 70
     0
  9
$PSLTSCALE
 70
     1
  0
ENDSEC
  0
SECTION
  2
TABLES
  0
TABLE
  2
VPORT
 70
     1
  0
VPORT
  2
*ACTIVE
 70
     0
 10
0.0
 20
0.0
 11
1.0
 21
1.0
 12
0.0
 22
0.0
 13
0.0
 23
0.0
 14
1.0
 24
1.0
 15
0.0
 25
0.0
 16
0.0
 26
0.0
 36
24.2082959388233405
 17
4202.425537109375
 27
-67.2477821454205724
 37
0.0
 40
6.5841295530237982
 41
2.8917682926829258
 42
50.0
 43
0.0
 44
0.0
 50
0.0
 51
0.0
 71
     0
 72
   100
 73
     1
 74
     1
 75
     0
 76
     0
 77
     0
 78
     0
  0
ENDTAB
  0
TABLE
  2
LTYPE
 70
     3
  0
LTYPE
  2
CONTINUOUS
 70
     0
  3
Solid line
 72
    65
 73
     0
 40
0.0
  0
LTYPE
  2
PHANTOM2
 70
     0
  3
___ _ _ ___ _ _ ___ _ _ ___ _ _
 72
    65
 73
     6
 40
1.25
 49
0.625
 49
-0.125
 49
0.125
 49
-0.125
 49
0.125
 49
-0.125
  0
ENDTAB
  0
TABLE
  2
LAYER
 70
     2
  0
LAYER
  2
0
 70
     0
 62
   255
  6
CONTINUOUS
  0
LAYER
  2
DEFPOINTS
 70
     0
 62
     7
  6
CONTINUOUS
  0
ENDTAB
  0
TABLE
  2
STYLE
 70
     1
  0
STYLE
  2
STANDARD
 70
     0
 40
0.0
 41
0.8
 50
0.0
 71
     0
 42
0.2
  3
txt
  4

  0
ENDTAB
  0
TABLE
  2
VIEW
 70
     0
  0
ENDTAB
  0
TABLE
  2
UCS
 70
     0
  0
ENDTAB
  0
TABLE
  2
APPID
 70
    10
  0
APPID
  2
ACAD
 70
     0
  0
APPID
  2
ACAD_MLEADERVER
 70
     0
  0
APPID
  2
ACAD_EXEMPT_FROM_CAD_STANDARDS
 70
     0
  0
APPID
  2
ACAD_NAV_VCDISPLAY
 70
     0
  0
APPID
  2
ACAECLAYERSTANDARD
 70
     0
  0
APPID
  2
ACCMTRANSPARENCY
 70
     0
  0
APPID
  2
ACAD_DSTYLE_DIMJAG
 70
     0
  0
APPID
  2
ACAD_DSTYLE_DIMTALN
 70
     0
  0
APPID
  2
ACDBATTR
 70
     0
  0
APPID
  2
ACADANNOTATIVE
 70
     0
  0
ENDTAB
  0
TABLE
  2
DIMSTYLE
 70
     3
  0
DIMSTYLE
  2
STANDARD
 70
     0
  3

  4

  5

  6

  7

 40
1.0
 41
0.1875
 42
0.0625
 43
0.38
 44
0.125
 45
0.0
 46
0.0
 47
0.01
 48
0.01
140
0.15625
141
0.09
142
0.0
143
25.3999999999999986
144
1.0
145
0.0
146
1.0
147
0.09
 71
     1
 72
     0
 73
     1
 74
     1
 75
     0
 76
     0
 77
     0
 78
     4
170
     0
171
     2
172
     0
173
     0
174
     0
175
     0
176
     0
177
     0
178
     0
  0
DIMSTYLE
  2
ANNOTATIVE
 70
     0
  3

  4

  5

  6

  7

 40
0.0
 41
0.18
 42
0.0625
 43
0.38
 44
0.18
 45
0.0
 46
0.0
 47
0.0
 48
0.0
140
0.18
141
0.09
142
0.0
143
25.3999999999999986
144
1.0
145
0.0
146
1.0
147
0.09
 71
     0
 72
     0
 73
     1
 74
     1
 75
     0
 76
     0
 77
     0
 78
     0
170
     0
171
     2
172
     0
173
     0
174
     0
175
     0
176
     0
177
     0
178
     0
  0
ENDTAB
  0
ENDSEC
  0
SECTION
  2
BLOCKS
  0
BLOCK
  8
0
  2
$MODEL_SPACE
 70
     0
 10
0.0
 20
0.0
 30
0.0
  3
$MODEL_SPACE
  1

  0
ENDBLK
  5
21
  8
0
  0
BLOCK
 67
     1
  8
0
  2
$PAPER_SPACE
 70
     0
 10
0.0
 20
0.0
 30
0.0
  3
$PAPER_SPACE
  1

  0
ENDBLK
  5
1D
 67
     1
  8
0
  0
BLOCK
  8
0
  2
_FILLED
 70
     0
 10
0.0
 20
0.0
 30
0.0
  3
_FILLED
  1

  0
SOLID
  5
69B4
  8
0
  6
BYBLOCK
 62
     0
 10
0.0
 20
0.0
 30
0.0
 11
-1.0
 21
0.1666666667
 31
0.0
 12
-1.0
 22
-0.1666666667
 32
0.0
 13
-1.0
 23
-0.1666666667
 33
0.0
  0
ENDBLK
  5
69B5
  8
0
  6
BYBLOCK
 62
     0
  0
BLOCK
  8
0
  2
A$CDFAF6206
 70
     0
 10
0.0
 20
0.0
 30
0.0
  3
A$CDFAF6206
  1

  0
LINE
  5
6A0E
  8
0
 10
7.4646650085734834
 20
10.9287685970688493
 30
0.0
 11
7.4646650085734896
 21
10.8905784766688498
 31
0.0
  0
ARC
  5
6A0F
  8
0
 10
7.7269027075262349
 20
10.8926811525838598
 30
0.0
 40
0.2622461286616791
 50
180.4593995232625048
 51
217.0214027758331099
  0
LINE
  5
6A10
  8
0
 10
9.767814609867095
 20
10.9287685970688493
 30
0.0
 11
9.767814609867095
 21
10.8905433757650094
 31
0.0
  0
ARC
  5
6A11
  8
0
 10
9.5068669568548287
 20
10.8922438613003703
 30
0.0
 40
0.2609531936261092
 50
322.8847083717149076
 51
359.6266329125650145
  0
LINE
  5
6A12
  8
0
 10
7.517522606271406
 20
10.7347792678688396
 30
0.0
 11
9.7149570120691777
 21
10.7347792678688396
 31
0.0
  0
LINE
  5
6A13
  8
0
 10
7.4646650085734834
 20
10.9287685970688493
 30
0.0
 11
9.7678146123202936
 21
10.9287685970688493
 31
0.0
  0
ARC
  5
6A14
  8
0
 10
4.0826771419203629
 20
8.527951346868889
 30
0.0
 40
4.0826771653999172
 50
13.3117747050523896
 51
32.7200330051415591
  0
ARC
  5
6A15
  8
0
 10
4.0826771460567306
 20
8.5279513475907933
 30
0.0
 40
4.0826771612084691
 50
359.6656501984817851
 51
13.3117747085593798
  0
ARC
  5
6A16
  8
0
 10
13.1498041284835097
 20
8.5279508235212234
 30
0.0
 40
4.0826788382043553
 50
147.2799733478981068
 51
166.6882233021349862
  0
ARC
  5
6A17
  8
0
 10
13.1498064934207992
 20
8.5279506557033251
 30
0.0
 40
4.0826811782395342
 50
166.688228652086309
 51
180.3343397625230011
  0
LINE
  5
6A18
  8
0
 10
8.1652847935202928
 20
8.504127000268852
 30
0.0
 11
9.0671948248202892
 21
8.5041270002687881
 31
0.0
  0
LINE
  5
6A19
  8
0
 10
8.1652847935202786
 20
8.5041270002667204
 30
0.0
 11
8.1652847935202928
 21
8.3607006934688481
 31
0.0
  0
ARC
  5
6A1A
  8
0
 10
5.6196779630382627
 20
8.3631022096452732
 30
0.0
 40
2.545607963272567
 50
342.0511668832173768
 51
359.945947387132378
  0
LINE
  5
6A1B
  8
0
 10
9.0671948248202892
 20
8.5041270002687881
 30
0.0
 11
9.0671948248202892
 21
8.2885990108688503
 31
0.0
  0
ARC
  5
6A1C
  8
0
 10
9.4521885297801163
 20
7.9614488056228501
 30
0.0
 40
0.5052201595850959
 50
139.6436242991769916
 51
174.6757930071850069
  0
ARC
  5
6A1D
  8
0
 10
9.9238413395551746
 20
8.1492417579399508
 30
0.0
 40
0.9848265662939324
 50
188.2263441834095943
 51
209.5593615864376034
  0
ARC
  5
6A1E
  8
0
 10
8.0788764238271256
 20
7.5665710856463297
 30
0.0
 40
0.0393715937169877
 50
162.1669117288323037
 51
227.2023190037006088
  0
ARC
  5
6A1F
  8
0
 10
8.7223682141740682
 20
8.2079667397440517
 30
0.0
 40
0.947895137885075
 50
225.0018610752970858
 51
261.4598823366255829
  0
ARC
  5
6A20
  8
0
 10
8.6645157662702701
 20
8.1695128573935332
 30
0.0
 40
0.9027466462812931
 50
264.7303071214498118
 51
281.8608311947915013
  0
ARC
  5
6A21
  8
0
 10
8.6645157662698935
 20
8.1695128573999671
 30
0.0
 40
0.9027466462876658
 50
299.1741886792128753
 51
299.1743179154552195
  0
ARC
  5
6A22
  8
0
 10
9.0843330931590316
 20
7.4150554710086141
 30
0.0
 40
0.0393703053609601
 50
251.9700352025496954
 51
252.4698971938937859
  0
ARC
  5
6A23
  8
0
 10
9.0843330931590316
 20
7.4150554710086141
 30
0.0
 40
0.0393703053609601
 50
297.2453716727138726
 51
6.8376113572703074
  0
LINE
  5
6A24
  8
0
 10
9.0671948248202892
 20
7.663402160468852
 30
0.0
 11
9.1234233799329516
 21
7.419742732911689
 31
0.0
  0
ARC
  5
6A25
  8
0
 10
8.8843741880892395
 20
9.8961379890094676
 30
0.0
 40
2.5255097382132701
 50
263.792800240752797
 51
274.9514951129821156
  0
ARC
  5
6A26
  8
0
 10
8.8258167405968848
 20
9.2763025889666508
 30
0.0
 40
1.9029970832759311
 50
246.0108363320686067
 51
263.5276935074397215
  0
ARC
  5
6A27
  8
0
 10
8.607491361665744
 20
8.3225444804829642
 30
0.0
 40
1.064510137163637
 50
283.1717405874071005
 51
297.7022170607311864
  0
LINE
  5
6A28
  8
0
 10
9.0671948248202892
 20
8.2885990108688503
 30
0.0
 11
26.2014378595979593
 21
8.2885990108689942
 31
0.0
  0
LINE
  5
6A29
  8
0
 10
26.2014378595979913
 20
7.6634021604689053
 30
0.0
 11
9.0671948248202892
 21
7.6634021604688618
 31
0.0
  0
LINE
  5
6A2A
  8
0
 10
27.8039676758446994
 20
10.9287685970690802
 30
0.0
 11
27.8039676758446888
 21
10.8905784766690807
 31
0.0
  0
ARC
  5
6A2B
  8
0
 10
27.5417299768919399
 20
10.8926811525840801
 30
0.0
 40
0.2622461286616791
 50
322.9785972241680838
 51
359.5406004767386889
  0
LINE
  5
6A2C
  8
0
 10
25.5008180745510913
 20
10.9287685970690305
 30
0.0
 11
25.5008180745510913
 21
10.8905433757651799
 31
0.0
  0
ARC
  5
6A2D
  8
0
 10
25.7617657275633505
 20
10.8922438613005497
 30
0.0
 40
0.2609531936261092
 50
180.3733670874362929
 51
217.1152916282862861
  0
LINE
  5
6A2E
  8
0
 10
27.7511100781467803
 20
10.7347792678690706
 30
0.0
 11
25.5536756723490015
 21
10.7347792678690208
 31
0.0
  0
LINE
  5
6A2F
  8
0
 10
27.8039676758446888
 20
10.9287685970686006
 30
0.0
 11
25.5008180745510806
 21
10.9287685970686006
 31
0.0
  0
ARC
  5
6A30
  8
0
 10
31.1859555424978616
 20
8.5279513468691981
 30
0.0
 40
4.0826771653999172
 50
147.2799669948597057
 51
166.6882252949490066
  0
ARC
  5
6A31
  8
0
 10
31.185955538361501
 20
8.5279513475911024
 30
0.0
 40
4.0826771612084691
 50
166.6882252914419098
 51
180.3343498015194086
  0
ARC
  5
6A32
  8
0
 10
22.1188285559344706
 20
8.5279508235212251
 30
0.0
 40
4.0826788382046102
 50
13.3117766978667795
 51
32.7200266521023977
  0
ARC
  5
6A33
  8
0
 10
22.1188261909974315
 20
8.5279506557034264
 30
0.0
 40
4.0826811782395342
 50
359.665660237478221
 51
13.31177134791497
  0
LINE
  5
6A34
  8
0
 10
27.1033478908979397
 20
8.5041270002690652
 30
0.0
 11
26.2014378595979416
 21
8.5041270002689835
 31
0.0
  0
LINE
  5
6A35
  8
0
 10
27.1033478908979504
 20
8.5041270002669354
 30
0.0
 11
27.1033478908979397
 21
8.3607006934690649
 31
0.0
  0
ARC
  5
6A36
  8
0
 10
29.6489547213799689
 20
8.3631022096455467
 30
0.0
 40
2.545607963272567
 50
180.0540526128687873
 51
197.9488331167837032
  0
LINE
  5
6A37
  8
0
 10
26.2014378595979416
 20
8.5041270002689835
 30
0.0
 11
26.2014378595979487
 21
8.2885990108690457
 31
0.0
  0
ARC
  5
6A38
  8
0
 10
25.8164441546381305
 20
7.9614488056230366
 30
0.0
 40
0.5052201595850959
 50
5.324206992816312
 51
40.3563757008241879
  0
ARC
  5
6A39
  8
0
 10
25.3447913448601803
 20
8.149241757940846
 30
0.0
 40
0.9848265662968968
 50
330.4406384136033807
 51
351.7736558165743759
  0
ARC
  5
6A3A
  8
0
 10
27.1897562605911212
 20
7.5665710856465473
 30
0.0
 40
0.0393715937169877
 50
312.7976809963004143
 51
17.8330882711689185
  0
ARC
  5
6A3B
  8
0
 10
26.5462644702441715
 20
8.2079667397442542
 30
0.0
 40
0.947895137885075
 50
278.5401176633754972
 51
314.9981389247041079
  0
ARC
  5
6A3C
  8
0
 10
26.6041169181479695
 20
8.1695128573937392
 30
0.0
 40
0.9027466462812931
 50
258.139168805210204
 51
275.2696928785518935
  0
ARC
  5
6A3D
  8
0
 10
26.6041169181483497
 20
8.1695128574001732
 30
0.0
 40
0.9027466462876658
 50
240.8256820845460027
 51
240.8258113207880058
  0
ARC
  5
6A3E
  8
0
 10
26.1842995912592293
 20
7.4150554710088086
 30
0.0
 40
0.0393703053609601
 50
287.5301028061073794
 51
288.0299647974517825
  0
ARC
  5
6A3F
  8
0
 10
26.1842995912592293
 20
7.4150554710088086
 30
0.0
 40
0.0393703053609601
 50
173.1623886427310026
 51
242.7546283272870085
  0
LINE
  5
6A40
  8
0
 10
26.2014378595981192
 20
7.6634021604690448
 30
0.0
 11
26.1452093044853093
 21
7.4197427329118826
 31
0.0
  0
ARC
  5
6A41
  8
0
 10
26.384258496328961
 20
9.8961379890096666
 30
0.0
 40
2.5255097382132701
 50
265.0485048870193054
 51
276.2071997592482262
  0
ARC
  5
6A42
  8
0
 10
26.4428159438213299
 20
9.2763025889668516
 30
0.0
 40
1.9029970832759311
 50
276.4723064925619838
 51
293.9891636679327007
  0
ARC
  5
6A43
  8
0
 10
26.6611413227524885
 20
8.3225444804831703
 30
0.0
 40
1.064510137163637
 50
242.2977829392704052
 51
256.8282594125943774
  0
LINE
  5
6A44
  8
0
 62
     4
 10
17.9031473532159602
 20
10.9287685970686006
 30
0.0
 11
24.6329820359843588
 21
20.0952817181593808
 31
0.0
  0
LINE
  5
6A45
  8
0
 62
     4
 10
17.9031473532159602
 20
-0.0000000300842942
 30
0.0
 11
22.3963351323106608
 21
4.993614497796286
 31
0.0
  0
ENDBLK
  5
6A49
  8
0
  0
BLOCK
  8
0
  2
*D5
 70
     1
 10
0.0
 20
0.0
 30
0.0
  3
*D5
  1

  0
LINE
  5
C4B8
  8
0
 62
     0
 10
4202.4256116293190644
 20
-70.4620741536715656
 30
0.0
 11
4202.4256116293190644
 21
-74.4711682905603425
 31
0.0
  0
LINE
  5
C4B9
  8
0
 62
     0
 10
4203.3594338535576753
 20
-70.4030190355715746
 30
0.0
 11
4203.3594338535576753
 21
-74.4711682905603425
 31
0.0
  0
LINE
  5
C4BA
  8
0
 62
     0
 10
4202.6131116293190644
 20
-74.3461682905603425
 30
0.0
 11
4203.1719338535576753
 21
-74.3461682905603425
 31
0.0
  0
LINE
  5
C4BB
  8
0
 62
     0
 10
4203.3594338535576753
 20
-74.3461682905603425
 30
0.0
 11
4203.5469338535576753
 21
-74.3461682905603425
 31
0.0
  0
SOLID
  5
C4BC
  8
0
 62
     0
 10
4202.6131116293190644
 20
-74.3149182905603425
 30
0.0
 11
4202.6131116293190644
 21
-74.3774182905603425
 31
0.0
 12
4202.4256116293190644
 22
-74.3461682905603425
 32
0.0
 13
4202.4256116293190644
 23
-74.3461682905603425
 33
0.0
  0
SOLID
  5
C4BD
  8
0
 62
     0
 10
4203.1719338535576753
 20
-74.3149182905603425
 30
0.0
 11
4203.1719338535576753
 21
-74.3774182905603425
 31
0.0
 12
4203.3594338535576753
 22
-74.3461682905603425
 32
0.0
 13
4203.3594338535576753
 23
-74.3461682905603425
 33
0.0
  0
INSERT
  5
C4BE
  8
0
  2
*U8
 10
0.0
 20
0.0
 30
0.0
  0
INSERT
  5
C4BF
  8
0
  2
*U9
 10
0.0
 20
0.0
 30
0.0
  0
POINT
  5
C4C0
  8
DEFPOINTS
 62
     0
 10
4202.4256116293190644
 20
-70.3995741536715656
 30
0.0
  0
POINT
  5
C4C1
  8
DEFPOINTS
 62
     0
 10
4203.3594338535576753
 20
-70.3405190355715746
 30
0.0
  0
POINT
  5
C4C2
  8
DEFPOINTS
 62
     0
 10
4203.3594338535576753
 20
-74.3461682905603425
 30
0.0
  0
ENDBLK
  5
C4B7
  8
0
  0
BLOCK
  8
0
  2
*D6
 70
     1
 10
0.0
 20
0.0
 30
0.0
  3
*D6
  1

  0
LINE
  5
C4C7
  8
0
 62
     0
 10
4202.4256116293190644
 20
-70.4620741536715656
 30
0.0
 11
4202.4256116293190644
 21
-75.3461752703387191
 31
0.0
  0
LINE
  5
C4C8
  8
0
 62
     0
 10
4201.4917894050786344
 20
-70.4030190355715604
 30
0.0
 11
4201.4917894050786344
 21
-75.3461752703387191
 31
0.0
  0
LINE
  5
C4C9
  8
0
 62
     0
 10
4202.2381116293190644
 20
-75.2211752703387191
 30
0.0
 11
4201.6792894050786344
 21
-75.2211752703387191
 31
0.0
  0
LINE
  5
C4CA
  8
0
 62
     0
 10
4201.4917894050786344
 20
-75.2211752703387191
 30
0.0
 11
4201.3042894050786344
 21
-75.2211752703387191
 31
0.0
  0
SOLID
  5
C4CB
  8
0
 62
     0
 10
4202.2381116293190644
 20
-75.1899252703387191
 30
0.0
 11
4202.2381116293190644
 21
-75.2524252703387191
 31
0.0
 12
4202.4256116293190644
 22
-75.2211752703387191
 32
0.0
 13
4202.4256116293190644
 23
-75.2211752703387191
 33
0.0
  0
SOLID
  5
C4CC
  8
0
 62
     0
 10
4201.6792894050786344
 20
-75.1899252703387191
 30
0.0
 11
4201.6792894050786344
 21
-75.2524252703387191
 31
0.0
 12
4201.4917894050786344
 22
-75.2211752703387191
 32
0.0
 13
4201.4917894050786344
 23
-75.2211752703387191
 33
0.0
  0
INSERT
  5
C4CD
  8
0
  2
*U10
 10
0.0
 20
0.0
 30
0.0
  0
INSERT
  5
C4CE
  8
0
  2
*U11
 10
0.0
 20
0.0
 30
0.0
  0
POINT
  5
C4CF
  8
DEFPOINTS
 62
     0
 10
4202.4256116293190644
 20
-70.3995741536715656
 30
0.0
  0
POINT
  5
C4D0
  8
DEFPOINTS
 62
     0
 10
4201.4917894050786344
 20
-70.3405190355715604
 30
0.0
  0
POINT
  5
C4D1
  8
DEFPOINTS
 62
     0
 10
4201.4917894050786344
 20
-75.2211752703387191
 30
0.0
  0
ENDBLK
  5
C4C6
  8
0
  0
BLOCK
  8
0
  2
*U8
 70
     1
 10
0.0
 20
0.0
 30
0.0
  3
*U8
  1

  0
TEXT
  5
CCA8
  8
0
 62
     0
 10
4203.6369338535578208
 20
-74.2561682905603391
 30
0.0
 40
2.0
  1
0.9338±0.0100
 41
0.8
  0
ENDBLK
  5
CCAA
  8
0
  0
BLOCK
  8
0
  2
*U9
 70
     1
 10
0.0
 20
0.0
 30
0.0
  3
*U9
  1

  0
TEXT
  5
CCAC
  8
0
 62
     0
 10
4204.1702671868897596
 20
-76.4361682905603459
 30
0.0
 40
2.0
  1
[23.72±0.25]
 41
0.8
  0
ENDBLK
  5
CCAE
  8
0
  0
BLOCK
  8
0
  2
*U10
 70
     1
 10
0.0
 20
0.0
 30
0.0
  3
*U10
  1

  0
TEXT
  5
CCB0
  8
0
 62
     0
 10
4184.9476227384129743
 20
-75.1311752703387157
 30
0.0
 40
2.0
  1
0.9338±0.0100
 41
0.8
  0
ENDBLK
  5
CCB2
  8
0
  0
BLOCK
  8
0
  2
*U11
 70
     1
 10
0.0
 20
0.0
 30
0.0
  3
*U11
  1

  0
TEXT
  5
CCB4
  8
0
 62
     0
 10
4185.4809560717449131
 20
-77.3111752703387225
 30
0.0
 40
2.0
  1
[23.72±0.25]
 41
0.8
  0
ENDBLK
  5
CCB6
  8
0
  0
ENDSEC
  0
SECTION
  2
ENTITIES
  0
ATTDEF
  5
3930
  8
DEFPOINTS
 10
4202.4256715510700815
 20
-70.4012885746953145
 30
0.0
 40
0.001
  1
K-98827AR-4ND
  3

  2
MODELNUMBER
 70
     0
1001
ACDBATTR
1070
     0
1070
     1
  0
ATTDEF
  5
3931
  8
DEFPOINTS
 10
4202.4256715510700815
 20
-70.4029552413619655
 30
0.0
 40
0.001
  1
KUMIN
  3

  2
TRADENAME
 70
     0
1001
ACDBATTR
1070
     0
1070
     1
  0
ATTDEF
  5
3932
  8
DEFPOINTS
 10
4202.4256715510700815
 20
-70.4046219080286448
 30
0.0
 40
0.001
  1
BATHROOM SINK FAUCET
  3

  2
PRODUCT
 70
     0
1001
ACDBATTR
1070
     0
1070
     1
  0
LINE
  5
C2A8
  8
0
 10
4201.5004147591189394
 20
-70.3995741536715656
 30
0.0
 11
4203.350808459917971
 21
-70.3995741536715656
 31
0.0
  0
LINE
  5
C65F
  8
0
 10
4201.5004147591189394
 20
-70.3995741536715656
 30
0.0
 11
4201.5004147591189394
 21
-70.359209881071564
 31
0.0
  0
ARC
  5
C660
  8
0
 10
4201.5191056046187441
 20
-70.359209881071564
 30
0.0
 40
0.0186908455000046
 50
90.0
 51
179.9999999999917861
  0
LINE
  5
C661
  8
0
 10
4203.350808459917971
 20
-70.3995741536715656
 30
0.0
 11
4203.350808459917971
 21
-70.359209881071564
 31
0.0
  0
ARC
  5
C662
  8
0
 10
4203.3321176144190758
 20
-70.359209881071564
 30
0.0
 40
0.0186908455000046
 50
0.0000000000081422
 51
90.0
  0
LINE
  5
C663
  8
0
 10
4201.4917894050786344
 20
-70.3405190355715746
 30
0.0
 11
4203.3594338535576753
 21
-70.3405190355715746
 31
0.0
  0
ARC
  5
C664
  8
0
 10
4198.1907072229232654
 20
-65.3038367155588162
 30
0.0
 40
3.4329049977150281
 50
344.3899185349800973
 51
3.645931486225535
  0
ARC
  5
C665
  8
0
 10
4201.6363380594521004
 20
-65.0855260632876593
 30
0.0
 40
0.0196737962099374
 50
89.9871621450197949
 51
180.0298691567743106
  0
LINE
  5
C666
  8
0
 10
4201.6363424676183058
 20
-65.0658522675715716
 30
0.0
 11
4203.2148809417176381
 21
-65.0658522680715663
 31
0.0
  0
LINE
  5
C667
  8
0
 10
4201.6497858227176039
 20
-65.0422309913715537
 30
0.0
 11
4203.2014373963193066
 21
-65.0422309913715537
 31
0.0
  0
ARC
  5
C668
  8
0
 10
4201.6529382501776126
 20
-65.0001725371727019
 30
0.0
 40
0.0421764314336936
 50
191.8143071381556126
 51
265.7134972344654216
  0
ARC
  5
C669
  8
0
 10
4202.5548606432430461
 20
-67.5173657204150288
 30
0.0
 40
3.4288627445031712
 50
92.1602424825048132
 51
101.0583135111779995
  0
ARC
  5
C66A
  8
0
 10
4202.0576682928603987
 20
-64.8123830900549365
 30
0.0
 40
0.6794414281828551
 50
103.6629552116129958
 51
130.140556048925589
  0
ARC
  5
C66B
  8
0
 10
4201.6399725442715862
 20
-64.3129585153708092
 30
0.0
 40
0.0284981455335565
 50
135.4712711170658963
 51
173.5412821635707132
  0
LINE
  5
C66C
  8
0
 10
4201.6772740080268704
 20
-65.0422036357080202
 30
0.0
 11
4201.6736432705538391
 21
-65.0658519335763401
 31
0.0
  0
ARC
  5
C66D
  8
0
 10
4209.0208992404222954
 20
-66.5000190328079555
 30
0.0
 40
5.6665668925705424
 50
177.5685832942731111
 51
182.43141670572669
  0
ARC
  5
C66E
  8
0
 10
4203.2580394968717883
 20
-66.2596514883985179
 30
0.0
 40
0.1013943605528101
 50
0.0158263556382992
 51
18.4308353473928186
  0
ARC
  5
C66F
  8
0
 10
4206.6605160353228712
 20
-65.3038367155668169
 30
0.0
 40
3.4329049973247141
 50
176.3540685132325052
 51
195.6100814754163082
  0
ARC
  5
C670
  8
0
 10
4203.214885200093704
 20
-65.0855260629112138
 30
0.0
 40
0.0196737953005112
 50
359.9701297455728195
 51
90.0124016227018018
  0
ARC
  5
C671
  8
0
 10
4203.1986651250635987
 20
-65.0011192377779139
 30
0.0
 40
0.0412051182676404
 50
273.8577615326425985
 51
349.246069512028896
  0
ARC
  5
C672
  8
0
 10
4202.3870872453044285
 20
-66.7343661186381496
 30
0.0
 40
2.6437070013379338
 50
77.6163924593589343
 51
89.165049082828574
  0
ARC
  5
C673
  8
0
 10
4202.7960874087611955
 20
-64.8055305223631848
 30
0.0
 40
0.6721851134674406
 50
49.6871542183174313
 51
76.4088268287087971
  0
ARC
  5
C674
  8
0
 10
4203.2106489442594466
 20
-64.312958243829172
 30
0.0
 40
0.028497638298864
 50
0.0
 51
44.5289662493892919
  0
LINE
  5
C675
  8
0
 10
4203.1739492506103488
 20
-65.0422036357080202
 30
0.0
 11
4203.1775799880833802
 21
-65.0658519335763401
 31
0.0
  0
ARC
  5
C676
  8
0
 10
4202.4342925974460741
 20
-64.598804408703657
 30
0.0
 40
0.1403076584947558
 50
1.2261249004735431
 51
93.5472098579693636
  0
ARC
  5
C677
  8
0
 10
4202.4269068720313953
 20
-64.5881110786097139
 30
0.0
 40
0.1478614159261657
 50
269.4981095193045917
 51
357.0184239874647005
  0
ARC
  5
C678
  8
0
 10
4202.4169305540772257
 20
-64.5988044140716653
 30
0.0
 40
0.1403076704921845
 50
86.4527465388088956
 51
178.7738730118159083
  0
ARC
  5
C679
  8
0
 10
4202.4243162708689852
 20
-64.5881110770979205
 30
0.0
 40
0.1478614192629838
 50
182.9815765317918022
 51
270.5019712025048761
  0
ARC
  5
C67A
  8
0
 10
4201.6038461453454147
 20
-64.4279435913519052
 30
0.0
 40
0.1113577456622281
 50
45.8173553882285702
 51
85.9787482683859281
  0
ARC
  5
C67B
  8
0
 10
4201.8599500861100751
 20
-64.1149910449441052
 30
0.0
 40
0.2935871184638978
 50
232.5568321304272956
 51
262.9638224215871105
  0
ARC
  5
C67C
  8
0
 10
4203.2473769964180974
 20
-64.4279436339905658
 30
0.0
 40
0.1113577456621718
 50
94.238576922437943
 51
134.180645691726113
  0
ARC
  5
C67D
  8
0
 10
4202.9912544130411334
 20
-64.1149560215061172
 30
0.0
 40
0.2936258377934266
 50
277.0415984272133869
 51
307.4426488851124191
  0
ARC
  5
C67E
  8
0
 10
4202.2836518315425565
 20
-66.6607988607330384
 30
0.0
 40
0.8902473572578532
 50
113.9269486193122987
 51
150.8815136773577024
  0
ARC
  5
C67F
  8
0
 10
4202.4449686092202683
 20
-67.2090277645121148
 30
0.0
 40
1.45871257916329
 50
90.7603319669959063
 51
110.9840109264972057
  0
ARC
  5
C680
  8
0
 10
4201.5345928658816774
 20
-66.2473301178709448
 30
0.0
 40
0.0348130188571588
 50
145.4546759261532998
 51
214.3099004604210052
  0
ARC
  5
C681
  8
0
 10
4202.3551459309655911
 20
-65.8662245190548958
 30
0.0
 40
0.9390998897839395
 50
205.2593062701687927
 51
240.4469603120620889
  0
ARC
  5
C682
  8
0
 10
4202.3985580475609822
 20
-65.7075786247390283
 30
0.0
 40
1.099263740319693
 50
242.5575735769749031
 51
271.4102270276819127
  0
ARC
  5
C683
  8
0
 10
4202.5675713893224383
 20
-66.6607988406111645
 30
0.0
 40
0.8902473252531876
 50
29.1184859875830888
 51
66.0730329642533007
  0
ARC
  5
C684
  8
0
 10
4202.3880410106712588
 20
-67.3038571686225708
 30
0.0
 40
1.553867817110332
 50
69.641115214415052
 51
88.6145232837517227
  0
ARC
  5
C685
  8
0
 10
4203.3166303295593025
 20
-66.2473301178709448
 30
0.0
 40
0.0348130188571442
 50
325.6900995395077985
 51
34.5453240738493079
  0
ARC
  5
C686
  8
0
 10
4202.4960772644726603
 20
-65.8662245190548958
 30
0.0
 40
0.9390998897839395
 50
299.5530396879378259
 51
334.7406937298312073
  0
ARC
  5
C687
  8
0
 10
4202.4526651510877855
 20
-65.7075786334491454
 30
0.0
 40
1.0992637311104501
 50
268.5897740234909747
 51
297.4424264837971918
  0
ARC
  5
C688
  8
0
 10
4202.4249611524401189
 20
-68.5144215055130843
 30
0.0
 40
2.086937665177278
 50
83.5939335750318264
 51
95.5733656017425375
  0
ARC
  5
C689
  8
0
 10
4202.3199242564269298
 20
-67.5744166865552529
 30
0.0
 40
1.141252246655611
 50
94.9083018561385643
 51
107.0837899223116949
  0
ARC
  5
C68A
  8
0
 10
4202.0794889504795719
 20
-66.7912073222269242
 30
0.0
 40
0.3219685285981819
 50
107.1295169880637985
 51
124.7356017715860048
  0
ARC
  5
C68B
  8
0
 10
4201.9181639405069291
 20
-66.5773961553982616
 30
0.0
 40
0.055391905215082
 50
113.547441520547693
 51
237.9810651281565868
  0
ARC
  5
C68C
  8
0
 10
4202.3383377061300052
 20
-65.9283709888624969
 30
0.0
 40
0.8285476493234646
 50
237.1414498808827886
 51
266.2382586293992972
  0
ARC
  5
C68D
  8
0
 10
4202.4262508081192209
 20
-65.340732675129118
 30
0.0
 40
1.4215383021543779
 50
264.2560370728405132
 51
279.328302976942723
  0
ARC
  5
C68E
  8
0
 10
4202.5162522922355492
 20
-65.9098972618068899
 30
0.0
 40
0.845319045355874
 50
279.5618288355785808
 51
300.3124132008503011
  0
ARC
  5
C68F
  8
0
 10
4202.9064908108648524
 20
-66.5660903980879937
 30
0.0
 40
0.0820754209940107
 50
296.3320459864165741
 51
354.6410779942426075
  0
ARC
  5
C690
  8
0
 10
4202.8344575540240839
 20
-66.653425309793036
 30
0.0
 40
0.1731654590984131
 50
27.3921030546041706
 51
79.9065755096393815
  0
ARC
  5
C691
  8
0
 10
4202.544647809030721
 20
-67.5188213229856302
 30
0.0
 40
1.0842284244846681
 50
72.825302922963985
 51
84.0090909228992047
  0
LINE
  5
C692
  8
0
 10
4202.0712809008182376
 20
-66.5119746819715658
 30
0.0
 11
4202.0712809008182376
 21
-66.5676053893715647
 31
0.0
  0
ARC
  5
C693
  8
0
 10
4202.1615610501921765
 20
-66.5393815281868228
 30
0.0
 40
0.0943485060314404
 50
102.3568371974376987
 51
163.1129925362623112
  0
ARC
  5
C694
  8
0
 10
4202.1556573655871034
 20
-66.564260021004543
 30
0.0
 40
0.0844427575125837
 50
182.2704808411789088
 51
233.5860857785889095
  0
ARC
  5
C695
  8
0
 10
4202.3253455590802332
 20
-66.3018168094896652
 30
0.0
 40
0.3968395556814526
 50
236.364116208928408
 51
266.5996672351977281
  0
LINE
  5
C696
  8
0
 10
4202.7799423182177634
 20
-66.5119746819715658
 30
0.0
 11
4202.7799423182177634
 21
-66.5676053893715647
 31
0.0
  0
ARC
  5
C697
  8
0
 10
4202.6896621688456435
 20
-66.5393815281868228
 30
0.0
 40
0.0943485060314404
 50
16.8870074637376391
 51
77.6431628025622445
  0
ARC
  5
C698
  8
0
 10
4202.6955658534488975
 20
-66.564260021004543
 30
0.0
 40
0.0844427575125837
 50
306.4139142214111189
 51
357.7295191588211196
  0
ARC
  5
C699
  8
0
 10
4202.5258776599548582
 20
-66.3018168094896652
 30
0.0
 40
0.3968395556814526
 50
273.4003327648022719
 51
303.6358837910714783
  0
ARC
  5
C69A
  8
0
 10
4202.4256116095193647
 20
-65.6546638892219789
 30
0.0
 40
1.0506137829495881
 50
263.2325881634865823
 51
276.7674118365131903
  0
ARC
  5
C69B
  8
0
 10
4202.4254764059087393
 20
-67.4675754583137319
 30
0.0
 40
0.9630989463106363
 50
81.0897293133436534
 51
99.3853057645230251
  0
ARC
  5
C69C
  8
0
 10
4202.3211180300177148
 20
-66.8845311782022094
 30
0.0
 40
0.37092502931103
 50
98.1675960090849316
 51
119.186543610369597
  0
ARC
  5
C69D
  8
0
 10
4202.1515071840167366
 20
-66.5999723319632011
 30
0.0
 40
0.0408580630790069
 50
106.015251798253999
 51
231.7352524214672087
  0
ARC
  5
C69E
  8
0
 10
4202.4079451520810835
 20
-66.1048507282626048
 30
0.0
 40
0.5977622066662157
 50
241.8795589501912104
 51
271.6935864899131161
  0
ARC
  5
C69F
  8
0
 10
4202.4350656034866915
 20
-66.0384129350715057
 30
0.0
 40
0.6640061873588181
 50
269.1842077193916793
 51
294.8333598558298263
  0
ARC
  5
C6A0
  8
0
 10
4202.6964644527042765
 20
-66.6017687291065243
 30
0.0
 40
0.0429643353830525
 50
293.993676969302328
 51
20.5527391880617287
  0
ARC
  5
C6A1
  8
0
 10
4202.5592411372890638
 20
-66.7727680968019968
 30
0.0
 40
0.257131033779407
 50
46.3598748040517705
 51
86.5647906337951838
  0
LINE
  5
C6A2
  8
0
 10
4202.1930582926188436
 20
-66.5364132656685427
 30
0.0
 11
4202.1930582925688213
 21
-66.5461592903394035
 31
0.0
  0
LINE
  5
C6A3
  8
0
 10
4202.1930582925688213
 20
-66.5461592903394035
 30
0.0
 11
4202.2127433319346892
 21
-66.5540877699505131
 31
0.0
  0
LINE
  5
C6A4
  8
0
 10
4202.2127433319346892
 20
-66.5540877699505131
 30
0.0
 11
4202.2127433320183627
 21
-66.5332242485402503
 31
0.0
  0
LINE
  5
C6A5
  8
0
 10
4202.2127433320183627
 20
-66.5332242485402503
 30
0.0
 11
4202.2078935281633676
 21
-66.5313094496104327
 31
0.0
  0
LINE
  5
C6A6
  8
0
 10
4202.220897142220565
 20
-66.5274021384719845
 30
0.0
 11
4202.2208971421687238
 21
-66.540323576736057
 31
0.0
  0
LINE
  5
C6A7
  8
0
 10
4202.2208971421687238
 20
-66.540323576736057
 30
0.0
 11
4202.2405821816191747
 21
-66.5472298075715543
 31
0.0
  0
LINE
  5
C6A8
  8
0
 10
4202.2405821816191747
 20
-66.5472298075715543
 30
0.0
 11
4202.2405821816191747
 21
-66.5246672366596385
 31
0.0
  0
LINE
  5
C6A9
  8
0
 10
4202.2405821816191747
 20
-66.5246672366596385
 30
0.0
 11
4202.2366995417687576
 21
-66.5233402367167059
 31
0.0
  0
LINE
  5
C6AA
  8
0
 10
4202.2487359919186929
 20
-66.5207369809832443
 30
0.0
 11
4202.24873599190596
 21
-66.5316703208630571
 31
0.0
  0
LINE
  5
C6AB
  8
0
 10
4202.24873599190596
 20
-66.5316703208630571
 30
0.0
 11
4202.2684210312800133
 21
-66.5375962935737562
 31
0.0
  0
LINE
  5
C6AC
  8
0
 10
4202.2684210312800133
 20
-66.5375962935737562
 30
0.0
 11
4202.2684210313191215
 21
-66.5173685389024314
 31
0.0
  0
LINE
  5
C6AD
  8
0
 10
4202.2765748415176859
 20
-66.5160567225513404
 30
0.0
 11
4202.2765748415176859
 21
-66.5201987068715681
 31
0.0
  0
LINE
  5
C6AE
  8
0
 10
4202.2765748415176859
 20
-66.5201987068715681
 30
0.0
 11
4202.296259880917205
 21
-66.525170139634497
 31
0.0
  0
LINE
  5
C6AF
  8
0
 10
4202.296259880917205
 20
-66.525170139634497
 30
0.0
 11
4202.296259880919024
 21
-66.5131842020387438
 31
0.0
  0
LINE
  5
C6B0
  8
0
 10
4202.3322525408184447
 20
-66.508998966132566
 30
0.0
 11
4202.3322525408184447
 21
-66.532354466871567
 31
0.0
  0
LINE
  5
C6B1
  8
0
 10
4202.3322525408184447
 20
-66.532354466871567
 30
0.0
 11
4202.3519375802206923
 21
-66.5352721882937317
 31
0.0
  0
LINE
  5
C6B2
  8
0
 10
4202.3519375802206923
 20
-66.5352721882937317
 30
0.0
 11
4202.3519375802179638
 21
-66.5093846854488078
 31
0.0
  0
LINE
  5
C6B3
  8
0
 10
4202.3519375802179638
 20
-66.5093846854488078
 30
0.0
 11
4202.3426031141380008
 21
-66.5080487010548325
 31
0.0
  0
LINE
  5
C6B4
  8
0
 10
4202.3600913905183916
 20
-66.5066985774662953
 30
0.0
 11
4202.3600913905183916
 21
-66.515356526186082
 31
0.0
  0
LINE
  5
C6B5
  8
0
 10
4202.3600913905183916
 20
-66.515356526186082
 30
0.0
 11
4202.3797764298578841
 21
-66.5173360958405482
 31
0.0
  0
LINE
  5
C6B6
  8
0
 10
4202.3797764298578841
 20
-66.5173360958405482
 30
0.0
 11
4202.3797764299188202
 21
-66.505561377034681
 31
0.0
  0
LINE
  5
C6B7
  8
0
 10
4202.3879302402183384
 20
-66.5130275078618638
 30
0.0
 11
4202.3879302401974201
 21
-66.5388063771756606
 31
0.0
  0
LINE
  5
C6B8
  8
0
 10
4202.3879302401974201
 20
-66.5388063771756606
 30
0.0
 11
4202.4076152795178132
 21
-66.5397686150715657
 31
0.0
  0
LINE
  5
C6B9
  8
0
 10
4202.4076152795178132
 20
-66.5397686150715657
 30
0.0
 11
4202.4076152747511514
 21
-66.5140190462623764
 31
0.0
  0
LINE
  5
C6BA
  8
0
 10
4202.4076152747511514
 20
-66.5140190462623764
 30
0.0
 11
4202.3879302402183384
 21
-66.5130275078618638
 31
0.0
  0
LINE
  5
C6BB
  8
0
 10
4202.4157690898191504
 20
-66.5045254344837105
 30
0.0
 11
4202.4157690898191504
 21
-66.5191390359183572
 31
0.0
  0
LINE
  5
C6BC
  8
0
 10
4202.4157690898191504
 20
-66.5191390359183572
 30
0.0
 11
4202.4354541292186696
 21
-66.5191390359183572
 31
0.0
  0
LINE
  5
C6BD
  8
0
 10
4202.4354541292186696
 20
-66.5191390359183572
 30
0.0
 11
4202.4354541292186696
 21
-66.5045281980911511
 31
0.0
  0
LINE
  5
C6BE
  8
0
 10
4202.4436079394254193
 20
-66.5140190529620838
 30
0.0
 11
4202.4436079395190973
 21
-66.5397686149890291
 31
0.0
  0
LINE
  5
C6BF
  8
0
 10
4202.4436079395190973
 20
-66.5397686149890291
 30
0.0
 11
4202.4632929788176625
 21
-66.5388063771715679
 31
0.0
  0
LINE
  5
C6C0
  8
0
 10
4202.4632929788176625
 20
-66.5388063771715679
 30
0.0
 11
4202.4632929789022455
 21
-66.513027507856151
 31
0.0
  0
LINE
  5
C6C1
  8
0
 10
4202.4632929789022455
 20
-66.513027507856151
 30
0.0
 11
4202.4436079394254193
 21
-66.5140190529620838
 31
0.0
  0
LINE
  5
C6C2
  8
0
 10
4202.4714467891189997
 20
-66.5055742606782019
 30
0.0
 11
4202.471446789080801
 21
-66.5173360958257405
 31
0.0
  0
LINE
  5
C6C3
  8
0
 10
4202.471446789080801
 20
-66.5173360958257405
 30
0.0
 11
4202.4911318285176094
 21
-66.5153565261270217
 31
0.0
  0
LINE
  5
C6C4
  8
0
 10
4202.4911318285176094
 20
-66.5153565261270217
 30
0.0
 11
4202.4911318285176094
 21
-66.5067170161555907
 31
0.0
  0
LINE
  5
C6C5
  8
0
 10
4202.4992856388180371
 20
-66.5073089445156569
 30
0.0
 11
4202.4992856388180371
 21
-66.5352721882715628
 31
0.0
  0
LINE
  5
C6C6
  8
0
 10
4202.4992856388180371
 20
-66.5352721882715628
 30
0.0
 11
4202.5189706781620771
 21
-66.5323544669053746
 31
0.0
  0
LINE
  5
C6C7
  8
0
 10
4202.5189706781620771
 20
-66.5323544669053746
 30
0.0
 11
4202.5189706781184213
 21
-66.509025302375818
 31
0.0
  0
LINE
  5
C6C8
  8
0
 10
4202.5271244884042972
 20
-66.526355090862566
 30
0.0
 11
4202.5271244884179396
 21
-66.5503392563257137
 31
0.0
  0
LINE
  5
C6C9
  8
0
 10
4202.5271244884179396
 20
-66.5503392563257137
 30
0.0
 11
4202.5468095278183682
 21
-66.5464942154957981
 31
0.0
  0
LINE
  5
C6CA
  8
0
 10
4202.5468095278183682
 20
-66.5464942154957981
 30
0.0
 11
4202.5468095278183682
 21
-66.5224067003855737
 31
0.0
  0
LINE
  5
C6CB
  8
0
 10
4202.5468095278183682
 20
-66.5224067003855737
 30
0.0
 11
4202.5271244884206681
 21
-66.5263550908396724
 31
0.0
  0
LINE
  5
C6CC
  8
0
 10
4202.5549633381178865
 20
-66.5132208519060555
 30
0.0
 11
4202.5549633381224339
 21
-66.5251701396342838
 31
0.0
  0
LINE
  5
C6CD
  8
0
 10
4202.5549633381224339
 20
-66.5251701396342838
 30
0.0
 11
4202.5746483774182707
 21
-66.5201987068381442
 31
0.0
  0
LINE
  5
C6CE
  8
0
 10
4202.5746483774182707
 20
-66.5201987068381442
 30
0.0
 11
4202.5746483774182707
 21
-66.5160990774715657
 31
0.0
  0
LINE
  5
C6CF
  8
0
 10
4202.5828021877186984
 20
-66.5167187940592584
 30
0.0
 11
4202.5828021876868661
 21
-66.5375962935714114
 31
0.0
  0
LINE
  5
C6D0
  8
0
 10
4202.5828021876868661
 20
-66.5375962935714114
 30
0.0
 11
4202.6024872271309505
 21
-66.5316703208529816
 31
0.0
  0
LINE
  5
C6D1
  8
0
 10
4202.6024872271309505
 20
-66.5316703208529816
 30
0.0
 11
4202.6024872271173081
 21
-66.5192998655636671
 31
0.0
  0
LINE
  5
C6D2
  8
0
 10
4202.6106410374322877
 20
-66.5208267965002449
 30
0.0
 11
4202.6106410373413382
 21
-66.5472298076099094
 31
0.0
  0
LINE
  5
C6D3
  8
0
 10
4202.6106410373413382
 20
-66.5472298076099094
 30
0.0
 11
4202.6303260767190295
 21
-66.5403235767715699
 31
0.0
  0
LINE
  5
C6D4
  8
0
 10
4202.6303260767190295
 20
-66.5403235767715699
 30
0.0
 11
4202.6303260767190295
 21
-66.525658202385145
 31
0.0
  0
LINE
  5
C6D5
  8
0
 10
4202.6384798870185477
 20
-66.5281508670864667
 30
0.0
 11
4202.6384798870185477
 21
-66.5540877698526856
 31
0.0
  0
LINE
  5
C6D6
  8
0
 10
4202.6384798870185477
 20
-66.5540877698526856
 30
0.0
 11
4202.6581649263680447
 21
-66.5461592903394035
 31
0.0
  0
LINE
  5
C6D7
  8
0
 10
4202.6581649263680447
 20
-66.5461592903394035
 30
0.0
 11
4202.6581649264226144
 21
-66.5354277241810053
 31
0.0
  0
LINE
  5
C6D8
  8
0
 10
4202.6668963618176349
 20
-66.5392585227715614
 30
0.0
 11
4202.6663187367175851
 21
-66.5581410535878604
 31
0.0
  0
LINE
  5
C6D9
  8
0
 10
4202.6663187367175851
 20
-66.5581410535878604
 30
0.0
 11
4202.6860037761180138
 21
-66.5490548832241302
 31
0.0
  0
LINE
  5
C6DA
  8
0
 10
4202.6941575863183971
 20
-66.5692849867088512
 30
0.0
 11
4202.6941575863793332
 21
-66.5832781913376976
 31
0.0
  0
LINE
  5
C6DB
  8
0
 10
4202.6941575863793332
 20
-66.5832781913376976
 30
0.0
 11
4202.7138426257115498
 21
-66.5732414548770493
 31
0.0
  0
LINE
  5
C6DC
  8
0
 10
4202.7138426257115498
 20
-66.5732414548770493
 30
0.0
 11
4202.7138426257188257
 21
-66.5673058172773437
 31
0.0
  0
LINE
  5
C6DD
  8
0
 10
4202.6941575863183971
 20
-66.5692849867088512
 30
0.0
 11
4202.7073791346992948
 21
-66.5625979222870825
 31
0.0
  0
LINE
  5
C6DE
  8
0
 10
4202.1652194429179872
 20
-66.5479587373962858
 30
0.0
 11
4202.1652194429179872
 21
-66.5491297368715635
 31
0.0
  0
LINE
  5
C6DF
  8
0
 10
4202.1652194429179872
 20
-66.5491297368715635
 30
0.0
 11
4202.1849044823184158
 21
-66.5581410534514788
 31
0.0
  0
LINE
  5
C6E0
  8
0
 10
4202.1849044823184158
 20
-66.5581410534514788
 30
0.0
 11
4202.1849044823184158
 21
-66.5395221249981574
 31
0.0
  0
LINE
  5
C6E1
  8
0
 10
4202.1373805933271797
 20
-66.5616340905576038
 30
0.0
 11
4202.1373805932253163
 21
-66.5732414548770493
 31
0.0
  0
LINE
  5
C6E2
  8
0
 10
4202.1373805932253163
 20
-66.5732414548770493
 30
0.0
 11
4202.1570656326175595
 21
-66.5832781912715745
 31
0.0
  0
LINE
  5
C6E3
  8
0
 10
4202.1570656326175595
 20
-66.5832781912715745
 30
0.0
 11
4202.1570656326794051
 21
-66.5692849866367453
 31
0.0
  0
LINE
  5
C6E4
  8
0
 10
4202.1570656326794051
 20
-66.5692849866367453
 30
0.0
 11
4202.1402347210942025
 21
-66.560700040226763
 31
0.0
  0
LINE
  5
C6E5
  8
0
 10
4202.165219443037131
 20
-66.5602126190854761
 30
0.0
 11
4202.1652194429179872
 21
-66.5759286203930429
 31
0.0
  0
LINE
  5
C6E6
  8
0
 10
4202.1652194429179872
 20
-66.5759286203930429
 30
0.0
 11
4202.1769260037035565
 21
-66.5812888598764232
 31
0.0
  0
LINE
  5
C6E7
  8
0
 10
4202.1769260037035565
 20
-66.5812888598764232
 30
0.0
 11
4202.1818348287188201
 21
-66.5762786265715647
 31
0.0
  0
LINE
  5
C6E8
  8
0
 10
4202.1818348287188201
 20
-66.5762786265715647
 30
0.0
 11
4202.1849044823184158
 21
-66.5762786265715647
 31
0.0
  0
LINE
  5
C6E9
  8
0
 10
4202.1849044823184158
 20
-66.5762786265715647
 30
0.0
 11
4202.1849044822683936
 21
-66.569145044015869
 31
0.0
  0
LINE
  5
C6EA
  8
0
 10
4202.1849044822683936
 20
-66.569145044015869
 30
0.0
 11
4202.165219443037131
 21
-66.5602126190854335
 31
0.0
  0
LINE
  5
C6EB
  8
0
 10
4202.1930582926188436
 20
-66.5582770454102217
 30
0.0
 11
4202.1930582926188436
 21
-66.5756163276381159
 31
0.0
  0
LINE
  5
C6EC
  8
0
 10
4202.1930582926188436
 20
-66.5756163276381159
 30
0.0
 11
4202.2127433319737975
 21
-66.5833567248760261
 31
0.0
  0
LINE
  5
C6ED
  8
0
 10
4202.2127433319737975
 20
-66.5833567248760261
 30
0.0
 11
4202.2127433320183627
 21
-66.5661207696344803
 31
0.0
  0
LINE
  5
C6EE
  8
0
 10
4202.2127433320183627
 20
-66.5661207696344803
 30
0.0
 11
4202.1930582926188436
 21
-66.5582770454102217
 31
0.0
  0
LINE
  5
C6EF
  8
0
 10
4202.220897142308786
 20
-66.5534877529795921
 30
0.0
 11
4202.2208971422178365
 21
-66.5724498264315656
 31
0.0
  0
LINE
  5
C6F0
  8
0
 10
4202.2208971422178365
 20
-66.5724498264315656
 30
0.0
 11
4202.2405821814991214
 21
-66.579158206952755
 31
0.0
  0
LINE
  5
C6F1
  8
0
 10
4202.2405821814991214
 20
-66.579158206952755
 30
0.0
 11
4202.2405821816582829
 21
-66.5603064514651095
 31
0.0
  0
LINE
  5
C6F2
  8
0
 10
4202.2405821816582829
 20
-66.5603064514651095
 30
0.0
 11
4202.220897142308786
 21
-66.5534877529796063
 31
0.0
  0
LINE
  5
C6F3
  8
0
 10
4202.2487359919177834
 20
-66.5459092553984846
 30
0.0
 11
4202.2487359919177834
 21
-66.5665192894715716
 31
0.0
  0
LINE
  5
C6F4
  8
0
 10
4202.2487359919177834
 20
-66.5665192894715716
 30
0.0
 11
4202.2684210313191215
 21
-66.5722451551832819
 31
0.0
  0
LINE
  5
C6F5
  8
0
 10
4202.2684210313191215
 20
-66.5722451551832819
 30
0.0
 11
4202.2684210313191215
 21
-66.5517476951405769
 31
0.0
  0
LINE
  5
C6F6
  8
0
 10
4202.2684210313191215
 20
-66.5517476951405769
 30
0.0
 11
4202.2487359918941365
 21
-66.545909255341769
 31
0.0
  0
LINE
  5
C6F7
  8
0
 10
4202.2765748416359202
 20
-66.5355585778786747
 30
0.0
 11
4202.2765748414758491
 21
-66.5578676640350864
 31
0.0
  0
LINE
  5
C6F8
  8
0
 10
4202.2765748414758491
 20
-66.5578676640350864
 30
0.0
 11
4202.2962598809808696
 21
-66.5626440102063555
 31
0.0
  0
LINE
  5
C6F9
  8
0
 10
4202.2962598809808696
 20
-66.5626440102063555
 30
0.0
 11
4202.296259880919024
 21
-66.5404452537720346
 31
0.0
  0
LINE
  5
C6FA
  8
0
 10
4202.296259880919024
 20
-66.5404452537720346
 30
0.0
 11
4202.2765748416359202
 21
-66.5355585779210941
 31
0.0
  0
LINE
  5
C6FB
  8
0
 10
4202.3044136912467366
 20
-66.5224067003742476
 30
0.0
 11
4202.3044136912176327
 21
-66.5464942154848558
 31
0.0
  0
LINE
  5
C6FC
  8
0
 10
4202.3044136912176327
 20
-66.5464942154848558
 30
0.0
 11
4202.3240987306598981
 21
-66.5503392563329754
 31
0.0
  0
LINE
  5
C6FD
  8
0
 10
4202.3240987306598981
 20
-66.5503392563329754
 30
0.0
 11
4202.3240987306189709
 21
-66.5263550910089236
 31
0.0
  0
LINE
  5
C6FE
  8
0
 10
4202.3240987306189709
 20
-66.5263550910089236
 30
0.0
 11
4202.3044136912467366
 21
-66.5224067003742476
 31
0.0
  0
LINE
  5
C6FF
  8
0
 10
4202.2487359919177834
 20
-66.5784245545079614
 30
0.0
 11
4202.2487359919177834
 21
-66.5955045703177575
 31
0.0
  0
LINE
  5
C700
  8
0
 10
4202.2487359919177834
 20
-66.5955045703177575
 30
0.0
 11
4202.2684210311890638
 21
-66.6011041708393208
 31
0.0
  0
LINE
  5
C701
  8
0
 10
4202.2684210311890638
 20
-66.6011041708393208
 30
0.0
 11
4202.2684210313191215
 21
-66.5840936017771696
 31
0.0
  0
LINE
  5
C702
  8
0
 10
4202.2684210313191215
 20
-66.5840936017771696
 30
0.0
 11
4202.248735991986905
 21
-66.5784245544661815
 31
0.0
  0
LINE
  5
C703
  8
0
 10
4202.2765748415176859
 20
-66.570813976069914
 30
0.0
 11
4202.2765748415176859
 21
-66.5895012360856668
 31
0.0
  0
LINE
  5
C704
  8
0
 10
4202.2765748415176859
 20
-66.5895012360856668
 30
0.0
 11
4202.2962598809053816
 21
-66.5941489635709445
 31
0.0
  0
LINE
  5
C705
  8
0
 10
4202.2962598809053816
 20
-66.5941489635709445
 30
0.0
 11
4202.296259880919024
 21
-66.5755335033272786
 31
0.0
  0
LINE
  5
C706
  8
0
 10
4202.296259880919024
 20
-66.5755335033272786
 30
0.0
 11
4202.2765748415176859
 21
-66.570813976069914
 31
0.0
  0
LINE
  5
C707
  8
0
 10
4202.3044136911521491
 20
-66.5605178971596416
 30
0.0
 11
4202.3044136912176327
 21
-66.5808508631715625
 31
0.0
  0
LINE
  5
C708
  8
0
 10
4202.3044136912176327
 20
-66.5808508631715625
 30
0.0
 11
4202.3240987306189709
 21
-66.5845725907777819
 31
0.0
  0
LINE
  5
C709
  8
0
 10
4202.3240987306189709
 20
-66.5845725907777819
 30
0.0
 11
4202.3240987305816816
 21
-66.5643090769962384
 31
0.0
  0
LINE
  5
C70A
  8
0
 10
4202.3240987305816816
 20
-66.5643090769962384
 30
0.0
 11
4202.3044136912176327
 21
-66.5605178970715627
 31
0.0
  0
LINE
  5
C70B
  8
0
 10
4202.3322525408184447
 20
-66.5475099540715718
 30
0.0
 11
4202.3322525408184447
 21
-66.56955277472251
 31
0.0
  0
LINE
  5
C70C
  8
0
 10
4202.3322525408184447
 20
-66.56955277472251
 30
0.0
 11
4202.3519375801233764
 21
-66.5723606722944368
 31
0.0
  0
LINE
  5
C70D
  8
0
 10
4202.3519375801233764
 20
-66.5723606722944368
 30
0.0
 11
4202.3519375802379727
 21
-66.5503800290917837
 31
0.0
  0
LINE
  5
C70E
  8
0
 10
4202.3519375802379727
 20
-66.5503800290917837
 30
0.0
 11
4202.3322525408893853
 21
-66.5475099540973787
 31
0.0
  0
LINE
  5
C70F
  8
0
 10
4202.3600913904983827
 20
-66.531719847678005
 30
0.0
 11
4202.3600913904656409
 21
-66.5555660588812827
 31
0.0
  0
LINE
  5
C710
  8
0
 10
4202.3600913904656409
 20
-66.5555660588812827
 30
0.0
 11
4202.3797764299188202
 21
-66.5574588604127939
 31
0.0
  0
LINE
  5
C711
  8
0
 10
4202.3797764299188202
 20
-66.5574588604127939
 30
0.0
 11
4202.3797764298797119
 21
-66.533661902486287
 31
0.0
  0
LINE
  5
C712
  8
0
 10
4202.3797764298797119
 20
-66.533661902486287
 30
0.0
 11
4202.3600913904983827
 21
-66.531719847678005
 31
0.0
  0
LINE
  5
C713
  8
0
 10
4202.3044136911557871
 20
-66.5926161862965245
 30
0.0
 11
4202.3044136912176327
 21
-66.6095250677643804
 31
0.0
  0
LINE
  5
C714
  8
0
 10
4202.3044136912176327
 20
-66.6095250677643804
 30
0.0
 11
4202.3240987304998271
 21
-66.6131686551603224
 31
0.0
  0
LINE
  5
C715
  8
0
 10
4202.3240987304998271
 20
-66.6131686551603224
 30
0.0
 11
4202.3240987306189709
 21
-66.5963027827317546
 31
0.0
  0
LINE
  5
C716
  8
0
 10
4202.3240987306189709
 20
-66.5963027827317546
 30
0.0
 11
4202.3044136912312752
 21
-66.5926161863118722
 31
0.0
  0
LINE
  5
C717
  8
0
 10
4202.3322525409075752
 20
-66.5823618688397829
 30
0.0
 11
4202.3322525408184447
 21
-66.6008756421083916
 31
0.0
  0
LINE
  5
C718
  8
0
 10
4202.3322525408184447
 20
-66.6008756421083916
 30
0.0
 11
4202.351937580194317
 21
-66.6036108372159532
 31
0.0
  0
LINE
  5
C719
  8
0
 10
4202.351937580194317
 20
-66.6036108372159532
 30
0.0
 11
4202.3519375802179638
 21
-66.5851376778715718
 31
0.0
  0
LINE
  5
C71A
  8
0
 10
4202.3519375802179638
 20
-66.5851376778715718
 30
0.0
 11
4202.3322525409075752
 21
-66.5823618688397829
 31
0.0
  0
LINE
  5
C71B
  8
0
 10
4202.3600913904801928
 20
-66.569463907268684
 30
0.0
 11
4202.3600913904629124
 21
-66.5896345388771351
 31
0.0
  0
LINE
  5
C71C
  8
0
 10
4202.3600913904629124
 20
-66.5896345388771351
 30
0.0
 11
4202.3797764299188202
 21
-66.5914684138096931
 31
0.0
  0
LINE
  5
C71D
  8
0
 10
4202.3797764299188202
 20
-66.5914684138096931
 30
0.0
 11
4202.3797764299188202
 21
-66.5713309919118501
 31
0.0
  0
LINE
  5
C71E
  8
0
 10
4202.3797764299188202
 20
-66.5713309919118501
 30
0.0
 11
4202.3600913905829657
 21
-66.5694639071689522
 31
0.0
  0
LINE
  5
C71F
  8
0
 10
4202.3879302402183384
 20
-66.5538572108767852
 30
0.0
 11
4202.3879302402183384
 21
-66.5757634091225725
 31
0.0
  0
LINE
  5
C720
  8
0
 10
4202.3879302402183384
 20
-66.5757634091225725
 30
0.0
 11
4202.4076152795032613
 21
-66.576690152122211
 31
0.0
  0
LINE
  5
C721
  8
0
 10
4202.4076152795032613
 20
-66.576690152122211
 30
0.0
 11
4202.4076152795178132
 21
-66.5548040597715698
 31
0.0
  0
LINE
  5
C722
  8
0
 10
4202.4076152795178132
 20
-66.5548040597715698
 30
0.0
 11
4202.3879302402183384
 21
-66.5538572108767852
 31
0.0
  0
LINE
  5
C723
  8
0
 10
4202.4157690898191504
 20
-66.5354309246690292
 30
0.0
 11
4202.4157690898191504
 21
-66.5591833300715621
 31
0.0
  0
LINE
  5
C724
  8
0
 10
4202.4157690898191504
 20
-66.5591833300715621
 30
0.0
 11
4202.4354541292186696
 21
-66.5591833300715621
 31
0.0
  0
LINE
  5
C725
  8
0
 10
4202.4354541292186696
 20
-66.5591833300715621
 30
0.0
 11
4202.4354541292186696
 21
-66.5354309247924505
 31
0.0
  0
LINE
  5
C726
  8
0
 10
4202.4354541292186696
 20
-66.5354309247924505
 30
0.0
 11
4202.4157690898191504
 21
-66.5354309246690292
 31
0.0
  0
LINE
  5
C727
  8
0
 10
4202.4714467892026732
 20
-66.5336619024826206
 30
0.0
 11
4202.4714467891189997
 21
-66.5574588603706729
 31
0.0
  0
LINE
  5
C728
  8
0
 10
4202.4714467891189997
 20
-66.5574588603706729
 30
0.0
 11
4202.4911318284266599
 21
-66.5555660588861855
 31
0.0
  0
LINE
  5
C729
  8
0
 10
4202.4911318284266599
 20
-66.5555660588861855
 30
0.0
 11
4202.4911318285176094
 21
-66.5317198476715674
 31
0.0
  0
LINE
  5
C72A
  8
0
 10
4202.4911318285176094
 20
-66.5317198476715674
 30
0.0
 11
4202.4714467891189997
 21
-66.5336619025955827
 31
0.0
  0
LINE
  5
C72B
  8
0
 10
4202.4992856387361826
 20
-66.550380029050757
 30
0.0
 11
4202.4992856388180371
 21
-66.5723606722715715
 31
0.0
  0
LINE
  5
C72C
  8
0
 10
4202.4992856388180371
 20
-66.5723606722715715
 30
0.0
 11
4202.5189706780984125
 21
-66.5695527748663949
 31
0.0
  0
LINE
  5
C72D
  8
0
 10
4202.5189706780984125
 20
-66.5695527748663949
 30
0.0
 11
4202.5189706781693531
 21
-66.5475099540938118
 31
0.0
  0
LINE
  5
C72E
  8
0
 10
4202.5189706781693531
 20
-66.5475099540938118
 30
0.0
 11
4202.4992856388180371
 21
-66.5503800290715759
 31
0.0
  0
LINE
  5
C72F
  8
0
 10
4202.5549633381224339
 20
-66.5404452537711535
 30
0.0
 11
4202.5549633379832812
 21
-66.5626440102003443
 31
0.0
  0
LINE
  5
C730
  8
0
 10
4202.5549633379832812
 20
-66.5626440102003443
 30
0.0
 11
4202.5746483774164517
 21
-66.557867664046924
 31
0.0
  0
LINE
  5
C731
  8
0
 10
4202.5746483774164517
 20
-66.557867664046924
 30
0.0
 11
4202.5746483774928492
 21
-66.5355585778964951
 31
0.0
  0
LINE
  5
C732
  8
0
 10
4202.5746483774928492
 20
-66.5355585778964951
 30
0.0
 11
4202.5549633381224339
 21
-66.5404452537711535
 31
0.0
  0
LINE
  5
C733
  8
0
 10
4202.5828021877186984
 20
-66.5517476952315121
 30
0.0
 11
4202.5828021877186984
 21
-66.5722451551630314
 31
0.0
  0
LINE
  5
C734
  8
0
 10
4202.5828021877186984
 20
-66.5722451551630314
 30
0.0
 11
4202.6024872271191271
 21
-66.5665192893997073
 31
0.0
  0
LINE
  5
C735
  8
0
 10
4202.6024872271191271
 20
-66.5665192893997073
 30
0.0
 11
4202.6024872271491404
 21
-66.5459092553398364
 31
0.0
  0
LINE
  5
C736
  8
0
 10
4202.6024872271491404
 20
-66.5459092553398364
 30
0.0
 11
4202.5828021878005529
 21
-66.5517476951175837
 31
0.0
  0
LINE
  5
C737
  8
0
 10
4202.6106410374186453
 20
-66.5603064516001837
 30
0.0
 11
4202.6106410374186453
 21
-66.5791582069591357
 31
0.0
  0
LINE
  5
C738
  8
0
 10
4202.6106410374186453
 20
-66.5791582069591357
 30
0.0
 11
4202.6303260767072061
 21
-66.5724498264858511
 31
0.0
  0
LINE
  5
C739
  8
0
 10
4202.6303260767072061
 20
-66.5724498264858511
 30
0.0
 11
4202.6303260768090695
 21
-66.5534877530665199
 31
0.0
  0
LINE
  5
C73A
  8
0
 10
4202.6303260768090695
 20
-66.5534877530665199
 30
0.0
 11
4202.6106410374595725
 21
-66.5603064515437239
 31
0.0
  0
LINE
  5
C73B
  8
0
 10
4202.6384798870185477
 20
-66.5661207696047654
 30
0.0
 11
4202.6384798870749364
 21
-66.5833567248575804
 31
0.0
  0
LINE
  5
C73C
  8
0
 10
4202.6384798870749364
 20
-66.5833567248575804
 30
0.0
 11
4202.6581649263816871
 21
-66.5756163275676442
 31
0.0
  0
LINE
  5
C73D
  8
0
 10
4202.6581649263816871
 20
-66.5756163275676442
 30
0.0
 11
4202.6581649264180669
 21
-66.5582770454102217
 31
0.0
  0
LINE
  5
C73E
  8
0
 10
4202.6581649264180669
 20
-66.5582770454102217
 30
0.0
 11
4202.6384798870722079
 21
-66.5661207695843871
 31
0.0
  0
LINE
  5
C73F
  8
0
 10
4202.4436079395190973
 20
-66.5548040597715698
 30
0.0
 11
4202.4436079395190973
 21
-66.5766901522441401
 31
0.0
  0
LINE
  5
C740
  8
0
 10
4202.4436079395190973
 20
-66.5766901522441401
 30
0.0
 11
4202.4632929787576359
 21
-66.5757634091264521
 31
0.0
  0
LINE
  5
C741
  8
0
 10
4202.4632929787576359
 20
-66.5757634091264521
 30
0.0
 11
4202.4632929788176625
 21
-66.5538572108767852
 31
0.0
  0
LINE
  5
C742
  8
0
 10
4202.4632929788176625
 20
-66.5538572108767852
 30
0.0
 11
4202.4436079393635737
 21
-66.5548040597373358
 31
0.0
  0
LINE
  5
C743
  8
0
 10
4202.4714467890917149
 20
-66.5713309918435101
 30
0.0
 11
4202.4714467891189997
 21
-66.5914684137277959
 31
0.0
  0
LINE
  5
C744
  8
0
 10
4202.4714467891189997
 20
-66.5914684137277959
 30
0.0
 11
4202.4911318285176094
 21
-66.5896345389385402
 31
0.0
  0
LINE
  5
C745
  8
0
 10
4202.4911318285176094
 20
-66.5896345389385402
 30
0.0
 11
4202.4911318285176094
 21
-66.5694639072715546
 31
0.0
  0
LINE
  5
C746
  8
0
 10
4202.4911318285176094
 20
-66.5694639072715546
 30
0.0
 11
4202.4714467890917149
 21
-66.5713309917864962
 31
0.0
  0
LINE
  5
C747
  8
0
 10
4202.5271244884606858
 20
-66.5643090769262216
 30
0.0
 11
4202.5271244884570478
 21
-66.5845725908638855
 31
0.0
  0
LINE
  5
C748
  8
0
 10
4202.5271244884570478
 20
-66.5845725908638855
 30
0.0
 11
4202.5468095278283727
 21
-66.5808508632228353
 31
0.0
  0
LINE
  5
C749
  8
0
 10
4202.5468095278283727
 20
-66.5808508632228353
 30
0.0
 11
4202.5468095278256442
 21
-66.5605178971719198
 31
0.0
  0
LINE
  5
C74A
  8
0
 10
4202.5468095278256442
 20
-66.5605178971719198
 30
0.0
 11
4202.5271244883970212
 21
-66.5643090770063992
 31
0.0
  0
LINE
  5
C74B
  8
0
 10
4202.5549633381178865
 20
-66.5755335032697104
 30
0.0
 11
4202.5549633380924206
 21
-66.5941489635795989
 31
0.0
  0
LINE
  5
C74C
  8
0
 10
4202.5549633380924206
 20
-66.5941489635795989
 30
0.0
 11
4202.5746483774182707
 21
-66.5895012361440592
 31
0.0
  0
LINE
  5
C74D
  8
0
 10
4202.5746483774182707
 20
-66.5895012361440592
 30
0.0
 11
4202.5746483774182707
 21
-66.5708139760169217
 31
0.0
  0
LINE
  5
C74E
  8
0
 10
4202.5746483774182707
 20
-66.5708139760169217
 30
0.0
 11
4202.5549633381178865
 21
-66.5755335033272786
 31
0.0
  0
LINE
  5
C74F
  8
0
 10
4202.582802187793277
 20
-66.5840936016695935
 30
0.0
 11
4202.5828021877186984
 21
-66.6011041706839393
 31
0.0
  0
LINE
  5
C750
  8
0
 10
4202.5828021877186984
 20
-66.6011041706839393
 30
0.0
 11
4202.6024872270309061
 21
-66.595504570313949
 31
0.0
  0
LINE
  5
C751
  8
0
 10
4202.6024872270309061
 20
-66.595504570313949
 30
0.0
 11
4202.6024872271191271
 21
-66.5784245544715532
 31
0.0
  0
LINE
  5
C752
  8
0
 10
4202.6024872271191271
 20
-66.5784245544715532
 30
0.0
 11
4202.582802187793277
 21
-66.5840936016695935
 31
0.0
  0
LINE
  5
C753
  8
0
 10
4202.6663187367175851
 20
-66.5691450440715755
 30
0.0
 11
4202.6860037760288833
 21
-66.5602126190715495
 31
0.0
  0
LINE
  5
C754
  8
0
 10
4202.6860037760288833
 20
-66.5602126190715495
 30
0.0
 11
4202.6860037761180138
 21
-66.5759286203207665
 31
0.0
  0
LINE
  5
C755
  8
0
 10
4202.6860037761180138
 20
-66.5759286203207665
 30
0.0
 11
4202.6742972153342635
 21
-66.5812888598764232
 31
0.0
  0
LINE
  5
C756
  8
0
 10
4202.6742972153342635
 20
-66.5812888598764232
 30
0.0
 11
4202.6693883903189999
 21
-66.5762786265715647
 31
0.0
  0
LINE
  5
C757
  8
0
 10
4202.6693883903189999
 20
-66.5762786265715647
 30
0.0
 11
4202.6663187367175851
 21
-66.5762786265715647
 31
0.0
  0
LINE
  5
C758
  8
0
 10
4202.6663187367175851
 20
-66.5762786265715647
 30
0.0
 11
4202.6663187366821148
 21
-66.5691450440957055
 31
0.0
  0
LINE
  5
C759
  8
0
 10
4202.6106410373649851
 20
-66.5899886822705156
 30
0.0
 11
4202.6303260767881511
 21
-66.5833341619895549
 31
0.0
  0
LINE
  5
C75A
  8
0
 10
4202.6303260767881511
 20
-66.5833341619895549
 30
0.0
 11
4202.6401685964183343
 21
-66.587740223971565
 31
0.0
  0
LINE
  5
C75B
  8
0
 10
4202.6401685964183343
 20
-66.587740223971565
 30
0.0
 11
4202.6012831361267672
 21
-66.6012208880727314
 31
0.0
  0
LINE
  5
C75C
  8
0
 10
4202.6012831361267672
 20
-66.6012208880727314
 30
0.0
 11
4202.600798517718431
 21
-66.6009874536715643
 31
0.0
  0
LINE
  5
C75D
  8
0
 10
4202.600798517718431
 20
-66.6009874536715643
 30
0.0
 11
4202.6106410373649851
 21
-66.5899886822705156
 31
0.0
  0
LINE
  5
C75E
  8
0
 10
4202.5746483774382796
 20
-66.6002513055280758
 30
0.0
 11
4202.5844908971648692
 21
-66.6056118637314682
 31
0.0
  0
LINE
  5
C75F
  8
0
 10
4202.5844908971648692
 20
-66.6056118637314682
 30
0.0
 11
4202.5451208184185816
 21
-66.6147964248715709
 31
0.0
  0
LINE
  5
C760
  8
0
 10
4202.5451208184185816
 20
-66.6147964248715709
 30
0.0
 11
4202.5549633380887826
 21
-66.6048639018960245
 31
0.0
  0
LINE
  5
C761
  8
0
 10
4202.5549633380887826
 20
-66.6048639018960245
 30
0.0
 11
4202.5746483774382796
 21
-66.6002513055280758
 31
0.0
  0
LINE
  5
C762
  8
0
 10
4202.499285638744368
 20
-66.6142560865806956
 30
0.0
 11
4202.5189706781211498
 21
-66.6115407897051739
 31
0.0
  0
LINE
  5
C763
  8
0
 10
4202.5189706781211498
 20
-66.6115407897051739
 30
0.0
 11
4202.5288131978459205
 21
-66.6178059191926195
 31
0.0
  0
LINE
  5
C764
  8
0
 10
4202.5288131978459205
 20
-66.6178059191926195
 30
0.0
 11
4202.4894431191187323
 21
-66.6232133913715643
 31
0.0
  0
LINE
  5
C765
  8
0
 10
4202.4894431191187323
 20
-66.6232133913715643
 30
0.0
 11
4202.499285638744368
 21
-66.6142560861273836
 31
0.0
  0
LINE
  5
C766
  8
0
 10
4202.4436079395200068
 20
-66.6184445981039062
 30
0.0
 11
4202.463292978906793
 21
-66.6175478470614593
 31
0.0
  0
LINE
  5
C767
  8
0
 10
4202.463292978906793
 20
-66.6175478470614593
 30
0.0
 11
4202.4731354985688085
 21
-66.6246973261757347
 31
0.0
  0
LINE
  5
C768
  8
0
 10
4202.4731354985688085
 20
-66.6246973261757347
 30
0.0
 11
4202.4337654198188829
 21
-66.6264833173715658
 31
0.0
  0
LINE
  5
C769
  8
0
 10
4202.4337654198188829
 20
-66.6264833173715658
 30
0.0
 11
4202.4436079395200068
 21
-66.6184445981039062
 31
0.0
  0
LINE
  5
C76A
  8
0
 10
4202.3879302401473979
 20
-66.617547847062383
 30
0.0
 11
4202.4076152795169037
 21
-66.6184445981039062
 31
0.0
  0
LINE
  5
C76B
  8
0
 10
4202.4076152795169037
 20
-66.6184445981039062
 30
0.0
 11
4202.417457799218937
 21
-66.6264833173715658
 31
0.0
  0
LINE
  5
C76C
  8
0
 10
4202.417457799218937
 20
-66.6264833173715658
 30
0.0
 11
4202.3780877205190336
 21
-66.6246973261715709
 31
0.0
  0
LINE
  5
C76D
  8
0
 10
4202.3780877205190336
 20
-66.6246973261715709
 30
0.0
 11
4202.3879302401801397
 21
-66.6175478470468931
 31
0.0
  0
LINE
  5
C76E
  8
0
 10
4202.3322525408439105
 20
-66.6115407897288065
 30
0.0
 11
4202.3519375803125513
 21
-66.6142560866112916
 31
0.0
  0
LINE
  5
C76F
  8
0
 10
4202.3519375803125513
 20
-66.6142560866112916
 30
0.0
 11
4202.3617800999572864
 21
-66.6232133913539855
 31
0.0
  0
LINE
  5
C770
  8
0
 10
4202.3617800999572864
 20
-66.6232133913539855
 30
0.0
 11
4202.3224100212182748
 21
-66.6178059191715732
 31
0.0
  0
LINE
  5
C771
  8
0
 10
4202.3224100212182748
 20
-66.6178059191715732
 30
0.0
 11
4202.3322525408439105
 21
-66.6115407897288065
 31
0.0
  0
LINE
  5
C772
  8
0
 10
4202.2765748415176859
 20
-66.6002513055574781
 30
0.0
 11
4202.2962598809090196
 21
-66.6048639018875122
 31
0.0
  0
LINE
  5
C773
  8
0
 10
4202.2962598809090196
 20
-66.6048639018875122
 30
0.0
 11
4202.306102400679265
 21
-66.6147964248334574
 31
0.0
  0
LINE
  5
C774
  8
0
 10
4202.306102400679265
 20
-66.6147964248334574
 30
0.0
 11
4202.2667323219193349
 21
-66.6056118637715713
 31
0.0
  0
LINE
  5
C775
  8
0
 10
4202.2667323219193349
 20
-66.6056118637715713
 30
0.0
 11
4202.2765748414840346
 21
-66.6002513055769754
 31
0.0
  0
LINE
  5
C776
  8
0
 10
4202.2208971422487593
 20
-66.583334161989427
 30
0.0
 11
4202.2405821816191747
 21
-66.589988682251672
 31
0.0
  0
LINE
  5
C777
  8
0
 10
4202.2405821816191747
 20
-66.589988682251672
 30
0.0
 11
4202.2504247012820997
 21
-66.6009874538068516
 31
0.0
  0
LINE
  5
C778
  8
0
 10
4202.2504247012820997
 20
-66.6009874538068516
 30
0.0
 11
4202.2110546225194412
 21
-66.587740223971565
 31
0.0
  0
LINE
  5
C779
  8
0
 10
4202.2110546225194412
 20
-66.587740223971565
 30
0.0
 11
4202.2208971422487593
 21
-66.5833341619894128
 31
0.0
  0
LINE
  5
C77A
  8
0
 10
4202.3600913905183916
 20
-66.6013177154736695
 30
0.0
 11
4202.3600913905465859
 21
-66.6181260008058587
 31
0.0
  0
LINE
  5
C77B
  8
0
 10
4202.3600913905465859
 20
-66.6181260008058587
 30
0.0
 11
4202.3797764298833499
 21
-66.6199224477123551
 31
0.0
  0
LINE
  5
C77C
  8
0
 10
4202.3797764298833499
 20
-66.6199224477123551
 30
0.0
 11
4202.3797764299188202
 21
-66.60313477127157
 31
0.0
  0
LINE
  5
C77D
  8
0
 10
4202.3797764299188202
 20
-66.60313477127157
 30
0.0
 11
4202.3600913905183916
 21
-66.6013177154736695
 31
0.0
  0
LINE
  5
C77E
  8
0
 10
4202.3879302402183384
 20
-66.5885019727611933
 30
0.0
 11
4202.3879302402183384
 21
-66.6069264551715747
 31
0.0
  0
LINE
  5
C77F
  8
0
 10
4202.3879302402183384
 20
-66.6069264551715747
 30
0.0
 11
4202.4076152795178132
 21
-66.6078296557715674
 31
0.0
  0
LINE
  5
C780
  8
0
 10
4202.4076152795178132
 20
-66.6078296557715674
 30
0.0
 11
4202.4076152795178132
 21
-66.5894183293336681
 31
0.0
  0
LINE
  5
C781
  8
0
 10
4202.4076152795178132
 20
-66.5894183293336681
 30
0.0
 11
4202.3879302402183384
 21
-66.5885019728190315
 31
0.0
  0
LINE
  5
C782
  8
0
 10
4202.4157690898191504
 20
-66.5730321892715864
 30
0.0
 11
4202.4157690898191504
 21
-66.5931395490715659
 31
0.0
  0
LINE
  5
C783
  8
0
 10
4202.4157690898191504
 20
-66.5931395490715659
 30
0.0
 11
4202.4354541292013892
 21
-66.5931395491141842
 31
0.0
  0
LINE
  5
C784
  8
0
 10
4202.4354541292013892
 20
-66.5931395491141842
 30
0.0
 11
4202.4354541292186696
 21
-66.5730321892715722
 31
0.0
  0
LINE
  5
C785
  8
0
 10
4202.4354541292186696
 20
-66.5730321892715722
 30
0.0
 11
4202.4157690898946385
 21
-66.573032189190414
 31
0.0
  0
LINE
  5
C786
  8
0
 10
4202.4157690897791326
 20
-66.6047906776039298
 30
0.0
 11
4202.4157690898191504
 21
-66.6215596897981186
 31
0.0
  0
LINE
  5
C787
  8
0
 10
4202.4157690898191504
 20
-66.6215596897981186
 30
0.0
 11
4202.4354541292186696
 21
-66.6215596898715745
 31
0.0
  0
LINE
  5
C788
  8
0
 10
4202.4354541292186696
 20
-66.6215596898715745
 30
0.0
 11
4202.4354541292386784
 21
-66.6047906775400236
 31
0.0
  0
LINE
  5
C789
  8
0
 10
4202.4354541292386784
 20
-66.6047906775400236
 30
0.0
 11
4202.4157690897791326
 21
-66.6047906775396825
 31
0.0
  0
LINE
  5
C78A
  8
0
 10
4202.4436079394481567
 20
-66.5894183292701314
 30
0.0
 11
4202.44360793947817
 21
-66.6078296557370493
 31
0.0
  0
LINE
  5
C78B
  8
0
 10
4202.44360793947817
 20
-66.6078296557370493
 30
0.0
 11
4202.463292978816753
 21
-66.6069264552067892
 31
0.0
  0
LINE
  5
C78C
  8
0
 10
4202.463292978816753
 20
-66.6069264552067892
 30
0.0
 11
4202.4632929789504487
 21
-66.5885019728107324
 31
0.0
  0
LINE
  5
C78D
  8
0
 10
4202.4632929789504487
 20
-66.5885019728107324
 30
0.0
 11
4202.4436079393817636
 21
-66.5894183293378035
 31
0.0
  0
LINE
  5
C78E
  8
0
 10
4202.471446789077163
 20
-66.6031347712091559
 30
0.0
 11
4202.4714467891189997
 21
-66.6199224477715717
 31
0.0
  0
LINE
  5
C78F
  8
0
 10
4202.4714467891189997
 20
-66.6199224477715717
 30
0.0
 11
4202.4911318285930975
 21
-66.6181260007948453
 31
0.0
  0
LINE
  5
C790
  8
0
 10
4202.4911318285930975
 20
-66.6181260007948453
 30
0.0
 11
4202.4911318285176094
 21
-66.6013177154768954
 31
0.0
  0
LINE
  5
C791
  8
0
 10
4202.4911318285176094
 20
-66.6013177154768954
 30
0.0
 11
4202.4714467891189997
 21
-66.6031347711682145
 31
0.0
  0
LINE
  5
C792
  8
0
 10
4202.499285638744368
 20
-66.5851376778102519
 30
0.0
 11
4202.4992856388180371
 21
-66.6036108372715745
 31
0.0
  0
LINE
  5
C793
  8
0
 10
4202.4992856388180371
 20
-66.6036108372715745
 30
0.0
 11
4202.5189706781184213
 21
-66.6008756421715731
 31
0.0
  0
LINE
  5
C794
  8
0
 10
4202.5189706781184213
 20
-66.6008756421715731
 30
0.0
 11
4202.5189706782339272
 21
-66.5823618688413745
 31
0.0
  0
LINE
  5
C795
  8
0
 10
4202.5189706782339272
 20
-66.5823618688413745
 30
0.0
 11
4202.4992856387289066
 21
-66.585137677828456
 31
0.0
  0
LINE
  5
C796
  8
0
 10
4202.5271244884179396
 20
-66.5963027826715717
 30
0.0
 11
4202.5271244884816042
 21
-66.6131686551696021
 31
0.0
  0
LINE
  5
C797
  8
0
 10
4202.5271244884816042
 20
-66.6131686551696021
 30
0.0
 11
4202.54680952777926
 21
-66.6095250677778097
 31
0.0
  0
LINE
  5
C798
  8
0
 10
4202.54680952777926
 20
-66.6095250677778097
 30
0.0
 11
4202.5468095278001783
 21
-66.5926161862415
 31
0.0
  0
LINE
  5
C799
  8
0
 10
4202.5468095278001783
 20
-66.5926161862415
 30
0.0
 11
4202.5271244884770567
 21
-66.5963027826749538
 31
0.0
  0
LINE
  5
C79A
  8
0
 10
4202.1373805933371841
 20
-66.591562658710842
 30
0.0
 11
4202.137380593184389
 21
-66.5810232613100652
 31
0.0
  0
LINE
  5
C79B
  8
0
 10
4202.137380593184389
 20
-66.5810232613100652
 30
0.0
 11
4202.1570656326402968
 21
-66.5910377051011437
 31
0.0
  0
LINE
  5
C79C
  8
0
 10
4202.1570656326402968
 20
-66.5910377051011437
 30
0.0
 11
4202.1570656326175595
 21
-66.6015771023715644
 31
0.0
  0
LINE
  5
C79D
  8
0
 10
4202.1570656326175595
 20
-66.6015771023715644
 30
0.0
 11
4202.1373805933371841
 21
-66.591562658710842
 31
0.0
  0
LINE
  5
C79E
  8
0
 10
4202.1373805933126278
 20
-66.604137748731759
 30
0.0
 11
4202.1373805933189942
 21
-66.5971235851715733
 31
0.0
  0
LINE
  5
C79F
  8
0
 10
4202.1373805933189942
 20
-66.5971235851715733
 30
0.0
 11
4202.1570656326211974
 21
-66.6071603215183359
 31
0.0
  0
LINE
  5
C7A0
  8
0
 10
4202.1570656326211974
 20
-66.6071603215183359
 30
0.0
 11
4202.1570656326875906
 21
-66.6142459116466483
 31
0.0
  0
LINE
  5
C7A1
  8
0
 10
4202.1570656326875906
 20
-66.6142459116466483
 30
0.0
 11
4202.1373805933126278
 21
-66.604137748731759
 31
0.0
  0
LINE
  5
C7A2
  8
0
 10
4202.6941575863211256
 20
-66.5910377049987829
 30
0.0
 11
4202.7138426257015453
 21
-66.5810232612809045
 31
0.0
  0
LINE
  5
C7A3
  8
0
 10
4202.7138426257015453
 20
-66.5810232612809045
 30
0.0
 11
4202.7138426257179162
 21
-66.5915626587172227
 31
0.0
  0
LINE
  5
C7A4
  8
0
 10
4202.7138426257179162
 20
-66.5915626587172227
 30
0.0
 11
4202.6941575864448168
 21
-66.6015771023950407
 31
0.0
  0
LINE
  5
C7A5
  8
0
 10
4202.6941575864448168
 20
-66.6015771023950407
 30
0.0
 11
4202.6941575863211256
 21
-66.5910377049987829
 31
0.0
  0
LINE
  5
C7A6
  8
0
 10
4202.6941575863183971
 20
-66.6071603216706478
 30
0.0
 11
4202.7138426256742605
 21
-66.5971235851613983
 31
0.0
  0
LINE
  5
C7A7
  8
0
 10
4202.7138426256742605
 20
-66.5971235851613983
 30
0.0
 11
4202.7138426257179162
 21
-66.6041377487715636
 31
0.0
  0
LINE
  5
C7A8
  8
0
 10
4202.7138426257179162
 20
-66.6041377487715636
 30
0.0
 11
4202.6941575863183971
 21
-66.6142459116715742
 31
0.0
  0
LINE
  5
C7A9
  8
0
 10
4202.6941575863183971
 20
-66.6142459116715742
 30
0.0
 11
4202.6941575863183971
 21
-66.6071603216706478
 31
0.0
  0
ARC
  5
C7AA
  8
0
 10
4202.4256116096030382
 20
-66.0243895358705259
 30
0.0
 40
0.6156746553877319
 50
245.4002158520524119
 51
294.5997841258819108
  0
ARC
  5
C7AB
  8
0
 10
4202.6259808162121772
 20
-66.6000049316326397
 30
0.0
 40
0.0581170559677122
 50
344.2034057928810853
 51
15.7965939851934092
  0
ARC
  5
C7AC
  8
0
 10
4202.2252156661270419
 20
-66.6000049317384253
 30
0.0
 40
0.0580913295562382
 50
164.1962272099318909
 51
195.803772724963693
  0
ARC
  5
C7AD
  8
0
 10
4202.4256116094884419
 20
-66.0560310970660822
 30
0.0
 40
0.6156746946638825
 50
245.4002175378844015
 51
294.599782468935814
  0
ARC
  5
C7AE
  8
0
 10
4202.2915939270369563
 20
-66.3720494866093844
 30
0.0
 40
0.2843960861996889
 50
230.6880184638052071
 51
248.3089705193374925
  0
ARC
  5
C7AF
  8
0
 10
4202.42579163845312
 20
-66.0958262509710721
 30
0.0
 40
0.591092036788684
 50
246.1175028082361109
 51
269.9859719296521234
  0
ARC
  5
C7B0
  8
0
 10
4202.4259462624177104
 20
-66.1009141746670252
 30
0.0
 40
0.5860041718324194
 50
269.9707319797211085
 51
292.3419320035047235
  0
ARC
  5
C7B1
  8
0
 10
4202.5969126992104066
 20
-66.4649536413873534
 30
0.0
 40
0.1853575564032738
 50
286.2257784721196003
 51
318.9483221142111233
  0
ARC
  5
C7B2
  8
0
 10
4195.8303240182112859
 20
-66.5000190328080407
 30
0.0
 40
5.6665668925743429
 50
357.5685832942755837
 51
2.431416705726031
  0
ARC
  5
C7B3
  8
0
 10
4201.593183761763612
 20
-66.2596514883985179
 30
0.0
 40
0.1013943605528101
 50
161.5691646526070997
 51
179.9841736443617037
  0
LINE
  5
C7B4
  8
0
 10
4201.4919822918400314
 20
-66.2669603191987449
 30
0.0
 11
4203.3591254666880559
 21
-66.2669995421465643
 31
0.0
  0
ARC
  5
C7B5
  8
0
 10
4202.652877345685738
 20
-66.2801502196928709
 30
0.0
 40
0.3503744064654857
 50
288.6970608852736859
 51
299.9307908549602075
  0
ARC
  5
C7B6
  8
0
 10
4202.7567480039897418
 20
-66.4605624026302451
 30
0.0
 40
0.1421973918633952
 50
299.9307908549602075
 51
321.9118011435551807
  0
ARC
  5
C7B7
  8
0
 10
4202.8271659007332346
 20
-66.5182675246745276
 30
0.0
 40
0.0512155899854788
 50
324.1258021880909155
 51
358.6624038746101064
  0
ARC
  5
C7B8
  8
0
 10
4202.8231114080517727
 20
-66.5216882963773628
 30
0.0
 40
0.055300914925119
 50
2.3061220611911848
 51
45.9475856027676528
  0
ARC
  5
C7B9
  8
0
 10
4202.6691266644966163
 20
-66.2879191648443253
 30
0.0
 40
0.3127596936910519
 50
290.4367772660156106
 51
301.6449024839292861
  0
ARC
  5
C7BA
  8
0
 10
4202.7676742202565947
 20
-66.4478249982753226
 30
0.0
 40
0.1249260004636667
 50
301.6449024839292861
 51
326.8698699761042121
  0
ARC
  5
C7BB
  8
0
 10
4202.8477716855923063
 20
-66.5000999200565701
 30
0.0
 40
0.0292794040760144
 50
326.8698699761042121
 51
347.1487057786960122
  0
ARC
  5
C7BC
  8
0
 10
4202.1643045503024041
 20
-66.356819590191833
 30
0.0
 40
0.2669417773911387
 50
232.0537241197434071
 51
252.9469282443112945
  0
ARC
  5
C7BD
  8
0
 10
4202.0408385886476026
 20
-66.5119733811377642
 30
0.0
 40
0.068695291408013
 50
188.8974581939966981
 51
233.6855342274234886
  0
ARC
  5
C7BE
  8
0
 10
4202.0243716103914267
 20
-66.5204477691425922
 30
0.0
 40
0.0514466487710915
 50
140.9684859739043077
 51
182.3956685933765129
  0
ARC
  5
C7BF
  8
0
 10
4201.9564729382673249
 20
-66.463248834871905
 30
0.0
 40
0.0373554052780289
 50
318.401455227460076
 51
329.301967404769016
  0
ARC
  5
C7C0
  8
0
 10
4202.1789069867054423
 20
-66.2948424701960022
 30
0.0
 40
0.3051584354448424
 50
237.752525378923707
 51
249.6704395861922876
  0
ARC
  5
C7C1
  8
0
 10
4202.0728025064763642
 20
-66.4630243187524457
 30
0.0
 40
0.1063034759681221
 50
203.3851917360869948
 51
237.752525378923707
  0
ARC
  5
C7C2
  8
0
 10
4202.9043713870223655
 20
-66.5493432002418785
 30
0.0
 40
0.0527209893129299
 50
341.8038951117139277
 51
26.4261114274932112
  0
ARC
  5
C7C3
  8
0
 10
4202.8326697721504388
 20
-66.5070504750933225
 30
0.0
 40
0.1352188504427946
 50
294.1437820560759064
 51
334.2449483220162278
  0
ARC
  5
C7C4
  8
0
 10
4202.6371222083116663
 20
-66.1401604179839069
 30
0.0
 40
0.5507298303088947
 50
283.5172037464558912
 51
297.0969233502631823
  0
ARC
  5
C7C5
  8
0
 10
4202.4661299276358477
 20
-65.4562053904792833
 30
0.0
 40
1.25572268979441
 50
273.9741686252507975
 51
283.8087636029699752
  0
ARC
  5
C7C6
  8
0
 10
4202.425923270142448
 20
-65.0271480622321008
 30
0.0
 40
1.686566799351519
 50
264.3986587328943187
 51
274.3265750026699266
  0
ARC
  5
C7C7
  8
0
 10
4202.3748103895377426
 20
-65.5093045048377292
 30
0.0
 40
1.201729695561603
 50
256.1921292622777742
 51
264.5801856943459143
  0
ARC
  5
C7C8
  8
0
 10
4202.2203141714599042
 20
-66.1219622422888307
 30
0.0
 40
0.5699164565690515
 50
243.7341091933174084
 51
256.5752066268581757
  0
ARC
  5
C7C9
  8
0
 10
4202.050192862705444
 20
-66.4634395288072142
 30
0.0
 40
0.1884171429496928
 50
222.081023737240514
 51
244.1719464718603945
  0
ARC
  5
C7CA
  8
0
 10
4201.9563505768801406
 20
-66.5477620817196538
 30
0.0
 40
0.0622569996094237
 50
181.5228584300396051
 51
222.3638225751516018
  0
ARC
  5
C7CB
  8
0
 10
4201.9411906178956997
 20
-66.5481651115668029
 30
0.0
 40
0.0470916842656064
 50
147.6598511070893096
 51
181.5228584300396051
  0
LINE
  5
C7CC
  8
0
 10
4201.8984253485887166
 20
-66.5284481526717144
 30
0.0
 11
4201.9384397144676768
 21
-66.5284481526071971
 31
0.0
  0
ARC
  5
C7CD
  8
0
 10
4201.9845300408096591
 20
-66.5381840310080008
 30
0.0
 40
0.0471073827604928
 50
168.0724800830483048
 51
191.9275196220474982
  0
LINE
  5
C7CE
  8
0
 10
4201.9384397144176546
 20
-66.5479199091715685
 30
0.0
 11
4201.8940995720085994
 21
-66.547919908871819
 31
0.0
  0
LINE
  5
C7CF
  8
0
 10
4202.952774896203664
 20
-66.5284481526715723
 30
0.0
 11
4202.9127835442186552
 21
-66.5284481526715723
 31
0.0
  0
ARC
  5
C7D0
  8
0
 10
4202.8666932216247005
 20
-66.5381840309215704
 30
0.0
 40
0.0471073790622443
 50
348.0724793203623904
 51
11.9275206796369098
  0
LINE
  5
C7D1
  8
0
 10
4202.9127835442186552
 20
-66.5479199091715685
 30
0.0
 11
4202.9570731607745984
 21
-66.5479199091715685
 31
0.0
  0
LINE
  5
C7D2
  8
0
 10
4203.1694617450502847
 20
-64.3483189993715712
 30
0.0
 11
4201.6817606874055855
 21
-64.3483189993715712
 31
0.0
  0
LINE
  5
C7D3
  8
0
 10
4203.0272499836555653
 20
-64.4063671597900793
 30
0.0
 11
4201.8239868295122506
 21
-64.4063671597900793
 31
0.0
  0
LINE
  5
C7D4
  8
0
 10
4203.3594338535576753
 20
-70.3405190355715746
 30
0.0
 11
4203.3594338535576753
 21
-66.7404145845801509
 31
0.0
  0
LINE
  5
C7D5
  8
0
 10
4201.4917894050786344
 20
-70.3405190355715746
 30
0.0
 11
4201.4917894050786344
 21
-66.7404145845787298
 31
0.0
  0
LINE
  5
C7D6
  8
0
 10
4203.2391465825576233
 20
-65.0088077597833234
 30
0.0
 11
4203.2391465825576233
 21
-64.312958243829172
 31
0.0
  0
LINE
  5
C7D7
  8
0
 10
4201.6116552718576713
 20
-65.0088077597851566
 30
0.0
 11
4201.6116552718576713
 21
-64.3097528357437938
 31
0.0
  0
ENDSEC
  0
EOF
