  0
SECTION
  2
HEADER
  9
$ACADVER
  1
AC1009
  9
$INSBASE
 10
4517.6907139695240403
 20
238.7535892888469959
 30
0.0
  9
$EXTMIN
 10
4511.8877674740560906
 20
238.7370643789728888
 30
-0.0000000349181948
  9
$EXTMAX
 10
4519.12796539025112
 20
250.2294924721936979
 30
0.0000000814935746
  9
$LIMMIN
 10
0.0
 20
0.0
  9
$LIMMAX
 10
11.6929133858000007
 20
8.2677165353999982
  9
$ORTHOMODE
 70
     0
  9
$REGENMODE
 70
     1
  9
$FILLMODE
 70
     1
  9
$QTEXTMODE
 70
     0
  9
$MIRRTEXT
 70
     0
  9
$DRAGMODE
 70
     2
  9
$LTSCALE
 40
0.6431102362
  9
$OSMODE
 70
     7
  9
$ATTMODE
 70
     1
  9
$TEXTSIZE
 40
0.2
  9
$TRACEWID
 40
0.05
  9
$TEXTSTYLE
  7
STANDARD
  9
$CLAYER
  8
0
  9
$CELTYPE
  6
BYLAYER
  9
$CECOLOR
 62
   256
  9
$DIMSCALE
 40
1.0
  9
$DIMASZ
 40
0.1875
  9
$DIMEXO
 40
0.0625
  9
$DIMDLI
 40
0.4443307087
  9
$DIMRND
 40
0.0
  9
$DIMDLE
 40
0.0
  9
$DIMEXE
 40
0.125
  9
$DIMTP
 40
0.01
  9
$DIMTM
 40
0.01
  9
$DIMTXT
 40
2.0
  9
$DIMCEN
 40
0.1052362205
  9
$DIMTSZ
 40
0.0
  9
$DIMTOL
 70
     1
  9
$DIMLIM
 70
     0
  9
$DIMTIH
 70
     1
  9
$DIMTOH
 70
     1
  9
$DIMSE1
 70
     0
  9
$DIMSE2
 70
     0
  9
$DIMTAD
 70
     0
  9
$DIMZIN
 70
     0
  9
$DIMBLK
  1

  9
$DIMASO
 70
     1
  9
$DIMSHO
 70
     1
  9
$DIMPOST
  1
\X
  9
$DIMAPOST
  1

  9
$DIMALT
 70
     1
  9
$DIMALTD
 70
     2
  9
$DIMALTF
 40
25.3999999999999986
  9
$DIMLFAC
 40
1.0
  9
$DIMTOFL
 70
     0
  9
$DIMTVP
 40
0.0
  9
$DIMTIX
 70
     0
  9
$DIMSOXD
 70
     0
  9
$DIMSAH
 70
     0
  9
$DIMBLK1
  1

  9
$DIMBLK2
  1

  9
$DIMSTYLE
  2
STANDARD
  9
$DIMCLRD
 70
     0
  9
$DIMCLRE
 70
     0
  9
$DIMCLRT
 70
     0
  9
$DIMTFAC
 40
1.0
  9
$DIMGAP
 40
0.09
  9
$LUNITS
 70
     2
  9
$LUPREC
 70
     4
  9
$SKETCHINC
 40
0.1
  9
$FILLETRAD
 40
0.0
  9
$AUNITS
 70
     0
  9
$AUPREC
 70
     0
  9
$MENU
  1
.
  9
$ELEVATION
 40
0.0
  9
$PELEVATION
 40
0.0
  9
$THICKNESS
 40
0.0
  9
$LIMCHECK
 70
     0
  9
$BLIPMODE
 70
     0
  9
$CHAMFERA
 40
0.0
  9
$CHAMFERB
 40
0.0
  9
$SKPOLY
 70
     0
  9
$TDCREATE
 40
2458060.468368056230247
  9
$TDUPDATE
 40
2459562.7200231491588056
  9
$TDINDWG
 40
0.8655510417
  9
$TDUSRTIMER
 40
0.8655510417
  9
$USRTIMER
 70
     1
  9
$ANGBASE
 50
0.0
  9
$ANGDIR
 70
     0
  9
$PDMODE
 70
     0
  9
$PDSIZE
 40
0.3125
  9
$PLINEWID
 40
0.0
  9
$COORDS
 70
     1
  9
$SPLFRAME
 70
     0
  9
$SPLINETYPE
 70
     6
  9
$SPLINESEGS
 70
     8
  9
$ATTDIA
 70
     1
  9
$ATTREQ
 70
     1
  9
$HANDLING
 70
     1
  9
$HANDSEED
  5
9952
  9
$SURFTAB1
 70
     6
  9
$SURFTAB2
 70
     6
  9
$SURFTYPE
 70
     6
  9
$SURFU
 70
     6
  9
$SURFV
 70
     6
  9
$UCSNAME
  2

  9
$UCSORG
 10
0.0
 20
0.0
 30
0.0
  9
$UCSXDIR
 10
1.0
 20
0.0
 30
0.0
  9
$UCSYDIR
 10
0.0
 20
1.0
 30
0.0
  9
$PUCSNAME
  2

  9
$PUCSORG
 10
0.0
 20
0.0
 30
0.0
  9
$PUCSXDIR
 10
1.0
 20
0.0
 30
0.0
  9
$PUCSYDIR
 10
0.0
 20
1.0
 30
0.0
  9
$USERI1
 70
     0
  9
$USERI2
 70
     0
  9
$USERI3
 70
     0
  9
$USERI4
 70
     0
  9
$USERI5
 70
     0
  9
$USERR1
 40
0.0
  9
$USERR2
 40
0.0
  9
$USERR3
 40
0.0
  9
$USERR4
 40
0.0
  9
$USERR5
 40
0.0
  9
$WORLDVIEW
 70
     1
  9
$SHADEDGE
 70
     3
  9
$SHADEDIF
 70
    70
  9
$TILEMODE
 70
     1
  9
$MAXACTVP
 70
    64
  9
$PLIMCHECK
 70
     0
  9
$PEXTMIN
 10
1.0000000000000000E+20
 20
1.0000000000000000E+20
 30
1.0000000000000000E+20
  9
$PEXTMAX
 10
-1.0000000000000000E+20
 20
-1.0000000000000000E+20
 30
-1.0000000000000000E+20
  9
$PLIMMIN
 10
0.0
 20
0.0
  9
$PLIMMAX
 10
12.0
 20
9.0
  9
$UNITMODE
 70
     0
  9
$VISRETAIN
 70
     1
  9
$PLINEGEN
 70
     0
  9
$PSLTSCALE
 70
     1
  0
ENDSEC
  0
SECTION
  2
TABLES
  0
TABLE
  2
VPORT
 70
     1
  0
VPORT
  2
*ACTIVE
 70
     0
 10
0.0
 20
0.0
 11
1.0
 21
1.0
 12
-0.0113835429756364
 22
0.0042772697111104
 13
0.0
 23
0.0
 14
1.0
 24
1.0
 15
0.0
 25
0.0
 16
0.0
 26
0.0
 36
35.8706313462806321
 17
4515.5192499751292416
 27
244.4790011558721972
 37
0.0
 40
11.5747127812390094
 41
1.8876941457586609
 42
50.0
 43
0.0
 44
0.0
 50
0.0
 51
0.0
 71
     0
 72
   100
 73
     1
 74
     1
 75
     0
 76
     0
 77
     0
 78
     0
  0
ENDTAB
  0
TABLE
  2
LTYPE
 70
     2
  0
LTYPE
  2
CONTINUOUS
 70
     0
  3
Solid line
 72
    65
 73
     0
 40
0.0
  0
LTYPE
  2
PHANTOM2
 70
     0
  3
___ _ _ ___ _ _ ___ _ _ ___ _ _
 72
    65
 73
     6
 40
1.25
 49
0.625
 49
-0.125
 49
0.125
 49
-0.125
 49
0.125
 49
-0.125
  0
ENDTAB
  0
TABLE
  2
LAYER
 70
     2
  0
LAYER
  2
0
 70
     0
 62
   255
  6
CONTINUOUS
  0
LAYER
  2
DEFPOINTS
 70
     0
 62
     7
  6
CONTINUOUS
  0
ENDTAB
  0
TABLE
  2
STYLE
 70
     1
  0
STYLE
  2
STANDARD
 70
     0
 40
0.0
 41
0.8
 50
0.0
 71
     0
 42
0.2
  3
txt
  4

  0
ENDTAB
  0
TABLE
  2
VIEW
 70
     0
  0
ENDTAB
  0
TABLE
  2
UCS
 70
     0
  0
ENDTAB
  0
TABLE
  2
APPID
 70
    10
  0
APPID
  2
ACAD
 70
     0
  0
APPID
  2
ACAD_MLEADERVER
 70
     0
  0
APPID
  2
ACAD_EXEMPT_FROM_CAD_STANDARDS
 70
     0
  0
APPID
  2
ACAD_NAV_VCDISPLAY
 70
     0
  0
APPID
  2
ACAECLAYERSTANDARD
 70
     0
  0
APPID
  2
ACCMTRANSPARENCY
 70
     0
  0
APPID
  2
ACAD_DSTYLE_DIMJAG
 70
     0
  0
APPID
  2
ACAD_DSTYLE_DIMTALN
 70
     0
  0
APPID
  2
ACDBATTR
 70
     0
  0
APPID
  2
ACADANNOTATIVE
 70
     0
  0
ENDTAB
  0
TABLE
  2
DIMSTYLE
 70
     1
  0
DIMSTYLE
  2
STANDARD
 70
     0
  3

  4

  5

  6

  7

 40
1.0
 41
0.1875
 42
0.0625
 43
0.38
 44
0.125
 45
0.0
 46
0.0
 47
0.01
 48
0.01
140
0.15625
141
0.09
142
0.0
143
25.3999999999999986
144
1.0
145
0.0
146
1.0
147
0.09
 71
     1
 72
     0
 73
     1
 74
     1
 75
     0
 76
     0
 77
     0
 78
     4
170
     0
171
     2
172
     0
173
     0
174
     0
175
     0
176
     0
177
     0
178
     0
  0
ENDTAB
  0
ENDSEC
  0
SECTION
  2
BLOCKS
  0
BLOCK
  8
0
  2
$MODEL_SPACE
 70
     0
 10
0.0
 20
0.0
 30
0.0
  3
$MODEL_SPACE
  1

  0
ENDBLK
  5
21
  8
0
  0
BLOCK
 67
     1
  8
0
  2
$PAPER_SPACE
 70
     0
 10
0.0
 20
0.0
 30
0.0
  3
$PAPER_SPACE
  1

  0
ENDBLK
  5
1D
 67
     1
  8
0
  0
ENDSEC
  0
SECTION
  2
ENTITIES
  0
ATTDEF
  5
3930
  8
DEFPOINTS
 10
4517.6875513785171279
 20
238.7511747494943108
 30
0.0
 40
0.001
  1
K-985W-4
  3

  2
MODELNUMBER
 70
     0
1001
ACDBATTR
1070
     0
1070
     1
  0
ATTDEF
  5
3931
  8
DEFPOINTS
 10
4517.6875513785171279
 20
238.7495080828275889
 30
0.0
 40
0.001
  1
STILLNESS
  3

  2
TRADENAME
 70
     0
1001
ACDBATTR
1070
     0
1070
     1
  0
ATTDEF
  5
3932
  8
DEFPOINTS
 10
4517.6875513785171279
 20
238.7478414161608953
 30
0.0
 40
0.001
  1
BATHROOM SINK FAUCET
  3

  2
PRODUCT
 70
     0
1001
ACDBATTR
1070
     0
1070
     1
  0
LINE
  5
96D3
  8
0
 10
4517.2379484320254051
 20
247.9898097612469883
 30
0.0
 11
4517.2379580640254062
 21
244.5291798399470053
 31
0.0
  0
LINE
  5
96D4
  8
0
 10
4517.2379580640254062
 20
244.5213058242470083
 30
0.0
 11
4517.2379580640254062
 21
239.1862931944469892
 31
0.0
  0
LINE
  5
96D5
  8
0
 10
4518.1434698750235839
 20
239.1862931944469892
 30
0.0
 11
4517.2379580640254062
 21
239.1862931944469892
 31
0.0
  0
LINE
  5
96D6
  8
0
 10
4516.5292966467241058
 20
239.1669751155862969
 30
0.0
 11
4516.5292966467241058
 21
238.7535892888469959
 31
0.0
  0
LINE
  5
96D7
  8
0
 10
4516.5292966467241058
 20
238.7535892888469959
 30
0.0
 11
4518.8521312923239748
 21
238.7535892888469959
 31
0.0
  0
ARC
  5
96D8
  8
0
 10
4517.6785386001347433
 20
210.0162329887608905
 30
0.0
 40
29.1733872495490907
 50
90.8653216954353837
 51
92.2576657141127896
  0
LINE
  5
96D9
  8
0
 10
4517.2379580640254062
 20
244.5291798399470053
 30
0.0
 11
4518.1434698750235839
 21
244.5291798399470053
 31
0.0
  0
LINE
  5
96DA
  8
0
 10
4518.1434698750235839
 20
245.2378412573486912
 30
0.0
 11
4517.2379580640254062
 21
245.2378412573494018
 31
0.0
  0
LINE
  5
96DB
  8
0
 10
4517.2379580640254062
 20
244.5213058242470083
 30
0.0
 11
4518.1434698750235839
 21
244.5213058242470083
 31
0.0
  0
LINE
  5
96DC
  8
0
 10
4517.2676287521562699
 20
244.5291798399470053
 30
0.0
 11
4517.2676287521562699
 21
244.5213058242470083
 31
0.0
  0
LINE
  5
96DD
  8
0
 10
4518.1434602430235827
 20
247.9898097612469883
 30
0.0
 11
4518.1434698750235839
 21
244.5291798399470053
 31
0.0
  0
LINE
  5
96DE
  8
0
 10
4518.1434698750235839
 20
244.5213058242470083
 30
0.0
 11
4518.1434698750235839
 21
239.1862931944469892
 31
0.0
  0
LINE
  5
96DF
  8
0
 10
4518.8521312923239748
 20
239.1669751155862969
 30
0.0
 11
4518.8521312923239748
 21
238.7535892888469959
 31
0.0
  0
ARC
  5
96E0
  8
0
 10
4517.7028893389142468
 20
210.0162329887608905
 30
0.0
 40
29.1733872495490907
 50
87.7423342858871962
 51
89.1346783045646447
  0
LINE
  5
96E1
  8
0
 10
4518.1137991868927202
 20
244.5291798399470053
 30
0.0
 11
4518.1137991868927202
 21
244.5213058242470083
 31
0.0
  0
ARC
  5
96E2
  8
0
 10
4517.6414917389110997
 20
245.2181562181602033
 30
0.0
 40
0.0196850391868564
 50
89.9999996703508174
 51
180.0001949257348883
  0
LINE
  5
96E3
  8
0
 10
4517.6218066997244023
 20
245.2181561511897883
 30
0.0
 11
4517.6218089767171477
 21
244.5488648840515964
 31
0.0
  0
ARC
  5
96E4
  8
0
 10
4517.641494087933097
 20
244.5488649510222956
 30
0.0
 40
0.0196851112154042
 50
180.0001949257315914
 51
269.9931632321606116
  0
ARC
  5
96E5
  8
0
 10
4517.7399362001378904
 20
245.2181562181602033
 30
0.0
 40
0.0196850391868564
 50
359.9998050742651117
 51
90.0000003296491684
  0
LINE
  5
96E6
  8
0
 10
4517.7596212393236783
 20
245.2181561511897883
 30
0.0
 11
4517.7596189623309328
 21
244.5488648840515964
 31
0.0
  0
ARC
  5
96E7
  8
0
 10
4517.739933851115893
 20
244.5488649510222956
 30
0.0
 40
0.0196851112154042
 50
270.0068367678393884
 51
359.9998050742684086
  0
LINE
  5
96E8
  8
0
 10
4512.2375279624247923
 20
247.2783621177470081
 30
0.0
 11
4512.7021066818733743
 21
246.8137833982970051
 31
0.0
  0
ARC
  5
96E9
  8
0
 10
4512.7054215032721913
 20
246.8170982196947136
 30
0.0
 40
0.0046878653773929
 50
224.9999999999907914
 51
293.404689237330274
  0
LINE
  5
96EA
  8
0
 10
4512.7072836312236177
 20
246.8127960619470116
 30
0.0
 11
4512.7509897038717099
 21
246.8317136154952038
 31
0.0
  0
LINE
  5
96EB
  8
0
 10
4512.1886449402236394
 20
247.39405837904701
 30
0.0
 11
4512.8178029432410767
 21
246.7649003761360973
 31
0.0
  0
ARC
  5
96EC
  8
0
 10
4512.8233707127774323
 20
246.770468145672794
 30
0.0
 40
0.0078740151903054
 50
225.0000000048580944
 51
315.0000037088440763
  0
LINE
  5
96ED
  8
0
 10
4512.8289384826739479
 20
246.7649003764969962
 30
0.0
 11
4513.2966311265490731
 21
247.2325930809213901
 31
0.0
  0
LINE
  5
96EE
  8
0
 10
4513.2966311265490731
 20
247.2325930809213901
 30
0.0
 11
4512.6563376147742019
 21
247.8728865926970002
 31
0.0
  0
LINE
  5
96EF
  8
0
 10
4512.6702570396246301
 20
247.8868060175470021
 30
0.0
 11
4513.3105505817238736
 21
247.2465124755470072
 31
0.0
  0
LINE
  5
96F0
  8
0
 10
4513.3105505817238736
 20
247.2465124755470072
 30
0.0
 11
4514.9864493308441524
 21
248.9224112246263019
 31
0.0
  0
ARC
  5
96F1
  8
0
 10
4515.9190507942166732
 20
247.9898097612307026
 30
0.0
 40
1.318897637806747
 50
0.0000000007083731
 51
134.9999999992826076
  0
ARC
  5
96F2
  8
0
 10
4512.2408427835425755
 20
247.2816769390319962
 30
0.0
 40
0.004687865100845
 50
156.5953084654206862
 51
225.0000005687857936
  0
LINE
  5
96F3
  8
0
 10
4512.2365406261242242
 20
247.2835390670470019
 30
0.0
 11
4512.2554581810991294
 21
247.3272451381834003
 31
0.0
  0
ARC
  5
96F4
  8
0
 10
4512.194212710624015
 20
247.3996261486470019
 30
0.0
 40
0.0078740157000045
 50
135.0000000000229932
 51
225.000000297926789
  0
LINE
  5
96F5
  8
0
 10
4512.18864494072659
 20
247.4051939185436026
 30
0.0
 11
4512.6563376148769748
 21
247.8728865926939022
 31
0.0
  0
LINE
  5
96F6
  8
0
 10
4512.6702570396246301
 20
247.8868060175470021
 30
0.0
 11
4514.3461557888422249
 21
249.5627047666289116
 31
0.0
  0
ARC
  5
96F7
  8
0
 10
4515.9190507941857504
 20
247.9898097611566072
 30
0.0
 40
2.2244094488374349
 50
359.9999999858894739
 51
134.9999999976612912
  0
LINE
  5
96F8
  8
0
 10
4512.6883522919242751
 20
247.8687107652469876
 30
0.0
 11
4512.6744328670747564
 21
247.8547913403970142
 31
0.0
  0
LINE
  5
96F9
  8
0
 10
4513.2924553294733414
 20
247.2646077277956067
 30
0.0
 11
4513.2785359045738005
 21
247.2506883028970037
 31
0.0
  0
LINE
  5
96FA
  8
0
 10
4516.5292966467241058
 20
239.1669751155862969
 30
0.0
 11
4518.8521312923239748
 21
239.1669751155862969
 31
0.0
  0
ENDSEC
  0
EOF
