  0
SECTION
  2
HEADER
  9
$ACADVER
  1
AC1009
  9
$INSBASE
 10
4514.685324008131829
 20
247.679008634228893
 30
0.0
  9
$EXTMIN
 10
4513.5239066853318946
 20
242.1746429916289003
 30
0.0
  9
$EXTMAX
 10
4517.2443791262312516
 20
248.8404259570287991
 30
0.0
  9
$LIMMIN
 10
0.0
 20
0.0
  9
$LIMMAX
 10
11.6929133858000007
 20
8.2677165353999982
  9
$ORTHOMODE
 70
     0
  9
$REGENMODE
 70
     1
  9
$FILLMODE
 70
     1
  9
$QTEXTMODE
 70
     0
  9
$MIRRTEXT
 70
     0
  9
$DRAGMODE
 70
     2
  9
$LTSCALE
 40
0.6431102362
  9
$OSMODE
 70
     7
  9
$ATTMODE
 70
     1
  9
$TEXTSIZE
 40
0.2
  9
$TRACEWID
 40
0.05
  9
$TEXTSTYLE
  7
STANDARD
  9
$CLAYER
  8
0
  9
$CELTYPE
  6
BYLAYER
  9
$CECOLOR
 62
   256
  9
$DIMSCALE
 40
1.0
  9
$DIMASZ
 40
0.1875
  9
$DIMEXO
 40
0.0625
  9
$DIMDLI
 40
0.4443307087
  9
$DIMRND
 40
0.0
  9
$DIMDLE
 40
0.0
  9
$DIMEXE
 40
0.125
  9
$DIMTP
 40
0.01
  9
$DIMTM
 40
0.01
  9
$DIMTXT
 40
2.0
  9
$DIMCEN
 40
0.1052362205
  9
$DIMTSZ
 40
0.0
  9
$DIMTOL
 70
     1
  9
$DIMLIM
 70
     0
  9
$DIMTIH
 70
     1
  9
$DIMTOH
 70
     1
  9
$DIMSE1
 70
     0
  9
$DIMSE2
 70
     0
  9
$DIMTAD
 70
     0
  9
$DIMZIN
 70
     0
  9
$DIMBLK
  1

  9
$DIMASO
 70
     1
  9
$DIMSHO
 70
     1
  9
$DIMPOST
  1
\X
  9
$DIMAPOST
  1

  9
$DIMALT
 70
     1
  9
$DIMALTD
 70
     2
  9
$DIMALTF
 40
25.3999999999999986
  9
$DIMLFAC
 40
1.0
  9
$DIMTOFL
 70
     0
  9
$DIMTVP
 40
0.0
  9
$DIMTIX
 70
     0
  9
$DIMSOXD
 70
     0
  9
$DIMSAH
 70
     0
  9
$DIMBLK1
  1

  9
$DIMBLK2
  1

  9
$DIMSTYLE
  2
STANDARD
  9
$DIMCLRD
 70
     0
  9
$DIMCLRE
 70
     0
  9
$DIMCLRT
 70
     0
  9
$DIMTFAC
 40
1.0
  9
$DIMGAP
 40
0.09
  9
$LUNITS
 70
     2
  9
$LUPREC
 70
     4
  9
$SKETCHINC
 40
0.1
  9
$FILLETRAD
 40
0.0
  9
$AUNITS
 70
     0
  9
$AUPREC
 70
     0
  9
$MENU
  1
.
  9
$ELEVATION
 40
0.0
  9
$PELEVATION
 40
0.0
  9
$THICKNESS
 40
0.0
  9
$LIMCHECK
 70
     0
  9
$BLIPMODE
 70
     0
  9
$CHAMFERA
 40
0.0
  9
$CHAMFERB
 40
0.0
  9
$SKPOLY
 70
     0
  9
$TDCREATE
 40
2458060.468368056230247
  9
$TDUPDATE
 40
2459562.719872685149312
  9
$TDINDWG
 40
0.8649028935
  9
$TDUSRTIMER
 40
0.8649028935
  9
$USRTIMER
 70
     1
  9
$ANGBASE
 50
0.0
  9
$ANGDIR
 70
     0
  9
$PDMODE
 70
     0
  9
$PDSIZE
 40
0.3125
  9
$PLINEWID
 40
0.0
  9
$COORDS
 70
     1
  9
$SPLFRAME
 70
     0
  9
$SPLINETYPE
 70
     6
  9
$SPLINESEGS
 70
     8
  9
$ATTDIA
 70
     1
  9
$ATTREQ
 70
     1
  9
$HANDLING
 70
     1
  9
$HANDSEED
  5
9913
  9
$SURFTAB1
 70
     6
  9
$SURFTAB2
 70
     6
  9
$SURFTYPE
 70
     6
  9
$SURFU
 70
     6
  9
$SURFV
 70
     6
  9
$UCSNAME
  2

  9
$UCSORG
 10
0.0
 20
0.0
 30
0.0
  9
$UCSXDIR
 10
1.0
 20
0.0
 30
0.0
  9
$UCSYDIR
 10
0.0
 20
1.0
 30
0.0
  9
$PUCSNAME
  2

  9
$PUCSORG
 10
0.0
 20
0.0
 30
0.0
  9
$PUCSXDIR
 10
1.0
 20
0.0
 30
0.0
  9
$PUCSYDIR
 10
0.0
 20
1.0
 30
0.0
  9
$USERI1
 70
     0
  9
$USERI2
 70
     0
  9
$USERI3
 70
     0
  9
$USERI4
 70
     0
  9
$USERI5
 70
     0
  9
$USERR1
 40
0.0
  9
$USERR2
 40
0.0
  9
$USERR3
 40
0.0
  9
$USERR4
 40
0.0
  9
$USERR5
 40
0.0
  9
$WORLDVIEW
 70
     1
  9
$SHADEDGE
 70
     3
  9
$SHADEDIF
 70
    70
  9
$TILEMODE
 70
     1
  9
$MAXACTVP
 70
    64
  9
$PLIMCHECK
 70
     0
  9
$PEXTMIN
 10
1.0000000000000000E+20
 20
1.0000000000000000E+20
 30
1.0000000000000000E+20
  9
$PEXTMAX
 10
-1.0000000000000000E+20
 20
-1.0000000000000000E+20
 30
-1.0000000000000000E+20
  9
$PLIMMIN
 10
0.0
 20
0.0
  9
$PLIMMAX
 10
12.0
 20
9.0
  9
$UNITMODE
 70
     0
  9
$VISRETAIN
 70
     1
  9
$PLINEGEN
 70
     0
  9
$PSLTSCALE
 70
     1
  0
ENDSEC
  0
SECTION
  2
TABLES
  0
TABLE
  2
VPORT
 70
     1
  0
VPORT
  2
*ACTIVE
 70
     0
 10
0.0
 20
0.0
 11
1.0
 21
1.0
 12
-0.0000323352664964
 22
0.0003547327502105
 13
0.0
 23
0.0
 14
1.0
 24
1.0
 15
0.0
 25
0.0
 16
0.0
 26
0.0
 36
20.6495656095616695
 17
4515.3841752410480694
 27
245.5071797415785966
 37
0.0
 40
6.7135093350806523
 41
1.8876941457586609
 42
50.0
 43
0.0
 44
0.0
 50
0.0
 51
0.0
 71
     0
 72
   100
 73
     1
 74
     1
 75
     0
 76
     0
 77
     0
 78
     0
  0
ENDTAB
  0
TABLE
  2
LTYPE
 70
     2
  0
LTYPE
  2
CONTINUOUS
 70
     0
  3
Solid line
 72
    65
 73
     0
 40
0.0
  0
LTYPE
  2
PHANTOM2
 70
     0
  3
___ _ _ ___ _ _ ___ _ _ ___ _ _
 72
    65
 73
     6
 40
1.25
 49
0.625
 49
-0.125
 49
0.125
 49
-0.125
 49
0.125
 49
-0.125
  0
ENDTAB
  0
TABLE
  2
LAYER
 70
     2
  0
LAYER
  2
0
 70
     0
 62
   255
  6
CONTINUOUS
  0
LAYER
  2
DEFPOINTS
 70
     0
 62
     7
  6
CONTINUOUS
  0
ENDTAB
  0
TABLE
  2
STYLE
 70
     1
  0
STYLE
  2
STANDARD
 70
     0
 40
0.0
 41
0.8
 50
0.0
 71
     0
 42
0.2
  3
txt
  4

  0
ENDTAB
  0
TABLE
  2
VIEW
 70
     0
  0
ENDTAB
  0
TABLE
  2
UCS
 70
     0
  0
ENDTAB
  0
TABLE
  2
APPID
 70
    10
  0
APPID
  2
ACAD
 70
     0
  0
APPID
  2
ACAD_MLEADERVER
 70
     0
  0
APPID
  2
ACAD_EXEMPT_FROM_CAD_STANDARDS
 70
     0
  0
APPID
  2
ACAD_NAV_VCDISPLAY
 70
     0
  0
APPID
  2
ACAECLAYERSTANDARD
 70
     0
  0
APPID
  2
ACCMTRANSPARENCY
 70
     0
  0
APPID
  2
ACAD_DSTYLE_DIMJAG
 70
     0
  0
APPID
  2
ACAD_DSTYLE_DIMTALN
 70
     0
  0
APPID
  2
ACDBATTR
 70
     0
  0
APPID
  2
ACADANNOTATIVE
 70
     0
  0
ENDTAB
  0
TABLE
  2
DIMSTYLE
 70
     1
  0
DIMSTYLE
  2
STANDARD
 70
     0
  3

  4

  5

  6

  7

 40
1.0
 41
0.1875
 42
0.0625
 43
0.38
 44
0.125
 45
0.0
 46
0.0
 47
0.01
 48
0.01
140
0.15625
141
0.09
142
0.0
143
25.3999999999999986
144
1.0
145
0.0
146
1.0
147
0.09
 71
     1
 72
     0
 73
     1
 74
     1
 75
     0
 76
     0
 77
     0
 78
     4
170
     0
171
     2
172
     0
173
     0
174
     0
175
     0
176
     0
177
     0
178
     0
  0
ENDTAB
  0
ENDSEC
  0
SECTION
  2
BLOCKS
  0
BLOCK
  8
0
  2
$MODEL_SPACE
 70
     0
 10
0.0
 20
0.0
 30
0.0
  3
$MODEL_SPACE
  1

  0
ENDBLK
  5
21
  8
0
  0
BLOCK
 67
     1
  8
0
  2
$PAPER_SPACE
 70
     0
 10
0.0
 20
0.0
 30
0.0
  3
$PAPER_SPACE
  1

  0
ENDBLK
  5
1D
 67
     1
  8
0
  0
ENDSEC
  0
SECTION
  2
ENTITIES
  0
ATTDEF
  5
3930
  8
DEFPOINTS
 10
4514.682165321301909
 20
247.6831725556509127
 30
0.0
 40
0.001
  1
K-985W-4
  3

  2
MODELNUMBER
 70
     0
1001
ACDBATTR
1070
     0
1070
     1
  0
ATTDEF
  5
3931
  8
DEFPOINTS
 10
4514.682165321301909
 20
247.6815058889843044
 30
0.0
 40
0.001
  1
STILLNESS
  3

  2
TRADENAME
 70
     0
1001
ACDBATTR
1070
     0
1070
     1
  0
ATTDEF
  5
3932
  8
DEFPOINTS
 10
4514.682165321301909
 20
247.6798392223176108
 30
0.0
 40
0.001
  1
BATHROOM SINK FAUCET
  3

  2
PRODUCT
 70
     0
1001
ACDBATTR
1070
     0
1070
     1
  0
ARC
  5
96D5
  8
0
 10
4514.685324008131829
 20
247.679008634228893
 30
0.0
 40
1.1614173227999991
 50
292.9439535566170889
 51
356.5991011467352223
  0
ARC
  5
96D6
  8
0
 10
4514.685324008131829
 20
247.679008634228893
 30
0.0
 40
1.1614173227999991
 50
3.400898864945594
 51
247.0560464433829111
  0
ARC
  5
96D7
  8
0
 10
4514.6895963338820366
 20
247.6747363084782876
 30
0.0
 40
0.4570481997857029
 50
90.5355885863278758
 51
179.4644114136947906
  0
LINE
  5
96D8
  8
0
 10
4514.232568102631376
 20
247.679008634228893
 30
0.0
 11
4514.232568102631376
 21
242.4970960084289118
 31
0.0
  0
ARC
  5
96D9
  8
0
 10
4514.4922436304268558
 20
242.5021675140141042
 30
0.0
 40
0.2597250467413814
 50
181.1188537179735931
 51
222.860149709450809
  0
ARC
  5
96DA
  8
0
 10
4514.6243262123007298
 20
242.6254583464219934
 30
0.0
 40
0.4404078407661563
 50
222.9291170609043036
 51
252.8850970550037118
  0
ARC
  5
96DB
  8
0
 10
4514.6809298463967934
 20
242.7720918640569892
 30
0.0
 40
0.5973060109620266
 50
251.8352106884987904
 51
267.8633881694944989
  0
ARC
  5
96DC
  8
0
 10
4514.6890469395302716
 20
242.9896604332004131
 30
0.0
 40
0.8150259445465968
 50
267.8633881694944989
 51
269.7382794991963237
  0
ARC
  5
96DD
  8
0
 10
4514.6809883523501412
 20
243.2417627446278061
 30
0.0
 40
0.5971365733496617
 50
249.9003907103708002
 51
270.416013641583902
  0
ARC
  5
96DE
  8
0
 10
4514.6364856435020556
 20
243.1201508075392894
 30
0.0
 40
0.4676377149099956
 50
226.7434490145344057
 51
249.9003907103708002
  0
ARC
  5
96DF
  8
0
 10
4514.4973441712099884
 20
242.9722729488005086
 30
0.0
 40
0.2645904041248956
 50
207.8033066686014081
 51
226.7434490145344057
  0
ARC
  5
96E0
  8
0
 10
4514.5207632489746175
 20
242.9846221551138115
 30
0.0
 40
0.2910659796603882
 50
193.2750843273902035
 51
207.8033066686014081
  0
ARC
  5
96E1
  8
0
 10
4514.450888128587394
 20
242.9681364572020073
 30
0.0
 40
0.2192724515069117
 50
185.3421790201655881
 51
193.2750843273902035
  0
ARC
  5
96E2
  8
0
 10
4514.6842758803022662
 20
243.279707609912009
 30
0.0
 40
0.6211471577926421
 50
254.2258441907017072
 51
270.0966813237649831
  0
ARC
  5
96E3
  8
0
 10
4514.653730500032907
 20
243.1715763816530966
 30
0.0
 40
0.5087844291833818
 50
234.2447632584135988
 51
254.2258441907017072
  0
ARC
  5
96E4
  8
0
 10
4514.5457514701238324
 20
243.0216129556849864
 30
0.0
 40
0.3239913015287759
 50
218.7489435731064873
 51
234.2447632584135988
  0
ARC
  5
96E5
  8
0
 10
4514.5067945789523947
 20
242.9954958864429955
 30
0.0
 40
0.2772911329235919
 50
200.2003313401355911
 51
219.5785531171615901
  0
ARC
  5
96E6
  8
0
 10
4514.4993193295986202
 20
242.9888006427827065
 30
0.0
 40
0.2679893601735678
 50
185.5271969167297073
 51
199.4087815642575947
  0
ARC
  5
96E7
  8
0
 10
4515.1506065846706406
 20
247.7754274856654888
 30
0.0
 40
0.027548431731532
 50
223.907533981969209
 51
267.4528375062529904
  0
LINE
  5
96E8
  8
0
 10
4515.1493822847096453
 20
247.7479062723843128
 30
0.0
 11
4517.2246940493650982
 21
247.7479062720288994
 31
0.0
  0
ARC
  5
96E9
  8
0
 10
4517.2236094870222587
 20
247.7271366307556093
 30
0.0
 40
0.0207979391790563
 50
2.9893015295001941
 51
87.0108075218585384
  0
LINE
  5
96EA
  8
0
 10
4517.2443791262312516
 20
247.728221232628897
 30
0.0
 11
4517.2443791262312516
 21
247.629796035828889
 31
0.0
  0
ARC
  5
96EB
  8
0
 10
4517.2238600420796502
 20
247.6306300805794933
 30
0.0
 40
0.0205360279758727
 50
272.3276356686031932
 51
357.6723643313604839
  0
LINE
  5
96EC
  8
0
 10
4517.2246940868317324
 20
247.6101109964288867
 30
0.0
 11
4515.1493860170294283
 21
247.6101109964288867
 31
0.0
  0
ARC
  5
96ED
  8
0
 10
4515.1494370023901865
 20
247.5902387408025902
 30
0.0
 40
0.0198723210316272
 50
90.1470008986803748
 51
124.8550929710672932
  0
ARC
  5
96EE
  8
0
 10
4514.6810516823798025
 20
247.6747363084782876
 30
0.0
 40
0.4570481997857029
 50
0.5355885863067945
 51
89.4644114136721242
  0
LINE
  5
96EF
  8
0
 10
4515.1380799136313726
 20
247.679008634228893
 30
0.0
 11
4515.1380799136313726
 21
242.4970960084289118
 31
0.0
  0
ARC
  5
96F0
  8
0
 10
4514.8784043858358928
 20
242.5021675140141042
 30
0.0
 40
0.2597250467413814
 50
317.1398502905490773
 51
358.8811462820262932
  0
ARC
  5
96F1
  8
0
 10
4514.7463218039611093
 20
242.6254583464219934
 30
0.0
 40
0.4404078407661563
 50
287.1149029449962882
 51
317.0708829390957249
  0
ARC
  5
96F2
  8
0
 10
4514.6897181698659551
 20
242.7720918640569892
 30
0.0
 40
0.5973060109620266
 50
272.1366118305053874
 51
288.1647893115011811
  0
ARC
  5
96F3
  8
0
 10
4514.6816010767315674
 20
242.9896604332004131
 30
0.0
 40
0.8150259445465968
 50
270.2617205008036763
 51
272.1366118305053874
  0
ARC
  5
96F4
  8
0
 10
4514.6896596639116979
 20
243.2417627446278061
 30
0.0
 40
0.5971365733496617
 50
269.5839863584159843
 51
290.0996092896291998
  0
ARC
  5
96F5
  8
0
 10
4514.7341623727597835
 20
243.1201508075392894
 30
0.0
 40
0.4676377149099956
 50
290.0996092896291998
 51
313.2565509854655943
  0
ARC
  5
96F6
  8
0
 10
4514.8733038450527602
 20
242.9722729488005086
 30
0.0
 40
0.2645904041248956
 50
313.2565509854655943
 51
332.1966933313984782
  0
ARC
  5
96F7
  8
0
 10
4514.8498847672881311
 20
242.9846221551138115
 30
0.0
 40
0.2910659796603882
 50
332.1966933313984782
 51
346.7249156726098249
  0
ARC
  5
96F8
  8
0
 10
4514.9197598876753545
 20
242.9681364572020073
 30
0.0
 40
0.2192724515069117
 50
346.7249156726098249
 51
354.6578209798342982
  0
ARC
  5
96F9
  8
0
 10
4514.6863721359613919
 20
243.279707609912009
 30
0.0
 40
0.6211471577926421
 50
269.9033186762350169
 51
285.7741558092981791
  0
ARC
  5
96FA
  8
0
 10
4514.7169175162289321
 20
243.1715763816530966
 30
0.0
 40
0.5087844291833818
 50
285.7741558092981791
 51
305.7552367415863728
  0
ARC
  5
96FB
  8
0
 10
4514.8248965461389162
 20
243.0216129556849864
 30
0.0
 40
0.3239913015287759
 50
305.7552367415863728
 51
321.2510564268935127
  0
ARC
  5
96FC
  8
0
 10
4514.8638534373112634
 20
242.9954958864429955
 30
0.0
 40
0.2772911329235919
 50
320.4214468828383815
 51
339.7996686598629026
  0
ARC
  5
96FD
  8
0
 10
4514.8713286866632188
 20
242.9888006427827065
 30
0.0
 40
0.2679893601735678
 50
340.5912184357422916
 51
354.4728030832702075
  0
ENDSEC
  0
EOF
