  0
SECTION
  2
HEADER
  9
$ACADVER
  1
AC1009
  9
$INSBASE
 10
4514.282517368083063
 20
242.7235119952563878
 30
0.0
  9
$EXTMIN
 10
4513.1211000452758526
 20
242.7171921866226114
 30
0.0
  9
$EXTMAX
 10
4516.8441423948788724
 20
254.1841419164034903
 30
0.0
  9
$LIMMIN
 10
0.0
 20
0.0
  9
$LIMMAX
 10
11.6929133858000007
 20
8.2677165353999982
  9
$ORTHOMODE
 70
     0
  9
$REGENMODE
 70
     1
  9
$FILLMODE
 70
     1
  9
$QTEXTMODE
 70
     0
  9
$MIRRTEXT
 70
     0
  9
$DRAGMODE
 70
     2
  9
$LTSCALE
 40
0.6431102362
  9
$OSMODE
 70
     7
  9
$ATTMODE
 70
     1
  9
$TEXTSIZE
 40
0.2
  9
$TRACEWID
 40
0.05
  9
$TEXTSTYLE
  7
STANDARD
  9
$CLAYER
  8
0
  9
$CELTYPE
  6
BYLAYER
  9
$CECOLOR
 62
   256
  9
$DIMSCALE
 40
1.0
  9
$DIMASZ
 40
0.1875
  9
$DIMEXO
 40
0.0625
  9
$DIMDLI
 40
0.4443307087
  9
$DIMRND
 40
0.0
  9
$DIMDLE
 40
0.0
  9
$DIMEXE
 40
0.125
  9
$DIMTP
 40
0.01
  9
$DIMTM
 40
0.01
  9
$DIMTXT
 40
2.0
  9
$DIMCEN
 40
0.1052362205
  9
$DIMTSZ
 40
0.0
  9
$DIMTOL
 70
     1
  9
$DIMLIM
 70
     0
  9
$DIMTIH
 70
     1
  9
$DIMTOH
 70
     1
  9
$DIMSE1
 70
     0
  9
$DIMSE2
 70
     0
  9
$DIMTAD
 70
     0
  9
$DIMZIN
 70
     0
  9
$DIMBLK
  1

  9
$DIMASO
 70
     1
  9
$DIMSHO
 70
     1
  9
$DIMPOST
  1
\X
  9
$DIMAPOST
  1

  9
$DIMALT
 70
     1
  9
$DIMALTD
 70
     2
  9
$DIMALTF
 40
25.3999999999999986
  9
$DIMLFAC
 40
1.0
  9
$DIMTOFL
 70
     0
  9
$DIMTVP
 40
0.0
  9
$DIMTIX
 70
     0
  9
$DIMSOXD
 70
     0
  9
$DIMSAH
 70
     0
  9
$DIMBLK1
  1

  9
$DIMBLK2
  1

  9
$DIMSTYLE
  2
STANDARD
  9
$DIMCLRD
 70
     0
  9
$DIMCLRE
 70
     0
  9
$DIMCLRT
 70
     0
  9
$DIMTFAC
 40
1.0
  9
$DIMGAP
 40
0.09
  9
$LUNITS
 70
     2
  9
$LUPREC
 70
     4
  9
$SKETCHINC
 40
0.1
  9
$FILLETRAD
 40
0.0
  9
$AUNITS
 70
     0
  9
$AUPREC
 70
     0
  9
$MENU
  1
.
  9
$ELEVATION
 40
0.0
  9
$PELEVATION
 40
0.0
  9
$THICKNESS
 40
0.0
  9
$LIMCHECK
 70
     0
  9
$BLIPMODE
 70
     0
  9
$CHAMFERA
 40
0.0
  9
$CHAMFERB
 40
0.0
  9
$SKPOLY
 70
     0
  9
$TDCREATE
 40
2458060.468368056230247
  9
$TDUPDATE
 40
2459562.7197569450363517
  9
$TDINDWG
 40
0.8656204861
  9
$TDUSRTIMER
 40
0.8656204861
  9
$USRTIMER
 70
     1
  9
$ANGBASE
 50
0.0
  9
$ANGDIR
 70
     0
  9
$PDMODE
 70
     0
  9
$PDSIZE
 40
0.3125
  9
$PLINEWID
 40
0.0
  9
$COORDS
 70
     1
  9
$SPLFRAME
 70
     0
  9
$SPLINETYPE
 70
     6
  9
$SPLINESEGS
 70
     8
  9
$ATTDIA
 70
     1
  9
$ATTREQ
 70
     1
  9
$HANDLING
 70
     1
  9
$HANDSEED
  5
9D01
  9
$SURFTAB1
 70
     6
  9
$SURFTAB2
 70
     6
  9
$SURFTYPE
 70
     6
  9
$SURFU
 70
     6
  9
$SURFV
 70
     6
  9
$UCSNAME
  2

  9
$UCSORG
 10
0.0
 20
0.0
 30
0.0
  9
$UCSXDIR
 10
1.0
 20
0.0
 30
0.0
  9
$UCSYDIR
 10
0.0
 20
1.0
 30
0.0
  9
$PUCSNAME
  2

  9
$PUCSORG
 10
0.0
 20
0.0
 30
0.0
  9
$PUCSXDIR
 10
1.0
 20
0.0
 30
0.0
  9
$PUCSYDIR
 10
0.0
 20
1.0
 30
0.0
  9
$USERI1
 70
     0
  9
$USERI2
 70
     0
  9
$USERI3
 70
     0
  9
$USERI4
 70
     0
  9
$USERI5
 70
     0
  9
$USERR1
 40
0.0
  9
$USERR2
 40
0.0
  9
$USERR3
 40
0.0
  9
$USERR4
 40
0.0
  9
$USERR5
 40
0.0
  9
$WORLDVIEW
 70
     1
  9
$SHADEDGE
 70
     3
  9
$SHADEDIF
 70
    70
  9
$TILEMODE
 70
     1
  9
$MAXACTVP
 70
    64
  9
$PLIMCHECK
 70
     0
  9
$PEXTMIN
 10
1.0000000000000000E+20
 20
1.0000000000000000E+20
 30
1.0000000000000000E+20
  9
$PEXTMAX
 10
-1.0000000000000000E+20
 20
-1.0000000000000000E+20
 30
-1.0000000000000000E+20
  9
$PLIMMIN
 10
0.0
 20
0.0
  9
$PLIMMAX
 10
12.0
 20
9.0
  9
$UNITMODE
 70
     0
  9
$VISRETAIN
 70
     1
  9
$PLINEGEN
 70
     0
  9
$PSLTSCALE
 70
     1
  0
ENDSEC
  0
SECTION
  2
TABLES
  0
TABLE
  2
VPORT
 70
     1
  0
VPORT
  2
*ACTIVE
 70
     0
 10
0.0
 20
0.0
 11
1.0
 21
1.0
 12
0.0
 22
-0.0000000000000142
 13
0.0
 23
0.0
 14
1.0
 24
1.0
 15
0.0
 25
0.0
 16
0.0
 26
0.0
 36
32.6151115230653375
 17
4514.9826212200769078
 27
248.4506670515131077
 37
0.0
 40
11.5490519951492097
 41
1.8876941457586609
 42
50.0
 43
0.0
 44
0.0
 50
0.0
 51
0.0
 71
     0
 72
   100
 73
     1
 74
     1
 75
     0
 76
     0
 77
     0
 78
     0
  0
ENDTAB
  0
TABLE
  2
LTYPE
 70
     2
  0
LTYPE
  2
CONTINUOUS
 70
     0
  3
Solid line
 72
    65
 73
     0
 40
0.0
  0
LTYPE
  2
PHANTOM2
 70
     0
  3
___ _ _ ___ _ _ ___ _ _ ___ _ _
 72
    65
 73
     6
 40
1.25
 49
0.625
 49
-0.125
 49
0.125
 49
-0.125
 49
0.125
 49
-0.125
  0
ENDTAB
  0
TABLE
  2
LAYER
 70
     2
  0
LAYER
  2
0
 70
     0
 62
   255
  6
CONTINUOUS
  0
LAYER
  2
DEFPOINTS
 70
     0
 62
     7
  6
CONTINUOUS
  0
ENDTAB
  0
TABLE
  2
STYLE
 70
     1
  0
STYLE
  2
STANDARD
 70
     0
 40
0.0
 41
0.8
 50
0.0
 71
     0
 42
0.2
  3
txt
  4

  0
ENDTAB
  0
TABLE
  2
VIEW
 70
     0
  0
ENDTAB
  0
TABLE
  2
UCS
 70
     0
  0
ENDTAB
  0
TABLE
  2
APPID
 70
    10
  0
APPID
  2
ACAD
 70
     0
  0
APPID
  2
ACAD_MLEADERVER
 70
     0
  0
APPID
  2
ACAD_EXEMPT_FROM_CAD_STANDARDS
 70
     0
  0
APPID
  2
ACAD_NAV_VCDISPLAY
 70
     0
  0
APPID
  2
ACAECLAYERSTANDARD
 70
     0
  0
APPID
  2
ACCMTRANSPARENCY
 70
     0
  0
APPID
  2
ACAD_DSTYLE_DIMJAG
 70
     0
  0
APPID
  2
ACAD_DSTYLE_DIMTALN
 70
     0
  0
APPID
  2
ACDBATTR
 70
     0
  0
APPID
  2
ACADANNOTATIVE
 70
     0
  0
ENDTAB
  0
TABLE
  2
DIMSTYLE
 70
     1
  0
DIMSTYLE
  2
STANDARD
 70
     0
  3

  4

  5

  6

  7

 40
1.0
 41
0.1875
 42
0.0625
 43
0.38
 44
0.125
 45
0.0
 46
0.0
 47
0.01
 48
0.01
140
0.15625
141
0.09
142
0.0
143
25.3999999999999986
144
1.0
145
0.0
146
1.0
147
0.09
 71
     1
 72
     0
 73
     1
 74
     1
 75
     0
 76
     0
 77
     0
 78
     4
170
     0
171
     2
172
     0
173
     0
174
     0
175
     0
176
     0
177
     0
178
     0
  0
ENDTAB
  0
ENDSEC
  0
SECTION
  2
BLOCKS
  0
BLOCK
  8
0
  2
$MODEL_SPACE
 70
     0
 10
0.0
 20
0.0
 30
0.0
  3
$MODEL_SPACE
  1

  0
ENDBLK
  5
21
  8
0
  0
BLOCK
 67
     1
  8
0
  2
$PAPER_SPACE
 70
     0
 10
0.0
 20
0.0
 30
0.0
  3
$PAPER_SPACE
  1

  0
ENDBLK
  5
1D
 67
     1
  8
0
  0
ENDSEC
  0
SECTION
  2
ENTITIES
  0
ATTDEF
  5
3930
  8
DEFPOINTS
 10
4514.2807829546800349
 20
242.7205255199559133
 30
0.0
 40
0.001
  1
K-985W-4
  3

  2
MODELNUMBER
 70
     0
1001
ACDBATTR
1070
     0
1070
     1
  0
ATTDEF
  5
3931
  8
DEFPOINTS
 10
4514.2807829546800349
 20
242.718858853289305
 30
0.0
 40
0.001
  1
STILLNESS
  3

  2
TRADENAME
 70
     0
1001
ACDBATTR
1070
     0
1070
     1
  0
ATTDEF
  5
3932
  8
DEFPOINTS
 10
4514.2807829546800349
 20
242.7171921866226114
 30
0.0
 40
0.001
  1
BATHROOM SINK FAUCET
  3

  2
PRODUCT
 70
     0
1001
ACDBATTR
1070
     0
1070
     1
  0
ARC
  5
996F
  8
0
 10
4514.2825173679921136
 20
253.7313860109937877
 30
0.0
 40
0.4527559054096244
 50
89.9999999885878594
 51
180.0000000047371032
  0
LINE
  5
9970
  8
0
 10
4513.82976146258261
 20
253.7313860109564132
 30
0.0
 11
4513.82976146258261
 21
248.4991025463563972
 31
0.0
  0
LINE
  5
9971
  8
0
 10
4513.82976146258261
 20
248.4912285306564002
 30
0.0
 11
4513.82976146258261
 21
243.1562159008564095
 31
0.0
  0
LINE
  5
9972
  8
0
 10
4514.7352732735816971
 20
243.1562159008564095
 30
0.0
 11
4513.82976146258261
 21
243.1562159008564095
 31
0.0
  0
LINE
  5
9973
  8
0
 10
4513.1211000452831286
 20
243.1368978219956887
 30
0.0
 11
4513.1211000452831286
 21
242.7235119952563878
 31
0.0
  0
LINE
  5
9974
  8
0
 10
4513.1211000452831286
 20
242.7235119952563878
 30
0.0
 11
4515.4439346908829975
 21
242.7235119952563878
 31
0.0
  0
ARC
  5
9975
  8
0
 10
4514.2703419986928566
 20
213.9861556951703108
 30
0.0
 40
29.1733872495490907
 50
90.8653216954353837
 51
92.2576657141127896
  0
LINE
  5
9976
  8
0
 10
4513.82976146258261
 20
248.4991025463563972
 30
0.0
 11
4516.8218874467829664
 21
248.4991025463563972
 31
0.0
  0
ARC
  5
9977
  8
0
 10
4516.8197547507870695
 20
248.5239363693536916
 30
0.0
 40
0.0249252313303845
 50
274.9084428562372864
 51
348.0786295532540748
  0
LINE
  5
9978
  8
0
 10
4516.8441423948788724
 20
248.5187875857563995
 30
0.0
 11
4516.8441423948788724
 21
249.1880789243564038
 31
0.0
  0
ARC
  5
9979
  8
0
 10
4516.8197547507870695
 20
249.182930140759197
 30
0.0
 40
0.0249252313302592
 50
11.9213704465280195
 51
85.0915571439719969
  0
LINE
  5
997A
  8
0
 10
4516.8218874467829664
 20
249.2077639637564062
 30
0.0
 11
4513.82976146258261
 21
249.2077639637587936
 31
0.0
  0
LINE
  5
997B
  8
0
 10
4513.82976146258261
 20
248.4912285306564002
 30
0.0
 11
4514.7352732735816971
 21
248.4912285306564002
 31
0.0
  0
LINE
  5
997C
  8
0
 10
4513.8594321507143832
 20
248.4991025463563972
 30
0.0
 11
4513.8594321507143832
 21
248.4912285306564002
 31
0.0
  0
ARC
  5
997D
  8
0
 10
4514.2796661785032484
 20
250.7719154416386118
 30
0.0
 40
0.6032043579699528
 50
89.7291767944624326
 51
112.2684056747770995
  0
ARC
  5
997E
  8
0
 10
4514.2180205630338605
 20
250.9224593846101072
 30
0.0
 40
0.4405278056587824
 50
112.2684056747770995
 51
131.6620091958484124
  0
ARC
  5
997F
  8
0
 10
4514.128176368518325
 20
251.0234330158000944
 30
0.0
 40
0.3053699221144183
 50
131.6620091958484124
 51
156.6891854443142904
  0
ARC
  5
9980
  8
0
 10
4514.0508347156674063
 20
251.0567589010306904
 30
0.0
 40
0.221153855404482
 50
156.6891854443142904
 51
178.4530462248436891
  0
ARC
  5
9981
  8
0
 10
4514.0907572599835476
 20
251.0631161477849105
 30
0.0
 40
0.2620861647131132
 50
185.2282058251888088
 51
214.4239420637869955
  0
ARC
  5
9982
  8
0
 10
4514.1576322460177835
 20
251.1089474645565929
 30
0.0
 40
0.3431588071634889
 50
214.4239420637869955
 51
235.9563812772038034
  0
ARC
  5
9983
  8
0
 10
4514.2548319111110686
 20
251.2528155189444874
 30
0.0
 40
0.5167842429948438
 50
235.9563812772038034
 51
250.047269757976693
  0
ARC
  5
9984
  8
0
 10
4514.2677113695099251
 20
251.2882925818252033
 30
0.0
 40
0.554526824243407
 50
250.047269757976693
 51
262.8824514077318213
  0
ARC
  5
9985
  8
0
 10
4514.2881471325599705
 20
251.4519520150514893
 30
0.0
 40
0.7194572049966917
 50
262.8824515887511097
 51
269.5516550062105807
  0
ARC
  5
9986
  8
0
 10
4514.279042188337371
 20
250.8091423207035859
 30
0.0
 40
0.5207477693861435
 50
89.6176371323683867
 51
114.9205458373205033
  0
ARC
  5
9987
  8
0
 10
4514.2109507392988235
 20
250.9556951582279964
 30
0.0
 40
0.3591489463131381
 50
114.9205458373205033
 51
135.1833850502154917
  0
ARC
  5
9988
  8
0
 10
4514.1364646101783364
 20
251.0297059955055943
 30
0.0
 40
0.2541451965426233
 50
135.1833850502154917
 51
162.6505040977449994
  0
ARC
  5
9989
  8
0
 10
4514.0743999919222915
 20
251.049095804105292
 30
0.0
 40
0.1891222658419625
 50
162.6505040977449994
 51
199.7187712283698886
  0
ARC
  5
998A
  8
0
 10
4514.1451910216246688
 20
251.0744688312805977
 30
0.0
 40
0.26432306633347
 50
199.7187712283698886
 51
230.1512271246419061
  0
ARC
  5
998B
  8
0
 10
4514.2390542235252724
 20
251.1869321408134113
 30
0.0
 40
0.4108095730902275
 50
230.1512271246419061
 51
250.4180242187063072
  0
ARC
  5
998C
  8
0
 10
4514.280167002089911
 20
251.3025052728272044
 30
0.0
 40
0.5334774556221158
 50
250.4180242187063072
 51
263.5644842381660737
  0
ARC
  5
998D
  8
0
 10
4514.2819883948568531
 20
251.3186529899959964
 30
0.0
 40
0.5497275707409074
 50
263.5644842381660737
 51
270.0551326505204202
  0
ARC
  5
998E
  8
0
 10
4514.2797014269899591
 20
250.8241336989966044
 30
0.0
 40
0.4855697945027714
 50
89.6677255336825141
 51
114.5118427550742979
  0
ARC
  5
998F
  8
0
 10
4514.2148650569033634
 20
250.9663262355311986
 30
0.0
 40
0.3292928853569994
 50
114.5118427550742979
 51
140.8690623593296891
  0
ARC
  5
9990
  8
0
 10
4514.1139799469856371
 20
251.0484038317098054
 30
0.0
 40
0.1992369850781598
 50
140.8690623593296891
 51
162.4115546736344982
  0
ARC
  5
9991
  8
0
 10
4514.1243218852614518
 20
251.0451254709981015
 30
0.0
 40
0.2100861019183622
 50
162.4115546736344982
 51
178.538821808402389
  0
ARC
  5
9992
  8
0
 10
4514.094321300248339
 20
251.045890722935809
 30
0.0
 40
0.1800757585078082
 50
178.5388218084040091
 51
215.0456940439707978
  0
ARC
  5
9993
  8
0
 10
4514.1872743199819524
 20
251.1013165232708957
 30
0.0
 40
0.2881140791134045
 50
213.4546538597263066
 51
238.1623149350712936
  0
ARC
  5
9994
  8
0
 10
4514.2844659376123673
 20
251.2340337208690073
 30
0.0
 40
0.4523078159248887
 50
236.571274750798608
 51
258.9274339004044805
  0
ARC
  5
9995
  8
0
 10
4514.278408904099706
 20
251.2030823252343055
 30
0.0
 40
0.4207693228302084
 50
258.9274339004044805
 51
270.5594547280269921
  0
LINE
  5
9996
  8
0
 10
4513.9143040965827822
 20
251.0504825838563931
 30
0.0
 11
4513.9144073994311839
 21
251.1109609261179116
 31
0.0
  0
ARC
  5
9997
  8
0
 10
4514.1007998612576557
 20
251.1106425497966086
 30
0.0
 40
0.1863927337350059
 50
161.8679756525177993
 51
179.9021333717545872
  0
ARC
  5
9998
  8
0
 10
4514.2812844646086887
 20
250.8208197686489882
 30
0.0
 40
0.4763496728299427
 50
89.8517050636672963
 51
107.5988489449019028
  0
ARC
  5
9999
  8
0
 10
4514.2525189095085807
 20
250.9115066089842117
 30
0.0
 40
0.381209985158241
 50
107.5988489449019028
 51
126.9903080232005976
  0
ARC
  5
999A
  8
0
 10
4514.1710008439240482
 20
251.0197228173744861
 30
0.0
 40
0.2457258799097794
 50
126.9903080232005976
 51
156.079611142976006
  0
ARC
  5
999B
  8
0
 10
4514.1022134841923616
 20
251.050234469045904
 30
0.0
 40
0.1704752204659901
 50
156.079611142976006
 51
194.3057918194338924
  0
ARC
  5
999C
  8
0
 10
4514.1656480531246416
 20
251.0664105670842048
 30
0.0
 40
0.2359397962569671
 50
194.3057918194338924
 51
216.846923780144607
  0
ARC
  5
999D
  8
0
 10
4514.2802858985987768
 20
250.8098554326655858
 30
0.0
 40
0.4436119533490783
 50
89.7117879223469856
 51
111.2409892708589041
  0
ARC
  5
999E
  8
0
 10
4514.2348519115694216
 20
250.926743152447699
 30
0.0
 40
0.3182046720086317
 50
111.2409892708589041
 51
141.4202239457239898
  0
ARC
  5
999F
  8
0
 10
4514.1121380331505861
 20
251.0246334566080009
 30
0.0
 40
0.1612294905145573
 50
141.4202239457239898
 51
168.8823241819972907
  0
ARC
  5
99A0
  8
0
 10
4514.1403933794663317
 20
251.0190809251755013
 30
0.0
 40
0.1900252402130901
 50
168.8823241819972907
 51
196.4969310329155974
  0
ARC
  5
99A1
  8
0
 10
4514.1037772755507831
 20
251.0082368744068901
 30
0.0
 40
0.1518371202931743
 50
196.496931032914091
 51
213.2785330940226061
  0
ARC
  5
99A2
  8
0
 10
4514.2118310971936808
 20
251.0791570300748958
 30
0.0
 40
0.2810860926360991
 50
213.2785330940226061
 51
232.1024796001678112
  0
ARC
  5
99A3
  8
0
 10
4514.2659768387620716
 20
251.148716507945295
 30
0.0
 40
0.3692352973491017
 50
232.1024796001678112
 51
237.8972935874446932
  0
ARC
  5
99A4
  8
0
 10
4514.2823070709937383
 20
250.7936864712314105
 30
0.0
 40
0.4532253577342044
 50
89.9734146911870312
 51
101.4593668038680931
  0
ARC
  5
99A5
  8
0
 10
4514.2729670902635917
 20
250.8397611716731035
 30
0.0
 40
0.4062135160257566
 50
101.4593668038680931
 51
114.1260447669935019
  0
ARC
  5
99A6
  8
0
 10
4514.2380395678228524
 20
250.9177474996589865
 30
0.0
 40
0.3207629503366025
 50
114.1260447669935019
 51
127.1078582764955058
  0
ARC
  5
99A7
  8
0
 10
4514.1935580011959246
 20
250.9765459097388032
 30
0.0
 40
0.2470346464266353
 50
127.1078582764955058
 51
148.3961679432711946
  0
ARC
  5
99A8
  8
0
 10
4514.1236384756075495
 20
251.0195671353930891
 30
0.0
 40
0.164939787176041
 50
148.3961679432711946
 51
180.0895710036116952
  0
ARC
  5
99A9
  8
0
 10
4514.1273139571967477
 20
251.0195728813110065
 30
0.0
 40
0.16861527325663
 50
180.0895710036116952
 51
210.2351105052781861
  0
ARC
  5
99AA
  8
0
 10
4514.1925581822588356
 20
251.0575994707045027
 30
0.0
 40
0.2441323600964819
 50
210.2351105052781861
 51
240.5166937551364867
  0
ARC
  5
99AB
  8
0
 10
4514.264884991863255
 20
251.1706499843128029
 30
0.0
 40
0.3782106667418144
 50
239.4076507934360052
 51
257.6569983553051202
  0
ARC
  5
99AC
  8
0
 10
4514.2820793950168081
 20
251.2388840929658045
 30
0.0
 40
0.4485485594329532
 50
257.3745740728238047
 51
270.0559449176732869
  0
ARC
  5
99AD
  8
0
 10
4514.2816513558036604
 20
250.8602316861847896
 30
0.0
 40
0.348261691673005
 50
89.8575240949794107
 51
109.0268963080108051
  0
ARC
  5
99AE
  8
0
 10
4514.253634647697254
 20
250.9414742030957086
 30
0.0
 40
0.2623240253839152
 50
109.0268963066284016
 51
134.2183729025462071
  0
ARC
  5
99AF
  8
0
 10
4514.1705037620422445
 20
251.0245625789418114
 30
0.0
 40
0.144809817588527
 50
133.5720798019166864
 51
172.7886384373910005
  0
ARC
  5
99B0
  8
0
 10
4514.1624908356416199
 20
251.0272449727443984
 30
0.0
 40
0.1365335887670725
 50
173.4833010996721043
 51
212.0487683222262945
  0
ARC
  5
99B1
  8
0
 10
4514.2132075512863594
 20
251.0589257191805075
 30
0.0
 40
0.1963320205874359
 50
212.0312974342242001
 51
236.4107805429993903
  0
ARC
  5
99B2
  8
0
 10
4514.2647446271012086
 20
251.1350490593372058
 30
0.0
 40
0.2882579570603876
 50
236.2482679023115963
 51
256.1923474223951871
  0
ARC
  5
99B3
  8
0
 10
4514.2820420578946141
 20
251.1966863541017858
 30
0.0
 40
0.3522485249466833
 50
255.8528756613513053
 51
270.0773126756267857
  0
ARC
  5
99B4
  8
0
 10
4514.2821258145377215
 20
250.8558787900016966
 30
0.0
 40
0.3459408136230593
 50
89.9351496861421253
 51
101.5289814229987968
  0
ARC
  5
99B5
  8
0
 10
4514.2754916683807096
 20
250.8884024444230931
 30
0.0
 40
0.3127474409083997
 50
101.5289814229987968
 51
114.9685850033928034
  0
ARC
  5
99B6
  8
0
 10
4514.2431954216872327
 20
250.9577612304823049
 30
0.0
 40
0.2362380378649254
 50
114.9685850033928034
 51
132.0559821377460139
  0
ARC
  5
99B7
  8
0
 10
4514.197544318511973
 20
251.008362402693507
 30
0.0
 40
0.1680874556938397
 50
132.0559821377460139
 51
153.8209665689273038
  0
ARC
  5
99B8
  8
0
 10
4514.1600617301410239
 20
251.0267890885249926
 30
0.0
 40
0.1263203971225452
 50
153.8209665689273038
 51
176.188102728578798
  0
ARC
  5
99B9
  8
0
 10
4514.1606303921362269
 20
251.0267511994335905
 30
0.0
 40
0.1268903199664683
 50
176.188102728578798
 51
207.7782362148770119
  0
ARC
  5
99BA
  8
0
 10
4514.2080212643495543
 20
251.0517145709690112
 30
0.0
 40
0.1804539707707723
 50
207.7782362148770119
 51
237.9386853890462135
  0
ARC
  5
99BB
  8
0
 10
4514.2796423783092905
 20
251.1660598418040138
 30
0.0
 40
0.3153777452776023
 50
237.9386853890462135
 51
252.9098181090371895
  0
ARC
  5
99BC
  8
0
 10
4514.2731349145587956
 20
251.1448940956767046
 30
0.0
 40
0.2932342158934211
 50
252.9098181090371895
 51
266.1084173091296066
  0
ARC
  5
99BD
  8
0
 10
4514.2912300243287973
 20
251.4108986269980051
 30
0.0
 40
0.5598535019194307
 50
266.1084173091296066
 51
269.1083049731980168
  0
ARC
  5
99BE
  8
0
 10
4514.2806154203972255
 20
250.9235886408017961
 30
0.0
 40
0.2262779255929183
 50
89.5184026097912948
 51
115.1177847708025013
  0
ARC
  5
99BF
  8
0
 10
4514.249461398459971
 20
250.9900416514252015
 30
0.0
 40
0.1528846309141625
 50
115.1177847708025013
 51
144.4597098092870908
  0
ARC
  5
99C0
  8
0
 10
4514.1950910997693427
 20
251.0288813229963125
 30
0.0
 40
0.0860665984123189
 50
144.4597098092885119
 51
173.4024904700511911
  0
ARC
  5
99C1
  8
0
 10
4514.2046333700445757
 20
251.0277776649793111
 30
0.0
 40
0.0956724811426723
 50
173.4024904700511911
 51
209.6772880135362129
  0
ARC
  5
99C2
  8
0
 10
4514.2305228320929018
 20
251.0425311550673939
 30
0.0
 40
0.1254706306652029
 50
209.6772880135362129
 51
240.2151090396473023
  0
ARC
  5
99C3
  8
0
 10
4514.2912035282915895
 20
251.1485504417485117
 30
0.0
 40
0.2476272352326148
 50
240.2151090396473023
 51
253.5046530008436036
  0
ARC
  5
99C4
  8
0
 10
4514.282148432647773
 20
251.1404016697757982
 30
0.0
 40
0.2373282295212234
 50
255.0423622135988069
 51
270.0890684259820773
  0
ARC
  5
99C5
  8
0
 10
4514.2814006893659098
 20
250.9203031404798878
 30
0.0
 40
0.222883448801486
 50
89.712938553582191
 51
106.3800753617551038
  0
ARC
  5
99C6
  8
0
 10
4514.2732915539827445
 20
250.9478910354625896
 30
0.0
 40
0.1941284487801874
 50
106.3800753617551038
 51
121.9506530027886981
  0
ARC
  5
99C7
  8
0
 10
4514.2380199003582675
 20
251.0044458093782964
 30
0.0
 40
0.1274761269739657
 50
121.9506530027886981
 51
151.933685888203911
  0
ARC
  5
99C8
  8
0
 10
4514.1925546137981655
 20
251.0286876710374031
 30
0.0
 40
0.0759517624600335
 50
151.9336858881779904
 51
182.8786226386590101
  0
ARC
  5
99C9
  8
0
 10
4514.2118247458356564
 20
251.029656645710503
 30
0.0
 40
0.0952462409616253
 50
182.8786226386590101
 51
219.5784643081892114
  0
ARC
  5
99CA
  8
0
 10
4514.2472240606057312
 20
251.0589191011954995
 30
0.0
 40
0.1411744761456796
 50
219.5784643081892114
 51
243.1404983475605093
  0
ARC
  5
99CB
  8
0
 10
4514.280744690226129
 20
251.1251077815452106
 30
0.0
 40
0.2153672926212631
 50
243.1404983475605093
 51
257.2623155546858129
  0
ARC
  5
99CC
  8
0
 10
4514.2807386798713196
 20
251.125081193048203
 30
0.0
 40
0.2153400332642735
 50
257.2623155546858129
 51
270.4732630758620076
  0
ARC
  5
99CD
  8
0
 10
4514.2807417692929448
 20
250.9775333943906901
 30
0.0
 40
0.1138144836993446
 50
89.1061028375893187
 51
120.580197950861205
  0
ARC
  5
99CE
  8
0
 10
4514.2585033529048815
 20
251.0151661812114128
 30
0.0
 40
0.0701020849171842
 50
120.580197950861205
 51
149.999962940948194
  0
ARC
  5
99CF
  8
0
 10
4514.2376095937979699
 20
251.0272292166756927
 30
0.0
 40
0.045976041016961
 50
149.999962940948194
 51
195.2502859891204139
  0
ARC
  5
99D0
  8
0
 10
4514.2500947155585891
 20
251.0306331185011004
 30
0.0
 40
0.0589168606591646
 50
195.2502859891220055
 51
234.491632076755991
  0
ARC
  5
99D1
  8
0
 10
4514.2812220485948274
 20
251.0742585515139922
 30
0.0
 40
0.1125087375399474
 50
234.491632076755991
 51
257.1868410772510174
  0
ARC
  5
99D2
  8
0
 10
4514.2824080721266
 20
251.0861818809115107
 30
0.0
 40
0.1244070812842208
 50
257.8720539517207158
 51
270.0503363452236272
  0
ARC
  5
99D3
  8
0
 10
4514.2822267083229235
 20
250.9702888389151951
 30
0.0
 40
0.1143246824856504
 50
89.8543307087586953
 51
107.1717500406516024
  0
ARC
  5
99D4
  8
0
 10
4514.2753113275575743
 20
250.9926678796805959
 30
0.0
 40
0.0909015324690076
 50
107.1717500406516024
 51
127.7633332861144027
  0
ARC
  5
99D5
  8
0
 10
4514.2535959453025498
 20
251.020700206029403
 30
0.0
 40
0.0554421310785131
 50
127.7633332861144027
 51
155.9572462583518018
  0
ARC
  5
99D6
  8
0
 10
4514.2391198407167394
 20
251.0271583305828926
 30
0.0
 40
0.0395907911751575
 50
155.9572462583518018
 51
193.745396440475588
  0
ARC
  5
99D7
  8
0
 10
4514.2556067054401865
 20
251.0328889348961923
 30
0.0
 40
0.0569909915018522
 50
195.4035252045254936
 51
239.4200406996772017
  0
ARC
  5
99D8
  8
0
 10
4514.2790679645522687
 20
251.0679139922858099
 30
0.0
 40
0.0991090245321565
 50
238.0442360836707962
 51
262.4428441758386157
  0
ARC
  5
99D9
  8
0
 10
4514.2824805393593124
 20
251.0846674519193868
 30
0.0
 40
0.116171760539025
 50
261.8610568203741877
 51
270.0181638841339122
  0
LINE
  5
99DA
  8
0
 10
4514.2785803601791486
 20
251.2468965069982119
 30
0.0
 11
4514.2785803602573651
 21
251.2224405653913948
 31
0.0
  0
ARC
  5
99DB
  8
0
 10
4514.2807029225823499
 20
251.2224405653981876
 30
0.0
 40
0.0021225623251029
 50
180.0000001841509061
 51
234.5968619724467885
  0
ARC
  5
99DC
  8
0
 10
4514.2825886712771535
 20
251.2250937638332005
 30
0.0
 40
0.0053776368364801
 50
234.596861972447698
 51
256.4156180739336719
  0
ARC
  5
99DD
  8
0
 10
4514.282519429896638
 20
251.2254813862182914
 30
0.0
 40
0.0057403367322104
 50
257.996330773835723
 51
269.9794204919078879
  0
LINE
  5
99DE
  8
0
 10
4514.2785803601345833
 20
251.2018014349430928
 30
0.0
 11
4514.2785803602573651
 21
251.1637656838913983
 31
0.0
  0
ARC
  5
99DF
  8
0
 10
4514.2807029225823499
 20
251.1637656838981911
 30
0.0
 40
0.0021225623251029
 50
180.0000001841509061
 51
234.5968619724467885
  0
ARC
  5
99E0
  8
0
 10
4514.2825886712771535
 20
251.166418882333204
 30
0.0
 40
0.0053776368364801
 50
234.596861972447698
 51
256.4156180739336719
  0
ARC
  5
99E1
  8
0
 10
4514.282519429896638
 20
251.1668065047182949
 30
0.0
 40
0.0057403367322104
 50
257.996330773835723
 51
269.9794204919078879
  0
LINE
  5
99E2
  8
0
 10
4514.2185626050413703
 20
251.1959299110534971
 30
0.0
 11
4514.2328958859816339
 21
251.1581054132564077
 31
0.0
  0
ARC
  5
99E3
  8
0
 10
4514.2346501074471234
 20
251.1587701609873022
 30
0.0
 40
0.0018759484246351
 50
200.7537892370577879
 51
249.5255684413990878
  0
ARC
  5
99E4
  8
0
 10
4514.2355675287808481
 20
251.1612272578971101
 30
0.0
 40
0.0044987307500538
 50
249.5255684413990878
 51
271.628320765920023
  0
ARC
  5
99E5
  8
0
 10
4514.2355334961066546
 20
251.1624244443576117
 30
0.0
 40
0.0056964008399161
 50
271.628320765920023
 51
300.701456426490779
  0
ARC
  5
99E6
  8
0
 10
4514.2358337250625482
 20
251.1619188304441934
 30
0.0
 40
0.0051083678002457
 50
300.7014564264899832
 51
324.6434199365669997
  0
ARC
  5
99E7
  8
0
 10
4514.2382987120236066
 20
251.1601698653257984
 30
0.0
 40
0.0020859449801404
 50
324.6434199365669997
 51
1.106572059849928
  0
LINE
  5
99E8
  8
0
 10
4514.2403842679832451
 20
251.1602101493564021
 30
0.0
 11
4514.2403842708081356
 21
251.199292083362792
 31
0.0
  0
LINE
  5
99E9
  8
0
 10
4514.2263329969928236
 20
251.1972908695192928
 30
0.0
 11
4514.2403842679832451
 21
251.1602101493564021
 31
0.0
  0
LINE
  5
99EA
  8
0
 10
4514.2019637488056105
 20
251.2397337506459962
 30
0.0
 11
4514.2114193911238544
 21
251.2147809904597011
 31
0.0
  0
ARC
  5
99EB
  8
0
 10
4514.2131736125884345
 20
251.2154457381905956
 30
0.0
 40
0.0018759484246351
 50
200.7537892370577879
 51
249.5255684413990878
  0
ARC
  5
99EC
  8
0
 10
4514.2140910339212496
 20
251.2179028351004035
 30
0.0
 40
0.0044987307500538
 50
249.5255684413990878
 51
271.628320765920023
  0
ARC
  5
99ED
  8
0
 10
4514.2140570012470562
 20
251.2191000215609051
 30
0.0
 40
0.0056964008399161
 50
271.628320765920023
 51
300.701456426490779
  0
ARC
  5
99EE
  8
0
 10
4514.2143572302038592
 20
251.2185944076474868
 30
0.0
 40
0.0051083678002457
 50
300.7014564264899832
 51
324.6434199365669997
  0
ARC
  5
99EF
  8
0
 10
4514.2168222171640082
 20
251.2168454425290918
 30
0.0
 40
0.0020859449801404
 50
324.6434199365669997
 51
1.106572059849928
  0
LINE
  5
99F0
  8
0
 10
4514.2189077731227371
 20
251.2168857265596955
 30
0.0
 11
4514.2189077749717399
 21
251.242455625872509
 31
0.0
  0
LINE
  5
99F1
  8
0
 10
4514.2097451540639668
 20
251.2410654974551107
 30
0.0
 11
4514.2189077731227371
 21
251.2168857265596955
 31
0.0
  0
LINE
  5
99F2
  8
0
 10
4514.1618958424360244
 20
251.179790416245595
 30
0.0
 11
4514.1902480279231895
 21
251.1448259267361038
 31
0.0
  0
ARC
  5
99F3
  8
0
 10
4514.1918398605412222
 20
251.1458185250480994
 30
0.0
 40
0.0018759484246351
 50
211.9458893915794988
 51
260.7176685959080942
  0
ARC
  5
99F4
  8
0
 10
4514.1922629139962737
 20
251.1484069633611114
 30
0.0
 40
0.0044987307500538
 50
260.7176685959080942
 51
282.8204209204379254
  0
ARC
  5
99F5
  8
0
 10
4514.1919971557481404
 20
251.1495747759304891
 30
0.0
 40
0.0056964008399161
 50
282.8204209204379254
 51
311.8935565810447201
  0
ARC
  5
99F6
  8
0
 10
4514.1923898141321843
 20
251.149137051988788
 30
0.0
 40
0.0051083678002457
 50
311.8935565810435833
 51
335.8355200910982035
  0
ARC
  5
99F7
  8
0
 10
4514.1951473943408928
 20
251.1478998005603103
 30
0.0
 40
0.0020859449801404
 50
335.8355200910982035
 51
12.2986722143809608
  0
LINE
  5
99F8
  8
0
 10
4514.1971854679868557
 20
251.1474554783009978
 30
0.0
 11
4514.1971854661123871
 21
251.1911880129050019
 31
0.0
  0
LINE
  5
99F9
  8
0
 10
4514.1692540589756391
 20
251.1825529707577118
 30
0.0
 11
4514.1971854679486569
 21
251.1483441229945015
 31
0.0
  0
LINE
  5
99FA
  8
0
 10
4514.1292478739796934
 20
251.219700913570108
 30
0.0
 11
4514.1487586254233975
 21
251.1956398596362021
 31
0.0
  0
ARC
  5
99FB
  8
0
 10
4514.1503504580414301
 20
251.1966324579481125
 30
0.0
 40
0.0018759484246351
 50
211.9458893915794988
 51
260.7176685959080942
  0
ARC
  5
99FC
  8
0
 10
4514.1507735114955722
 20
251.1992208962610107
 30
0.0
 40
0.0044987307500538
 50
260.7176685959080942
 51
282.8204209204379254
  0
ARC
  5
99FD
  8
0
 10
4514.1505077532492578
 20
251.2003887088305021
 30
0.0
 40
0.0056964008399161
 50
282.8204209204379254
 51
311.8935565810447201
  0
ARC
  5
99FE
  8
0
 10
4514.1509004116323922
 20
251.199950984888801
 30
0.0
 40
0.0051083678002457
 50
311.8935565810435833
 51
335.8355200910982035
  0
ARC
  5
99FF
  8
0
 10
4514.1536579918392817
 20
251.1987137334602949
 30
0.0
 40
0.0020859449801404
 50
335.8355200910982035
 51
12.2986722143809608
  0
LINE
  5
9A00
  8
0
 10
4514.1556960654488648
 20
251.1991580558944861
 30
0.0
 11
4514.1556960641819387
 21
251.2286788069685031
 31
0.0
  0
LINE
  5
9A01
  8
0
 10
4514.1366914629998064
 20
251.222433843830089
 30
0.0
 11
4514.1556960654488648
 21
251.1991580558944861
 31
0.0
  0
LINE
  5
9A02
  8
0
 10
4514.1119098288581881
 20
251.1541600686906008
 30
0.0
 11
4514.154300924727977
 21
251.1236864026018054
 31
0.0
  0
ARC
  5
9A03
  8
0
 10
4514.1551103998563121
 20
251.1253787183252939
 30
0.0
 40
0.0018759484246351
 50
224.1404943520130928
 51
272.9122735563573201
  0
ARC
  5
9A04
  8
0
 10
4514.1549771444742873
 20
251.1279981133183128
 30
0.0
 40
0.0044987307500538
 50
272.9122735563573201
 51
295.0150258808902777
  0
ARC
  5
9A05
  8
0
 10
4514.154470702576873
 20
251.1290834382695039
 30
0.0
 40
0.0056964008399161
 50
295.0150258808902777
 51
324.0881615414630232
  0
ARC
  5
9A06
  8
0
 10
4514.1549469625706479
 20
251.1287385335378985
 30
0.0
 40
0.0051083678002457
 50
324.0881615414616022
 51
348.0301250515267952
  0
ARC
  5
9A07
  8
0
 10
4514.1579036681905563
 20
251.1281116909929096
 30
0.0
 40
0.0020859449801404
 50
348.0301250515267952
 51
24.4932771748073606
  0
LINE
  5
9A08
  8
0
 10
4514.1598018988215699
 20
251.1289764955569979
 30
0.0
 11
4514.1598018877502909
 21
251.1789654091184048
 31
0.0
  0
LINE
  5
9A09
  8
0
 10
4514.1183288446609367
 20
251.1583023695934003
 30
0.0
 11
4514.1598018988215699
 21
251.1289764955569979
 31
0.0
  0
LINE
  5
9A0A
  8
0
 10
4514.0645289016711104
 20
251.1875305959424054
 30
0.0
 11
4514.095089274667771
 21
251.1655616757450957
 31
0.0
  0
ARC
  5
9A0B
  8
0
 10
4514.0964355195555981
 20
251.166868124057487
 30
0.0
 40
0.0018759484246351
 50
224.1404943520130928
 51
272.9122735563573201
  0
ARC
  5
9A0C
  8
0
 10
4514.0963022641735733
 20
251.1694875190505911
 30
0.0
 40
0.0044987307500538
 50
272.9122735563573201
 51
295.0150258808902777
  0
ARC
  5
9A0D
  8
0
 10
4514.0957958222770685
 20
251.1705728440016969
 30
0.0
 40
0.0056964008399161
 50
295.0150258808902777
 51
324.0881615414630232
  0
ARC
  5
9A0E
  8
0
 10
4514.0962720822699339
 20
251.1702279392700916
 30
0.0
 40
0.0051083678002457
 50
324.0881615414616022
 51
348.0301250515267952
  0
ARC
  5
9A0F
  8
0
 10
4514.0992287878907518
 20
251.169601096725188
 30
0.0
 40
0.0020859449801404
 50
348.0301250515267952
 51
24.4932771748073606
  0
LINE
  5
9A10
  8
0
 10
4514.1011270185217654
 20
251.1704659012891909
 30
0.0
 11
4514.1011270102480921
 21
251.2078230447966121
 31
0.0
  0
LINE
  5
9A11
  8
0
 10
4514.0711401237813334
 20
251.1916698351614912
 30
0.0
 11
4514.1011270185217654
 21
251.1704659012891909
 31
0.0
  0
LINE
  5
9A12
  8
0
 10
4514.071966216311921
 20
251.1200921346793962
 30
0.0
 11
4514.1259184665868816
 21
251.0973559180393124
 31
0.0
  0
ARC
  5
9A13
  8
0
 10
4514.1269576361919462
 20
251.098917746782206
 30
0.0
 40
0.0018759484246351
 50
236.362017291984813
 51
285.1337964962766023
  0
ARC
  5
9A14
  8
0
 10
4514.1262728960318782
 20
251.1014495678736864
 30
0.0
 40
0.0044987307500538
 50
285.1337964962766023
 51
307.2365488208073998
  0
ARC
  5
9A15
  8
0
 10
4514.125548177363271
 20
251.1024030858301899
 30
0.0
 40
0.0056964008399161
 50
307.2365488208093893
 51
336.3096844814036217
  0
ARC
  5
9A16
  8
0
 10
4514.1260866571637962
 20
251.1021668182710016
 30
0.0
 40
0.0051083678002457
 50
336.3096844814020869
 51
0.2516479914738443
  0
ARC
  5
9A17
  8
0
 10
4514.1291090508320849
 20
251.1021800929692915
 30
0.0
 40
0.0020859449801404
 50
0.2516479914738443
 51
36.7148001147540626
  0
LINE
  5
9A18
  8
0
 10
4514.1307811886426862
 20
251.1034271381174108
 30
0.0
 11
4514.1307811672668322
 21
251.1405940389959994
 31
0.0
  0
LINE
  5
9A19
  8
0
 10
4514.0769150948390234
 20
251.1254178731234106
 30
0.0
 11
4514.1307811886426862
 21
251.1034271381174108
 31
0.0
  0
LINE
  5
9A1A
  8
0
 10
4514.0122335162259333
 20
251.1443182187933019
 30
0.0
 11
4514.0540566991903688
 21
251.1266933571131119
 31
0.0
  0
ARC
  5
9A1B
  8
0
 10
4514.0550958687954335
 20
251.1282551858560055
 30
0.0
 40
0.0018759484246351
 50
236.362017291984813
 51
285.1337964962766023
  0
ARC
  5
9A1C
  8
0
 10
4514.0544111286335465
 20
251.1307870069474859
 30
0.0
 40
0.0044987307500538
 50
285.1337964962766023
 51
307.2365488208073998
  0
ARC
  5
9A1D
  8
0
 10
4514.0536864099640297
 20
251.1317405249039894
 30
0.0
 40
0.0056964008399161
 50
307.2365488208093893
 51
336.3096844814036217
  0
ARC
  5
9A1E
  8
0
 10
4514.054224889764555
 20
251.1315042573448011
 30
0.0
 40
0.0051083678002457
 50
336.3096844814020869
 51
0.2516479914738443
  0
ARC
  5
9A1F
  8
0
 10
4514.0572472834328437
 20
251.131517532043091
 30
0.0
 40
0.0020859449801404
 50
0.2516479914738443
 51
36.7148001147540626
  0
LINE
  5
9A20
  8
0
 10
4514.0589194212452639
 20
251.1327645771912103
 30
0.0
 11
4514.0589193918713136
 21
251.1838392749465925
 31
0.0
  0
LINE
  5
9A21
  8
0
 10
4514.0173858044736335
 20
251.1497206008370995
 30
0.0
 11
4514.0589194212452639
 21
251.1327645771912103
 31
0.0
  0
LINE
  5
9A22
  8
0
 10
4514.0345489543260555
 20
251.0410504291563996
 30
0.0
 11
4514.1050344566820058
 21
251.0410504291563996
 31
0.0
  0
ARC
  5
9A23
  8
0
 10
4514.1050344566820058
 20
251.0452879644990958
 30
0.0
 40
0.0042375353427051
 50
270.0
 51
338.1511840070552921
  0
LINE
  5
9A24
  8
0
 10
4514.108967605982798
 20
251.0437109285564077
 30
0.0
 11
4514.108967605982798
 21
251.0671417394615901
 31
0.0
  0
LINE
  5
9A25
  8
0
 10
4514.033964673653827
 20
251.0342976596874962
 30
0.0
 11
4514.1049471638816613
 21
251.0343296912564028
 31
0.0
  0
ARC
  5
9A26
  8
0
 10
4514.1049490583163788
 20
251.0301315934324009
 30
0.0
 40
0.0041980982514726
 50
14.1089091080280795
 51
90.025855300012779
  0
LINE
  5
9A27
  8
0
 10
4514.0451170134028871
 20
251.0343026922940055
 30
0.0
 11
4514.0451305239830617
 21
250.9961712593564016
 31
0.0
  0
ARC
  5
9A28
  8
0
 10
4514.0611309031091878
 20
250.9961769285474986
 30
0.0
 40
0.016000380130284
 50
180.0203008134816969
 51
194.0731497659542129
  0
ARC
  5
9A29
  8
0
 10
4514.0643625477414389
 20
250.9969870517832931
 30
0.0
 40
0.0193320203695035
 50
194.0731497659527065
 51
201.0571984698603956
  0
ARC
  5
9A2A
  8
0
 10
4514.0469876883053075
 20
250.9902975592812027
 30
0.0
 40
0.0007138826995124
 50
201.0571984698466963
 51
256.6896994364751095
  0
LINE
  5
9A2B
  8
0
 10
4514.0468233348819922
 20
250.9896028532564003
 30
0.0
 11
4514.1124867329835979
 21
251.0020440114037967
 31
0.0
  0
LINE
  5
9A2C
  8
0
 10
4514.0686272281827769
 20
250.9937340083994002
 30
0.0
 11
4514.0686272281827769
 21
250.9541608136563866
 31
0.0
  0
ARC
  5
9A2D
  8
0
 10
4514.0759015802223075
 20
250.9541608186804069
 30
0.0
 40
0.0072743520391176
 50
180.000039571244514
 51
202.2748209822991896
  0
ARC
  5
9A2E
  8
0
 10
4514.0869668501200067
 20
250.9586933414142891
 30
0.0
 40
0.019231942108014
 50
202.2748332151043087
 51
208.5681721624582963
  0
ARC
  5
9A2F
  8
0
 10
4514.0732187666990285
 20
250.9512075472827064
 30
0.0
 40
0.0035779678030196
 50
208.5681721624640943
 51
232.3098432690640038
  0
ARC
  5
9A30
  8
0
 10
4514.0719012210820438
 20
250.9495022370479944
 30
0.0
 40
0.0014229714113237
 50
232.3098432690649986
 51
275.4649960387624787
  0
LINE
  5
9A31
  8
0
 10
4514.0720367414842258
 20
250.9480857336563986
 30
0.0
 11
4514.127599956335871
 21
250.9707693211636865
 31
0.0
  0
LINE
  5
9A32
  8
0
 10
4514.1237348986860525
 20
250.9766584259766944
 30
0.0
 11
4514.0686272281827769
 21
250.9541608136563866
 31
0.0
  0
LINE
  5
9A33
  8
0
 10
4514.110896188206425
 20
251.0086317936520004
 30
0.0
 11
4514.0451305239830617
 21
250.9961712593564016
 31
0.0
  0
LINE
  5
9A34
  8
0
 10
4513.9601037652637388
 20
251.0410504290551899
 30
0.0
 11
4514.0220545790998585
 21
251.0410504290551899
 31
0.0
  0
ARC
  5
9A35
  8
0
 10
4514.0220545790998585
 20
251.0452879643978861
 30
0.0
 40
0.0042375353427051
 50
270.0
 51
338.1511840070552921
  0
LINE
  5
9A36
  8
0
 10
4514.0259877283988317
 20
251.043710928455198
 30
0.0
 11
4514.0259877283988317
 21
251.0828633489346942
 31
0.0
  0
LINE
  5
9A37
  8
0
 10
4513.9593581246326721
 20
251.0343014381357989
 30
0.0
 11
4514.0219672862986044
 21
251.0343296911551931
 31
0.0
  0
ARC
  5
9A38
  8
0
 10
4514.0219691807342315
 20
251.0301315933311059
 30
0.0
 40
0.0041980982514726
 50
14.1089091080280795
 51
90.025855300012779
  0
LINE
  5
9A39
  8
0
 10
4514.0451429736258433
 20
251.0792345090127071
 30
0.0
 11
4514.1102677173830671
 21
251.0668954090564
 31
0.0
  0
ARC
  5
9A3A
  8
0
 10
4514.1032734795071519
 20
251.0715225097711141
 30
0.0
 40
0.0083862640363926
 50
326.5130143581612856
 51
348.6347717856154986
  0
ARC
  5
9A3B
  8
0
 10
4514.0283980487929512
 20
251.0858132406146979
 30
0.0
 40
0.0846129008236909
 50
349.1390048547207243
 51
351.5896795360064857
  0
LINE
  5
9A3C
  8
0
 10
4514.1121010227816441
 20
251.0734376545179032
 30
0.0
 11
4514.1121010227816441
 21
251.1031787779598119
 31
0.0
  0
LINE
  5
9A3D
  8
0
 10
4514.0482225540081345
 20
251.08554014175769
 30
0.0
 11
4514.1121010227816441
 21
251.0734376545179032
 31
0.0
  0
LINE
  5
9A3E
  8
0
 10
4513.9756506001858725
 20
251.0924006587300141
 30
0.0
 11
4514.0301163368831112
 21
251.0820811068894045
 31
0.0
  0
ARC
  5
9A3F
  8
0
 10
4514.0231220990071961
 20
251.0867082076042038
 30
0.0
 40
0.0083862640363926
 50
326.5130143581612856
 51
348.6347717856154986
  0
ARC
  5
9A40
  8
0
 10
4513.9482466682939048
 20
251.1009989384477024
 30
0.0
 40
0.0846129008236909
 50
349.1390048547207243
 51
351.5896795360064857
  0
LINE
  5
9A41
  8
0
 10
4514.0319496422825978
 20
251.0886233523509929
 30
0.0
 11
4514.0319496422825978
 21
251.1360095734441131
 31
0.0
  0
LINE
  5
9A42
  8
0
 10
4513.9789063242460543
 20
251.0986729996265012
 30
0.0
 11
4514.0319496422825978
 21
251.0886233523509929
 31
0.0
  0
LINE
  5
9A43
  8
0
 10
4513.9725914589080276
 20
251.0343074098121008
 30
0.0
 11
4513.972609839602228
 21
250.9824308602412088
 31
0.0
  0
ARC
  5
9A44
  8
0
 10
4513.9886102187283541
 20
250.9824365294323059
 30
0.0
 40
0.016000380130284
 50
180.0203008134816969
 51
194.0731497659542129
  0
ARC
  5
9A45
  8
0
 10
4513.9918418633606052
 20
250.9832466526679866
 30
0.0
 40
0.0193320203695035
 50
194.0731497659527065
 51
201.0571984698603956
  0
ARC
  5
9A46
  8
0
 10
4513.9744670039262928
 20
250.9765571601660099
 30
0.0
 40
0.0007138826995124
 50
201.0571984698466963
 51
256.6896994364751095
  0
LINE
  5
9A47
  8
0
 10
4513.974302650502068
 20
250.9758624541412075
 30
0.0
 11
4514.0320821599389092
 21
250.9868098622158925
 31
0.0
  0
LINE
  5
9A48
  8
0
 10
4514.0304553187615966
 20
250.9933907674424063
 30
0.0
 11
4513.972609839602228
 21
250.9824308602412088
 31
0.0
  0
LINE
  5
9A49
  8
0
 10
4514.0036069605121156
 20
250.9814147034273049
 30
0.0
 11
4514.0036069605121156
 21
250.927616400560197
 31
0.0
  0
ARC
  5
9A4A
  8
0
 10
4514.0108813125507368
 20
250.9276164055841889
 30
0.0
 40
0.0072743520391176
 50
180.000039571244514
 51
202.2748209822991896
  0
ARC
  5
9A4B
  8
0
 10
4514.0219465824502549
 20
250.9321489283180995
 30
0.0
 40
0.019231942108014
 50
202.2748332151043087
 51
208.5681721624582963
  0
ARC
  5
9A4C
  8
0
 10
4514.0081984990283672
 20
250.9246631341866021
 30
0.0
 40
0.0035779678030196
 50
208.5681721624640943
 51
232.3098432690640038
  0
ARC
  5
9A4D
  8
0
 10
4514.006880953412292
 20
250.9229578239518048
 30
0.0
 40
0.0014229714113237
 50
232.3098432690649986
 51
275.4649960387624787
  0
LINE
  5
9A4E
  8
0
 10
4514.0070164738117455
 20
250.921541320560209
 30
0.0
 11
4514.0555117480644185
 21
250.9413394333957967
 31
0.0
  0
LINE
  5
9A4F
  8
0
 10
4514.0517237237627342
 20
250.947259986940594
 30
0.0
 11
4514.0036069605121156
 21
250.927616400560197
 31
0.0
  0
LINE
  5
9A50
  8
0
 10
4514.1067001919827817
 20
250.9622370280837913
 30
0.0
 11
4514.1067001919827817
 21
250.9178820345564134
 31
0.0
  0
ARC
  5
9A51
  8
0
 10
4514.1133438291071798
 20
250.918444210486399
 30
0.0
 40
0.0066673799965428
 50
184.8367719954453037
 51
225.2632966519377078
  0
ARC
  5
9A52
  8
0
 10
4514.1112002637519254
 20
250.916085190108987
 30
0.0
 40
0.0034856262762204
 50
222.9989477166043912
 51
277.6769046935852998
  0
LINE
  5
9A53
  8
0
 10
4514.1116658971332072
 20
250.9126308050564091
 30
0.0
 11
4514.1543578381288171
 21
250.9428227158363995
 31
0.0
  0
LINE
  5
9A54
  8
0
 10
4514.1485917962627354
 20
250.9475038720001123
 30
0.0
 11
4514.1067001919827817
 21
250.9178820345564134
 31
0.0
  0
LINE
  5
9A55
  8
0
 10
4514.156745407031849
 20
250.9410433690493107
 30
0.0
 11
4514.1567548057482782
 21
250.8898072609364078
 31
0.0
  0
ARC
  5
9A56
  8
0
 10
4514.1616719315979935
 20
250.8903481040773045
 30
0.0
 40
0.00494678056178
 50
186.2768298804749918
 51
234.1472200986333974
  0
ARC
  5
9A57
  8
0
 10
4514.1617141821780024
 20
250.8897731677658953
 30
0.0
 40
0.0045207747746117
 50
229.4400680253876033
 51
271.3545298107370058
  0
ARC
  5
9A58
  8
0
 10
4514.1617553501755538
 20
250.887173799903195
 30
0.0
 40
0.0019212672414598
 50
271.9596103931178845
 51
318.3364739099251892
  0
LINE
  5
9A59
  8
0
 10
4514.1631906549819178
 20
250.8858966280564005
 30
0.0
 11
4514.1922902014648571
 21
250.9215363421753864
 31
0.0
  0
LINE
  5
9A5A
  8
0
 10
4514.1852670571415729
 20
250.9247274945126946
 30
0.0
 11
4514.1567548057482782
 21
250.8898072609364078
 31
0.0
  0
LINE
  5
9A5B
  8
0
 10
4514.2153760398859959
 20
250.9128187306214102
 30
0.0
 11
4514.2153799303832784
 21
250.87184974238329
 31
0.0
  0
ARC
  5
9A5C
  8
0
 10
4514.2193142365258609
 20
250.8723868449743009
 30
0.0
 40
0.003970798915164
 50
187.7738342514861927
 51
246.9661274883916917
  0
ARC
  5
9A5D
  8
0
 10
4514.219970221796757
 20
250.8728826431251093
 30
0.0
 40
0.0047016237203171
 50
241.9671191153543077
 51
288.6908276777543279
  0
ARC
  5
9A5E
  8
0
 10
4514.2206889386197872
 20
250.8706566543231986
 30
0.0
 40
0.002362932996235
 50
289.4796444900748043
 51
336.949393459807709
  0
LINE
  5
9A5F
  8
0
 10
4514.2228632135829685
 20
250.869731462056393
 30
0.0
 11
4514.2371306025970625
 21
250.9073821780906997
 31
0.0
  0
LINE
  5
9A60
  8
0
 10
4514.2294563255518369
 20
250.9089967640854013
 30
0.0
 11
4514.2153799303832784
 21
250.87184974238329
 31
0.0
  0
LINE
  5
9A61
  8
0
 10
4514.2785803601827865
 20
250.903100263571389
 30
0.0
 11
4514.2785803601827865
 21
250.8652332530564024
 31
0.0
  0
ARC
  5
9A62
  8
0
 10
4514.2813947298218409
 20
250.8654858006449047
 30
0.0
 40
0.0028256781041099
 50
185.1277054224026131
 51
245.3306338605590895
  0
ARC
  5
9A63
  8
0
 10
4514.2825116175081348
 20
250.8673619123279082
 30
0.0
 40
0.0050021060769905
 50
242.673455197559008
 51
270.0658690065528731
  0
LINE
  5
9A64
  8
0
 10
4514.0536113665830271
 20
250.9405636059038898
 30
0.0
 11
4514.0536113665830271
 21
250.880342566056413
 31
0.0
  0
ARC
  5
9A65
  8
0
 10
4514.0602550037074252
 20
250.8809047419865124
 30
0.0
 40
0.0066673799965428
 50
184.8367719954453037
 51
225.2632966519377078
  0
ARC
  5
9A66
  8
0
 10
4514.0581114383512613
 20
250.8785457216089867
 30
0.0
 40
0.0034856262762204
 50
222.9989477166043912
 51
277.6769046935852998
  0
LINE
  5
9A67
  8
0
 10
4514.0585770717316336
 20
250.8750913365564088
 30
0.0
 11
4514.0959043353959714
 21
250.9014893261513919
 31
0.0
  0
LINE
  5
9A68
  8
0
 10
4514.089995084768816
 20
250.9060697398961963
 30
0.0
 11
4514.0536113665830271
 21
250.880342566056413
 31
0.0
  0
LINE
  5
9A69
  8
0
 10
4514.1192075597919029
 20
250.8862286183606898
 30
0.0
 11
4514.11921533718305
 21
250.8438309892563893
 31
0.0
  0
ARC
  5
9A6A
  8
0
 10
4514.1241324630327654
 20
250.8443718323972007
 30
0.0
 40
0.00494678056178
 50
186.2768298804749918
 51
234.1472200986333974
  0
ARC
  5
9A6B
  8
0
 10
4514.1241747136136837
 20
250.8437968960857916
 30
0.0
 40
0.0045207747746117
 50
229.4400680253876033
 51
271.3545298107370058
  0
ARC
  5
9A6C
  8
0
 10
4514.1242158816112351
 20
250.8411975282232049
 30
0.0
 40
0.0019212672414598
 50
271.9596103931178845
 51
318.3364739099251892
  0
LINE
  5
9A6D
  8
0
 10
4514.1256511864166896
 20
250.8399203563764104
 30
0.0
 11
4514.1505258562283416
 21
250.8703856463216937
 31
0.0
  0
LINE
  5
9A6E
  8
0
 10
4514.143474038529348
 20
250.8735417092381113
 30
0.0
 11
4514.11921533718305
 21
250.8438309892563893
 31
0.0
  0
LINE
  5
9A6F
  8
0
 10
4514.1959447901399471
 20
250.8551218683701052
 30
0.0
 11
4514.1959480712648656
 21
250.8205698739483012
 31
0.0
  0
ARC
  5
9A70
  8
0
 10
4514.1998823774092671
 20
250.821106976539312
 30
0.0
 40
0.003970798915164
 50
187.7738342514861927
 51
246.9661274883916917
  0
ARC
  5
9A71
  8
0
 10
4514.2005383626810726
 20
250.8216027746900068
 30
0.0
 40
0.0047016237203171
 50
241.9671191153543077
 51
288.6908276777543279
  0
ARC
  5
9A72
  8
0
 10
4514.2012570795031934
 20
250.8193767858882097
 30
0.0
 40
0.002362932996235
 50
289.4796444900748043
 51
336.949393459807709
  0
LINE
  5
9A73
  8
0
 10
4514.2034313544663746
 20
250.8184515936214041
 30
0.0
 11
4514.2156695739186034
 21
250.8507474625359919
 31
0.0
  0
LINE
  5
9A74
  8
0
 10
4514.2079765537328058
 20
250.8523125391562871
 30
0.0
 11
4514.1959480712648656
 21
250.8205698739483012
 31
0.0
  0
LINE
  5
9A75
  8
0
 10
4514.2785803601827865
 20
250.8444548393617026
 30
0.0
 11
4514.2785803601827865
 21
250.8121444274563885
 31
0.0
  0
ARC
  5
9A76
  8
0
 10
4514.2813947298218409
 20
250.8123969750448907
 30
0.0
 40
0.0028256781041099
 50
185.1277054224026131
 51
245.3306338605590895
  0
ARC
  5
9A77
  8
0
 10
4514.2825116175081348
 20
250.8142730867278942
 30
0.0
 40
0.0050021060769905
 50
242.673455197559008
 51
270.0658690065528731
  0
LINE
  5
9A78
  8
0
 10
4514.1706196051463849
 20
251.1126463860514093
 30
0.0
 11
4514.2125080587684351
 21
251.0825340541466915
 31
0.0
  0
ARC
  5
9A79
  8
0
 10
4514.2138543036562623
 20
251.0838405024589974
 30
0.0
 40
0.0018759484246351
 50
224.1404943520130928
 51
272.9122735563573201
  0
ARC
  5
9A7A
  8
0
 10
4514.2137210482742375
 20
251.0864598974521016
 30
0.0
 40
0.0044987307500538
 50
272.9122735563573201
 51
295.0150258808902777
  0
ARC
  5
9A7B
  8
0
 10
4514.2132146063759137
 20
251.0875452224032074
 30
0.0
 40
0.0056964008399161
 50
295.0150258808902777
 51
324.0881615414630232
  0
ARC
  5
9A7C
  8
0
 10
4514.2136908663705981
 20
251.0872003176716021
 30
0.0
 40
0.0051083678002457
 50
324.0881615414616022
 51
348.0301250515267952
  0
ARC
  5
9A7D
  8
0
 10
4514.216647571991416
 20
251.0865734751266984
 30
0.0
 40
0.0020859449801404
 50
348.0301250515267952
 51
24.4932771748073606
  0
LINE
  5
9A7E
  8
0
 10
4514.2185458026224296
 20
251.0874382796907014
 30
0.0
 11
4514.2185457922778369
 21
251.1341402131816949
 31
0.0
  0
LINE
  5
9A7F
  8
0
 10
4514.1772823664250609
 20
251.1166159314622917
 30
0.0
 11
4514.2185458026224296
 21
251.0874382796907014
 31
0.0
  0
LINE
  5
9A80
  8
0
 10
4514.229308092068095
 20
251.0710693524324881
 30
0.0
 11
4514.2655138893360345
 21
251.0454679889992065
 31
0.0
  0
LINE
  5
9A81
  8
0
 10
4514.236394319234023
 20
251.0748174692614896
 30
0.0
 11
4514.2718594761217901
 21
251.0497398195772973
 31
0.0
  0
LINE
  5
9A82
  8
0
 10
4514.2785803601345833
 20
251.1431687445839884
 30
0.0
 11
4514.2785803602573651
 21
251.1050217689914064
 31
0.0
  0
ARC
  5
9A83
  8
0
 10
4514.2807029225823499
 20
251.1050217689981991
 30
0.0
 40
0.0021225623251029
 50
180.0000001841509061
 51
234.5968619724467885
  0
ARC
  5
9A84
  8
0
 10
4514.2825886712771535
 20
251.107674967433212
 30
0.0
 40
0.0053776368364801
 50
234.596861972447698
 51
269.2402811984068762
  0
LINE
  5
9A85
  8
0
 10
4514.1176157558384148
 20
251.0410504291563996
 30
0.0
 11
4514.1881108921834311
 21
251.0410504291563996
 31
0.0
  0
ARC
  5
9A86
  8
0
 10
4514.1881108921834311
 20
251.0452879644990958
 30
0.0
 40
0.0042375353427051
 50
270.0
 51
338.1511840070552921
  0
LINE
  5
9A87
  8
0
 10
4514.1920440414833138
 20
251.0437109285564077
 30
0.0
 11
4514.1920440414833138
 21
251.0972450121151951
 31
0.0
  0
LINE
  5
9A88
  8
0
 10
4514.1168103109330332
 20
251.0342975555375062
 30
0.0
 11
4514.1880235993830865
 21
251.0343296912564028
 31
0.0
  0
ARC
  5
9A89
  8
0
 10
4514.1880254938168946
 20
251.0301315934324009
 30
0.0
 40
0.0041980982514726
 50
14.1089091080280795
 51
90.025855300012779
  0
LINE
  5
9A8A
  8
0
 10
4514.1653816810830904
 20
251.0343194738609895
 30
0.0
 11
4514.1653816810830904
 21
250.9593761133563987
 31
0.0
  0
ARC
  5
9A8B
  8
0
 10
4514.1720253182083979
 20
250.959938289286498
 30
0.0
 40
0.0066673799965428
 50
184.8367719954453037
 51
225.2632966519377078
  0
ARC
  5
9A8C
  8
0
 10
4514.1698817528513246
 20
250.9575792689090008
 30
0.0
 40
0.0034856262762204
 50
222.9989477166043912
 51
277.6769046935852998
  0
LINE
  5
9A8D
  8
0
 10
4514.1703473862316969
 20
250.9541248838563945
 30
0.0
 11
4514.213377952670271
 21
250.9845562718973042
 31
0.0
  0
LINE
  5
9A8E
  8
0
 10
4514.2079419378251259
 20
250.9894707594903025
 30
0.0
 11
4514.1653816810830904
 21
250.9593761133563987
 31
0.0
  0
LINE
  5
9A8F
  8
0
 10
4514.2785803601827865
 20
250.9618336983959068
 30
0.0
 11
4514.2785803601827865
 21
250.9239460346643966
 31
0.0
  0
ARC
  5
9A90
  8
0
 10
4514.2813947298218409
 20
250.9241985822528989
 30
0.0
 40
0.0028256781041099
 50
185.1277054224026131
 51
245.3306338605590895
  0
ARC
  5
9A91
  8
0
 10
4514.2825116175081348
 20
250.9260746939359024
 30
0.0
 40
0.0050021060769905
 50
242.673455197559008
 51
270.0658690065528731
  0
LINE
  5
9A92
  8
0
 10
4514.2241600056831885
 20
251.0343295362563936
 30
0.0
 11
4514.2241600056831885
 21
251.0009386653098886
 31
0.0
  0
ARC
  5
9A93
  8
0
 10
4514.2308036428066771
 20
251.0015008412399879
 30
0.0
 40
0.0066673799965428
 50
184.8367719954453037
 51
225.2632966519377078
  0
ARC
  5
9A94
  8
0
 10
4514.2286600774523322
 20
250.9991418208624907
 30
0.0
 40
0.0034856262762204
 50
222.9989477166043912
 51
277.6769046935852998
  0
LINE
  5
9A95
  8
0
 10
4514.2291257108327045
 20
250.9956874358099128
 30
0.0
 11
4514.2713486148832089
 21
251.0255472128563952
 31
0.0
  0
LINE
  5
9A96
  8
0
 10
4514.266291697383167
 20
251.030730270256413
 30
0.0
 11
4514.2241600056831885
 21
251.0009386653098886
 31
0.0
  0
LINE
  5
9A97
  8
0
 10
4514.2785803601827865
 20
251.0248247584563899
 30
0.0
 11
4514.2785803601827865
 21
250.9826930706564099
 31
0.0
  0
ARC
  5
9A98
  8
0
 10
4514.2813947298218409
 20
250.9829456182449121
 30
0.0
 40
0.0028256781041099
 50
185.1277054224026131
 51
245.3306338605590895
  0
ARC
  5
9A99
  8
0
 10
4514.2825116175081348
 20
250.9848217299278019
 30
0.0
 40
0.0050021060769905
 50
242.673455197559008
 51
270.0658690065528731
  0
LINE
  5
9A9A
  8
0
 10
4514.2020463954622755
 20
251.0410504291563996
 30
0.0
 11
4514.2635078124831125
 21
251.0410504291563996
 31
0.0
  0
ARC
  5
9A9B
  8
0
 10
4514.2635078124831125
 20
251.0460949672184938
 30
0.0
 40
0.0050445380621111
 50
270.0
 51
307.5449882713293732
  0
ARC
  5
9A9C
  8
0
 10
4514.2652355697773601
 20
251.0438469670407926
 30
0.0
 40
0.0022092867383452
 50
307.5449882713787133
 51
359.6718549214426162
  0
ARC
  5
9A9D
  8
0
 10
4514.2626760639186614
 20
251.0401558312605061
 30
0.0
 40
0.006022646672681
 50
37.6455709330570301
 51
61.8882734880457832
  0
LINE
  5
9A9E
  8
0
 10
4514.2001839375552663
 20
251.0343295362563936
 30
0.0
 11
4514.2635078124831125
 21
251.0343295362563936
 31
0.0
  0
ARC
  5
9A9F
  8
0
 10
4514.2635078124831125
 20
251.0276388502078078
 30
0.0
 40
0.0066906860485831
 50
65.4124239814996713
 51
90.0
  0
ARC
  5
9AA0
  8
0
 10
4514.265195605496956
 20
251.0313274228377054
 30
0.0
 40
0.0026343067137625
 50
31.3707579699747612
 51
65.4124239814989892
  0
ARC
  5
9AA1
  8
0
 10
4514.2649776571797702
 20
251.0328220110195048
 30
0.0
 40
0.0024702390721121
 50
302.1372082879229879
 51
357.1404068793501096
  0
ARC
  5
9AA2
  8
0
 10
4514.2746788613394529
 20
251.0199267556126017
 30
0.0
 40
0.0065329993952485
 50
66.3943435410081548
 51
120.6476886729134037
  0
ARC
  5
9AA3
  8
0
 10
4514.2761178415148606
 20
251.0232195649614084
 30
0.0
 40
0.0029394972937852
 50
33.0983307631848191
 51
66.3943435410068616
  0
LINE
  5
9AA4
  8
0
 10
4514.2785803601827865
 20
251.0845553570676998
 30
0.0
 11
4514.2785803601827865
 21
251.0517083298564103
 31
0.0
  0
ARC
  5
9AA5
  8
0
 10
4514.2812060518681392
 20
251.0519108577996974
 30
0.0
 40
0.0026334909139637
 50
184.4106722377200924
 51
242.1040010910527087
  0
ARC
  5
9AA6
  8
0
 10
4514.2827592443118192
 20
251.0550962657434013
 30
0.0
 40
0.0061765586835011
 50
243.1953519107827049
 51
267.7557030861858038
  0
ARC
  5
9AA7
  8
0
 10
4514.2757108308842362
 20
251.0520272208609072
 30
0.0
 40
0.0028871941164877
 50
285.0967946481666218
 51
353.6587349876043049
  0
ARC
  5
9AA8
  8
0
 10
4514.2746386353319394
 20
251.0543566030121951
 30
0.0
 40
0.0054323630439712
 50
255.0507496792911013
 51
289.6209597596183016
  0
ARC
  5
9AA9
  8
0
 10
4514.2737960803524402
 20
251.0521452486914882
 30
0.0
 40
0.0030881264815596
 50
231.1625561344376933
 51
259.5749147907391716
  0
ARC
  5
9AAA
  8
0
 10
4514.2818393821044083
 20
251.2175901199777002
 30
0.0
 40
0.6252195467316058
 50
89.9378686367620332
 51
104.2800483502062008
  0
ARC
  5
9AAB
  8
0
 10
4514.253923342113012
 20
251.3272686633596038
 30
0.0
 40
0.5120440716183934
 50
104.280048331868997
 51
128.5357642135809044
  0
ARC
  5
9AAC
  8
0
 10
4514.1141817780289784
 20
251.5027229751127891
 30
0.0
 40
0.2877408833980835
 50
128.5357642135809044
 51
151.0246695422123935
  0
ARC
  5
9AAD
  8
0
 10
4514.1100565884262323
 20
251.5050072837003086
 30
0.0
 40
0.2830254560603364
 50
151.0246695422123935
 51
165.3673673895901004
  0
ARC
  5
9AAE
  8
0
 10
4514.0322060298049109
 20
251.5253331902864034
 30
0.0
 40
0.2025652052772146
 50
165.3673673895901004
 51
178.0224889277641012
  0
ARC
  5
9AAF
  8
0
 10
4514.2812757025249084
 20
251.2386408450572901
 30
0.0
 40
0.6180891260776241
 50
89.8848996999011831
 51
107.3214287039609047
  0
ARC
  5
9AB0
  8
0
 10
4514.243747188747875
 20
251.358972503197009
 30
0.0
 40
0.4920411300722973
 50
107.3214287039609047
 51
127.558677166482795
  0
ARC
  5
9AB1
  8
0
 10
4514.1358876117328691
 20
251.4992401728609082
 30
0.0
 40
0.3150984627846452
 50
127.558677166482795
 51
152.6023580022205977
  0
ARC
  5
9AB2
  8
0
 10
4514.0630580761162491
 20
251.536987615875006
 30
0.0
 40
0.2330679153513762
 50
152.602358002222104
 51
167.7700738365774953
  0
ARC
  5
9AB3
  8
0
 10
4514.1892209888919751
 20
251.5096412442912026
 30
0.0
 40
0.3621605355858708
 50
167.7700738365774953
 51
172.9980276466052089
  0
ARC
  5
9AB4
  8
0
 10
4514.2825173681721935
 20
253.7313860109937877
 30
0.0
 40
0.452755905409624
 50
359.9999999952628968
 51
90.0000000114121548
  0
LINE
  5
9AB5
  8
0
 10
4514.7352732735816971
 20
253.7313860109564132
 30
0.0
 11
4514.7352732735816971
 21
248.4991025463563972
 31
0.0
  0
LINE
  5
9AB6
  8
0
 10
4514.7352732735816971
 20
248.4912285306564002
 30
0.0
 11
4514.7352732735816971
 21
243.1562159008564095
 31
0.0
  0
LINE
  5
9AB7
  8
0
 10
4515.4439346908829975
 20
243.1368978219956887
 30
0.0
 11
4515.4439346908829975
 21
242.7235119952563878
 31
0.0
  0
ARC
  5
9AB8
  8
0
 10
4514.29469273747236
 20
213.9861556951703108
 30
0.0
 40
29.1733872495490907
 50
87.7423342858871962
 51
89.1346783045646447
  0
LINE
  5
9AB9
  8
0
 10
4514.7056025854508334
 20
248.4991025463563972
 30
0.0
 11
4514.7056025854508334
 21
248.4912285306564002
 31
0.0
  0
ARC
  5
9ABA
  8
0
 10
4514.2853685576628777
 20
250.7719154416386118
 30
0.0
 40
0.6032043579699528
 50
67.7315943252229147
 51
90.2708232055375674
  0
ARC
  5
9ABB
  8
0
 10
4514.3470141731313561
 20
250.9224593846101072
 30
0.0
 40
0.4405278056587824
 50
48.3379908041515804
 51
67.7315943252229147
  0
ARC
  5
9ABC
  8
0
 10
4514.4368583676468916
 20
251.0234330158000944
 30
0.0
 40
0.3053699221144183
 50
23.3108145556857203
 51
48.3379908041515804
  0
ARC
  5
9ABD
  8
0
 10
4514.5142000204978103
 20
251.0567589010306904
 30
0.0
 40
0.221153855404482
 50
1.546953775156229
 51
23.3108145556857203
  0
ARC
  5
9ABE
  8
0
 10
4514.4742774761807595
 20
251.0631161477849105
 30
0.0
 40
0.2620861647131132
 50
325.5760579362129761
 51
354.7717941748110775
  0
ARC
  5
9ABF
  8
0
 10
4514.4074024901492521
 20
251.1089474645565929
 30
0.0
 40
0.3431588071634889
 50
304.0436187227961113
 51
325.5760579362129761
  0
ARC
  5
9AC0
  8
0
 10
4514.3102028250550575
 20
251.2528155189444874
 30
0.0
 40
0.5167842429948438
 50
289.9527302420232218
 51
304.0436187227961113
  0
ARC
  5
9AC1
  8
0
 10
4514.2973233666552915
 20
251.2882925818252033
 30
0.0
 40
0.554526824243407
 50
277.1175485922681787
 51
289.9527302420232218
  0
ARC
  5
9AC2
  8
0
 10
4514.2768876036052461
 20
251.4519520150514893
 30
0.0
 40
0.7194572049966972
 50
270.4483449937894193
 51
277.1175484112487766
  0
ARC
  5
9AC3
  8
0
 10
4514.2859925478278456
 20
250.8091423207035859
 30
0.0
 40
0.5207477693861435
 50
65.079454162679454
 51
90.3823628676316275
  0
ARC
  5
9AC4
  8
0
 10
4514.3540839968673026
 20
250.9556951582279964
 30
0.0
 40
0.3591489463131381
 50
44.8166149497844515
 51
65.079454162679454
  0
ARC
  5
9AC5
  8
0
 10
4514.4285701259877897
 20
251.0297059955055943
 30
0.0
 40
0.2541451965426233
 50
17.3494959022549793
 51
44.8166149497844515
  0
ARC
  5
9AC6
  8
0
 10
4514.4906347442438346
 20
251.049095804105292
 30
0.0
 40
0.1891222658419625
 50
340.281228771630083
 51
17.3494959022549793
  0
ARC
  5
9AC7
  8
0
 10
4514.4198437145405478
 20
251.0744688312805977
 30
0.0
 40
0.26432306633347
 50
309.8487728753581223
 51
340.281228771630083
  0
ARC
  5
9AC8
  8
0
 10
4514.3259805126417632
 20
251.1869321408134113
 30
0.0
 40
0.4108095730902275
 50
289.5819757812935791
 51
309.8487728753581223
  0
ARC
  5
9AC9
  8
0
 10
4514.2848677340762151
 20
251.3025052728272044
 30
0.0
 40
0.5334774556221158
 50
276.4355157618339263
 51
289.5819757812935791
  0
ARC
  5
9ACA
  8
0
 10
4514.283046341309273
 20
251.3186529899959964
 30
0.0
 40
0.5497275707409074
 50
269.9448673494795798
 51
276.4355157618339263
  0
ARC
  5
9ACB
  8
0
 10
4514.2853333091752575
 20
250.8241336989966044
 30
0.0
 40
0.4855697945027714
 50
65.4881572449257163
 51
90.3322744663174859
  0
ARC
  5
9ACC
  8
0
 10
4514.3501696792618532
 20
250.9663262355311986
 30
0.0
 40
0.3292928853569994
 50
39.1309376406702327
 51
65.4881572449257163
  0
ARC
  5
9ACD
  8
0
 10
4514.45105478917867
 20
251.0484038317098054
 30
0.0
 40
0.1992369850781598
 50
17.5884453263654699
 51
39.1309376406702327
  0
ARC
  5
9ACE
  8
0
 10
4514.4407128509046743
 20
251.0451254709981015
 30
0.0
 40
0.2100861019183622
 50
1.4611781915959401
 51
17.5884453263654699
  0
ARC
  5
9ACF
  8
0
 10
4514.4707134359177871
 20
251.045890722935809
 30
0.0
 40
0.1800757585078082
 50
324.9543059560293159
 51
1.4611781915959401
  0
ARC
  5
9AD0
  8
0
 10
4514.3777604161832642
 20
251.1013165232708957
 30
0.0
 40
0.2881140791134045
 50
301.8376850649286212
 51
326.5453461402736934
  0
ARC
  5
9AD1
  8
0
 10
4514.2805687985546683
 20
251.2340337208690073
 30
0.0
 40
0.4523078159248887
 50
281.0725660995955195
 51
303.4287252492014204
  0
ARC
  5
9AD2
  8
0
 10
4514.2866258320664201
 20
251.2030823252343055
 30
0.0
 40
0.4207693228302084
 50
269.4405452719728942
 51
281.0725660995955195
  0
LINE
  5
9AD3
  8
0
 10
4514.6507306395833439
 20
251.0504825838563931
 30
0.0
 11
4514.6506273367349422
 21
251.1109609261179116
 31
0.0
  0
ARC
  5
9AD4
  8
0
 10
4514.4642348749093799
 20
251.1106425497966086
 30
0.0
 40
0.1863927337350059
 50
0.0978666282453733
 51
18.1320243474821403
  0
ARC
  5
9AD5
  8
0
 10
4514.2837502715547089
 20
250.8208197686489882
 30
0.0
 40
0.4763496728299427
 50
72.4011510550980972
 51
90.1482949363327037
  0
ARC
  5
9AD6
  8
0
 10
4514.3125158266575454
 20
250.9115066089842117
 30
0.0
 40
0.381209985158241
 50
53.0096919767994308
 51
72.4011510550980972
  0
ARC
  5
9AD7
  8
0
 10
4514.3940338922411684
 20
251.0197228173744861
 30
0.0
 40
0.2457258799097794
 50
23.9203888570239585
 51
53.0096919767994308
  0
ARC
  5
9AD8
  8
0
 10
4514.4628212519737644
 20
251.050234469045904
 30
0.0
 40
0.1704752204659901
 50
345.6942081805660791
 51
23.9203888570239585
  0
ARC
  5
9AD9
  8
0
 10
4514.399386683040575
 20
251.0664105670842048
 30
0.0
 40
0.2359397962569671
 50
323.153076219855393
 51
345.6942081805660791
  0
ARC
  5
9ADA
  8
0
 10
4514.2847488375673493
 20
250.8098554326655858
 30
0.0
 40
0.4436119533490818
 50
68.7590107291410817
 51
90.2882120776530144
  0
ARC
  5
9ADB
  8
0
 10
4514.330182824595795
 20
250.926743152447699
 30
0.0
 40
0.3182046720086317
 50
38.5797760542759605
 51
68.7590107291410817
  0
ARC
  5
9ADC
  8
0
 10
4514.4528967030146305
 20
251.0246334566080009
 30
0.0
 40
0.1612294905145573
 50
11.1176758180026791
 51
38.5797760542759605
  0
ARC
  5
9ADD
  8
0
 10
4514.4246413566997944
 20
251.0190809251755013
 30
0.0
 40
0.1900252402130901
 50
343.5030689670842889
 51
11.1176758180026791
  0
ARC
  5
9ADE
  8
0
 10
4514.4612574606162525
 20
251.0082368744068901
 30
0.0
 40
0.1518371202931743
 50
326.7214669059774792
 51
343.5030689670858806
  0
ARC
  5
9ADF
  8
0
 10
4514.3532036389706263
 20
251.0791570300748958
 30
0.0
 40
0.2810860926360991
 50
307.8975203998321035
 51
326.7214669059774792
  0
ARC
  5
9AE0
  8
0
 10
4514.2990578974040545
 20
251.148716507945295
 30
0.0
 40
0.3692352973491017
 50
302.1027064125552783
 51
307.8975203998321035
  0
ARC
  5
9AE1
  8
0
 10
4514.2827276651723878
 20
250.7936864712314105
 30
0.0
 40
0.4532253577342044
 50
78.5406331961318642
 51
90.026585308812983
  0
ARC
  5
9AE2
  8
0
 10
4514.2920676459016249
 20
250.8397611716731035
 30
0.0
 40
0.4062135160257566
 50
65.8739552330064271
 51
78.5406331961318642
  0
ARC
  5
9AE3
  8
0
 10
4514.3269951683423642
 20
250.9177474996589865
 30
0.0
 40
0.3207629503366025
 50
52.8921417235045084
 51
65.8739552330064271
  0
ARC
  5
9AE4
  8
0
 10
4514.371476734969292
 20
250.9765459097388032
 30
0.0
 40
0.2470346464266353
 50
31.6038320567287911
 51
52.8921417235045084
  0
ARC
  5
9AE5
  8
0
 10
4514.4413962605567576
 20
251.0195671353930891
 30
0.0
 40
0.164939787176041
 50
359.9104289963881911
 51
31.6038320567287911
  0
ARC
  5
9AE6
  8
0
 10
4514.4377207789675595
 20
251.0195728813110065
 30
0.0
 40
0.16861527325663
 50
329.7648894947216718
 51
359.9104289963881911
  0
ARC
  5
9AE7
  8
0
 10
4514.3724765539082
 20
251.0575994707045027
 30
0.0
 40
0.2441323600964819
 50
299.4833062448635133
 51
329.7648894947216718
  0
ARC
  5
9AE8
  8
0
 10
4514.3001497443019616
 20
251.1706499843128029
 30
0.0
 40
0.3782106667418144
 50
282.3430016446948798
 51
300.5923492065641085
  0
ARC
  5
9AE9
  8
0
 10
4514.282955341149318
 20
251.2388840929658045
 30
0.0
 40
0.4485485594329532
 50
269.9440550823267131
 51
282.6254259271760816
  0
ARC
  5
9AEA
  8
0
 10
4514.2833833803606467
 20
250.8602316861847896
 30
0.0
 40
0.3482616916730048
 50
70.9731036919892091
 51
90.1424759050206035
  0
ARC
  5
9AEB
  8
0
 10
4514.3114000884697816
 20
250.9414742030957086
 30
0.0
 40
0.2623240253839152
 50
45.7816270974538284
 51
70.9731036933715558
  0
ARC
  5
9AEC
  8
0
 10
4514.3945309741238816
 20
251.0245625789418114
 30
0.0
 40
0.144809817588527
 50
7.2113615626090271
 51
46.4279201980832283
  0
ARC
  5
9AED
  8
0
 10
4514.4025439005254157
 20
251.0272449727443984
 30
0.0
 40
0.1365335887670725
 50
327.9512316777737055
 51
6.5166989003278717
  0
ARC
  5
9AEE
  8
0
 10
4514.3518271848797667
 20
251.0589257191805075
 30
0.0
 40
0.1963320205874359
 50
303.5892194570005813
 51
327.9687025657757999
  0
ARC
  5
9AEF
  8
0
 10
4514.3002901090649175
 20
251.1350490593372058
 30
0.0
 40
0.2882579570603876
 50
283.8076525776048129
 51
303.7517320976883752
  0
ARC
  5
9AF0
  8
0
 10
4514.2829926782687835
 20
251.1966863541017858
 30
0.0
 40
0.3522485249466833
 50
269.9226873243732143
 51
284.1471243386487231
  0
ARC
  5
9AF1
  8
0
 10
4514.2829089216284046
 20
250.8558787900016966
 30
0.0
 40
0.3459408136230593
 50
78.4710185770012032
 51
90.0648503138578604
  0
ARC
  5
9AF2
  8
0
 10
4514.2895430677854165
 20
250.8884024444230931
 30
0.0
 40
0.3127474409083997
 50
65.031414996607154
 51
78.4710185770012032
  0
ARC
  5
9AF3
  8
0
 10
4514.3218393144788934
 20
250.9577612304823049
 30
0.0
 40
0.2362380378649254
 50
47.9440178622539506
 51
65.031414996607154
  0
ARC
  5
9AF4
  8
0
 10
4514.3674904176541531
 20
251.008362402693507
 30
0.0
 40
0.1680874556938397
 50
26.1790334310727211
 51
47.9440178622539506
  0
ARC
  5
9AF5
  8
0
 10
4514.4049730060241927
 20
251.0267890885249926
 30
0.0
 40
0.1263203971225452
 50
3.8118972714211452
 51
26.1790334310727211
  0
ARC
  5
9AF6
  8
0
 10
4514.4044043440289897
 20
251.0267511994335905
 30
0.0
 40
0.1268903199664683
 50
332.2217637851230734
 51
3.8118972714211452
  0
ARC
  5
9AF7
  8
0
 10
4514.3570134718156623
 20
251.0517145709690112
 30
0.0
 40
0.1804539707707723
 50
302.0613146109537865
 51
332.2217637851230734
  0
ARC
  5
9AF8
  8
0
 10
4514.2853923578568356
 20
251.1660598418040138
 30
0.0
 40
0.3153777452776023
 50
287.0901818909628105
 51
302.0613146109537865
  0
ARC
  5
9AF9
  8
0
 10
4514.2918998216073305
 20
251.1448940956767046
 30
0.0
 40
0.2932342158934211
 50
273.8915826908705071
 51
287.0901818909628105
  0
ARC
  5
9AFA
  8
0
 10
4514.2738047118364193
 20
251.4108986269980051
 30
0.0
 40
0.5598535019194307
 50
270.8916950268019832
 51
273.8915826908705071
  0
ARC
  5
9AFB
  8
0
 10
4514.2844193157670816
 20
250.9235886408017961
 30
0.0
 40
0.2262779255929183
 50
64.8822152291975272
 51
90.4815973902087336
  0
ARC
  5
9AFC
  8
0
 10
4514.3155733377061551
 20
250.9900416514252015
 30
0.0
 40
0.1528846309141625
 50
35.5402901907128523
 51
64.8822152291975272
  0
ARC
  5
9AFD
  8
0
 10
4514.3699436363949644
 20
251.0288813229963125
 30
0.0
 40
0.0860665984123189
 50
6.5975095299487316
 51
35.5402901907115165
  0
ARC
  5
9AFE
  8
0
 10
4514.3604013661206409
 20
251.0277776649793111
 30
0.0
 40
0.0956724811426723
 50
330.3227119864637871
 51
6.5975095299487316
  0
ARC
  5
9AFF
  8
0
 10
4514.3345119040714053
 20
251.0425311550673939
 30
0.0
 40
0.1254706306652029
 50
299.7848909603526977
 51
330.3227119864637871
  0
ARC
  5
9B00
  8
0
 10
4514.2738312078727176
 20
251.1485504417485117
 30
0.0
 40
0.2476272352326148
 50
286.4953469991564248
 51
299.7848909603526977
  0
ARC
  5
9B01
  8
0
 10
4514.2828863035183531
 20
251.1404016697757982
 30
0.0
 40
0.2373282295212234
 50
269.9109315740179227
 51
284.9576377864012215
  0
ARC
  5
9B02
  8
0
 10
4514.2836340467993068
 20
250.9203031404798878
 30
0.0
 40
0.222883448801486
 50
73.619924638244882
 51
90.2870614464177947
  0
ARC
  5
9B03
  8
0
 10
4514.2917431821806531
 20
250.9478910354625896
 30
0.0
 40
0.1941284487801874
 50
58.0493469972113019
 51
73.619924638244882
  0
ARC
  5
9B04
  8
0
 10
4514.3270148358069491
 20
251.0044458093782964
 30
0.0
 40
0.1274761269739657
 50
28.0663141117960713
 51
58.0493469972113019
  0
ARC
  5
9B05
  8
0
 10
4514.3724801223661416
 20
251.0286876710374031
 30
0.0
 40
0.0759517624600335
 50
357.1213773613408762
 51
28.066314111822031
  0
ARC
  5
9B06
  8
0
 10
4514.3532099903286507
 20
251.029656645710503
 30
0.0
 40
0.0952462409616253
 50
320.4215356918107886
 51
357.1213773613408762
  0
ARC
  5
9B07
  8
0
 10
4514.3178106755603949
 20
251.0589191011954995
 30
0.0
 40
0.1411744761456796
 50
296.8595016524395191
 51
320.4215356918107886
  0
ARC
  5
9B08
  8
0
 10
4514.2842900459399971
 20
251.1251077815452106
 30
0.0
 40
0.2153672926212631
 50
282.7376844453143008
 51
296.8595016524395191
  0
ARC
  5
9B09
  8
0
 10
4514.284296056293897
 20
251.125081193048203
 30
0.0
 40
0.2153400332642735
 50
269.5267369241379924
 51
282.7376844453143008
  0
ARC
  5
9B0A
  8
0
 10
4514.2842929668722718
 20
250.9775333943906901
 30
0.0
 40
0.1138144836993446
 50
59.4198020491387879
 51
90.8938971624106671
  0
ARC
  5
9B0B
  8
0
 10
4514.3065313832603351
 20
251.0151661812114128
 30
0.0
 40
0.0701020849171842
 50
30.0000370590518308
 51
59.4198020491387879
  0
ARC
  5
9B0C
  8
0
 10
4514.3274251423681562
 20
251.0272292166756927
 30
0.0
 40
0.045976041016961
 50
344.7497140108794724
 51
30.0000370590518308
  0
ARC
  5
9B0D
  8
0
 10
4514.3149400206066275
 20
251.0306331185011004
 30
0.0
 40
0.0589168606591646
 50
305.508367923244009
 51
344.7497140108779945
  0
ARC
  5
9B0E
  8
0
 10
4514.2838126875685703
 20
251.0742585515139922
 30
0.0
 40
0.1125087375399474
 50
282.8131589227489826
 51
305.508367923244009
  0
ARC
  5
9B0F
  8
0
 10
4514.2826266640377071
 20
251.0861818809115107
 30
0.0
 40
0.1244070812842208
 50
269.9496636547763728
 51
282.1279460482792842
  0
ARC
  5
9B10
  8
0
 10
4514.2828080278432026
 20
250.9702888389151951
 30
0.0
 40
0.1143246824856504
 50
72.8282499593484403
 51
90.1456692912412905
  0
ARC
  5
9B11
  8
0
 10
4514.2897234086076423
 20
250.9926678796805959
 30
0.0
 40
0.0909015324690076
 50
52.2366667138855973
 51
72.8282499593484403
  0
ARC
  5
9B12
  8
0
 10
4514.3114387908608478
 20
251.020700206029403
 30
0.0
 40
0.0554421310785131
 50
24.0427537416482195
 51
52.2366667138855973
  0
ARC
  5
9B13
  8
0
 10
4514.3259148954466582
 20
251.0271583305828926
 30
0.0
 40
0.0395907911751575
 50
346.254603559524412
 51
24.0427537416482195
  0
ARC
  5
9B14
  8
0
 10
4514.3094280307250301
 20
251.0328889348961923
 30
0.0
 40
0.0569909915018522
 50
300.5799593003227983
 51
344.5964747954744212
  0
ARC
  5
9B15
  8
0
 10
4514.2859667716129479
 20
251.0679139922858099
 30
0.0
 40
0.0991090245321565
 50
277.5571558241613843
 51
301.9557639163292038
  0
ARC
  5
9B16
  8
0
 10
4514.2825541968049947
 20
251.0846674519193868
 30
0.0
 40
0.116171760539025
 50
269.9818361158659741
 51
278.1389431796258123
  0
LINE
  5
9B17
  8
0
 10
4514.286454375986068
 20
251.2468965069982119
 30
0.0
 11
4514.2864543759078515
 21
251.2224405653913948
 31
0.0
  0
ARC
  5
9B18
  8
0
 10
4514.2843318135828667
 20
251.2224405653981876
 30
0.0
 40
0.0021225623251029
 50
305.4031380275533252
 51
359.9999998158489802
  0
ARC
  5
9B19
  8
0
 10
4514.2824460648880631
 20
251.2250937638332005
 30
0.0
 40
0.0053776368364801
 50
283.5843819260663849
 51
305.4031380275524157
  0
ARC
  5
9B1A
  8
0
 10
4514.2825153062676691
 20
251.2254813862182914
 30
0.0
 40
0.0057403367322104
 50
270.0205795080921121
 51
282.003669226164277
  0
LINE
  5
9B1B
  8
0
 10
4514.2864543760297238
 20
251.2018014349430928
 30
0.0
 11
4514.2864543759078515
 21
251.1637656838913983
 31
0.0
  0
ARC
  5
9B1C
  8
0
 10
4514.2843318135828667
 20
251.1637656838981911
 30
0.0
 40
0.0021225623251029
 50
305.4031380275533252
 51
359.9999998158489802
  0
ARC
  5
9B1D
  8
0
 10
4514.2824460648880631
 20
251.166418882333204
 30
0.0
 40
0.0053776368364801
 50
283.5843819260663849
 51
305.4031380275524157
  0
ARC
  5
9B1E
  8
0
 10
4514.2825153062676691
 20
251.1668065047182949
 30
0.0
 40
0.0057403367322104
 50
270.0205795080921121
 51
282.003669226164277
  0
LINE
  5
9B1F
  8
0
 10
4514.3464721311247558
 20
251.1959299110534971
 30
0.0
 11
4514.3321388501817637
 21
251.1581054132564077
 31
0.0
  0
ARC
  5
9B20
  8
0
 10
4514.3303846287180932
 20
251.1587701609873022
 30
0.0
 40
0.0018759484246351
 50
290.4744315586008838
 51
339.2462107629422121
  0
ARC
  5
9B21
  8
0
 10
4514.329467207385278
 20
251.1612272578971101
 30
0.0
 40
0.0044987307500538
 50
268.371679234079977
 51
290.4744315586008838
  0
ARC
  5
9B22
  8
0
 10
4514.329501240058562
 20
251.1624244443576117
 30
0.0
 40
0.0056964008399161
 50
239.2985435735091926
 51
268.371679234079977
  0
ARC
  5
9B23
  8
0
 10
4514.3292010111017589
 20
251.1619188304441934
 30
0.0
 40
0.0051083678002457
 50
215.3565800634330003
 51
239.2985435735099884
  0
ARC
  5
9B24
  8
0
 10
4514.3267360241407005
 20
251.1601698653257984
 30
0.0
 40
0.0020859449801404
 50
178.8934279401501044
 51
215.3565800634330003
  0
LINE
  5
9B25
  8
0
 10
4514.3246504681819715
 20
251.1602101493564021
 30
0.0
 11
4514.3246504653579905
 21
251.199292083362792
 31
0.0
  0
LINE
  5
9B26
  8
0
 10
4514.338701739172393
 20
251.1972908695192928
 30
0.0
 11
4514.3246504681819715
 21
251.1602101493564021
 31
0.0
  0
LINE
  5
9B27
  8
0
 10
4514.3630709873596061
 20
251.2397337506459962
 30
0.0
 11
4514.3536153450431812
 21
251.2147809904597011
 31
0.0
  0
ARC
  5
9B28
  8
0
 10
4514.3518611235776916
 20
251.2154457381905956
 30
0.0
 40
0.0018759484246351
 50
290.4744315586008838
 51
339.2462107629422121
  0
ARC
  5
9B29
  8
0
 10
4514.3509437022448765
 20
251.2179028351004035
 30
0.0
 40
0.0044987307500538
 50
268.371679234079977
 51
290.4744315586008838
  0
ARC
  5
9B2A
  8
0
 10
4514.3509777349181604
 20
251.2191000215609051
 30
0.0
 40
0.0056964008399161
 50
239.2985435735091926
 51
268.371679234079977
  0
ARC
  5
9B2B
  8
0
 10
4514.3506775059613574
 20
251.2185944076474868
 30
0.0
 40
0.0051083678002457
 50
215.3565800634330003
 51
239.2985435735099884
  0
ARC
  5
9B2C
  8
0
 10
4514.3482125190012084
 20
251.2168454425290918
 30
0.0
 40
0.0020859449801404
 50
178.8934279401501044
 51
215.3565800634330003
  0
LINE
  5
9B2D
  8
0
 10
4514.346126963043389
 20
251.2168857265596955
 30
0.0
 11
4514.3461269611925673
 21
251.242455625872509
 31
0.0
  0
LINE
  5
9B2E
  8
0
 10
4514.3552895821012498
 20
251.2410654974551107
 30
0.0
 11
4514.346126963043389
 21
251.2168857265596955
 31
0.0
  0
LINE
  5
9B2F
  8
0
 10
4514.4031388937291922
 20
251.179790416245595
 30
0.0
 11
4514.3747867082429366
 21
251.1448259267361038
 31
0.0
  0
ARC
  5
9B30
  8
0
 10
4514.3731948756239944
 20
251.1458185250480994
 30
0.0
 40
0.0018759484246351
 50
279.2823314040917921
 51
328.0541106084205012
  0
ARC
  5
9B31
  8
0
 10
4514.3727718221689429
 20
251.1484069633611114
 30
0.0
 40
0.0044987307500538
 50
257.1795790795620746
 51
279.2823314040917921
  0
ARC
  5
9B32
  8
0
 10
4514.3730375804179857
 20
251.1495747759304891
 30
0.0
 40
0.0056964008399161
 50
228.1064434189553083
 51
257.1795790795620746
  0
ARC
  5
9B33
  8
0
 10
4514.3726449220330323
 20
251.149137051988788
 30
0.0
 40
0.0051083678002457
 50
204.1644799089019102
 51
228.1064434189563883
  0
ARC
  5
9B34
  8
0
 10
4514.3698873418252333
 20
251.1478998005603103
 30
0.0
 40
0.0020859449801404
 50
167.7013277856189859
 51
204.1644799089019102
  0
LINE
  5
9B35
  8
0
 10
4514.3678492681783609
 20
251.1474554783009978
 30
0.0
 11
4514.367849270053739
 21
251.1911880129050019
 31
0.0
  0
LINE
  5
9B36
  8
0
 10
4514.3957806771886681
 20
251.1825529707577118
 30
0.0
 11
4514.3678492682156502
 21
251.1483441229945015
 31
0.0
  0
LINE
  5
9B37
  8
0
 10
4514.4357868621846137
 20
251.219700913570108
 30
0.0
 11
4514.4162761107418191
 21
251.1956398596362021
 31
0.0
  0
ARC
  5
9B38
  8
0
 10
4514.414684278124696
 20
251.1966324579481125
 30
0.0
 40
0.0018759484246351
 50
279.2823314040917921
 51
328.0541106084205012
  0
ARC
  5
9B39
  8
0
 10
4514.4142612246678254
 20
251.1992208962610107
 30
0.0
 40
0.0044987307500538
 50
257.1795790795620746
 51
279.2823314040917921
  0
ARC
  5
9B3A
  8
0
 10
4514.4145269829177778
 20
251.2003887088305021
 30
0.0
 40
0.0056964008399161
 50
228.1064434189553083
 51
257.1795790795620746
  0
ARC
  5
9B3B
  8
0
 10
4514.4141343245337339
 20
251.199950984888801
 30
0.0
 40
0.0051083678002457
 50
204.1644799089019102
 51
228.1064434189563883
  0
ARC
  5
9B3C
  8
0
 10
4514.4113767443250254
 20
251.1987137334602949
 30
0.0
 40
0.0020859449801404
 50
167.7013277856189859
 51
204.1644799089019102
  0
LINE
  5
9B3D
  8
0
 10
4514.4093386707163518
 20
251.1991580558944861
 30
0.0
 11
4514.4093386719832779
 21
251.2286788069685031
 31
0.0
  0
LINE
  5
9B3E
  8
0
 10
4514.4283432731654102
 20
251.222433843830089
 30
0.0
 11
4514.4093386707163518
 21
251.1991580558944861
 31
0.0
  0
LINE
  5
9B3F
  8
0
 10
4514.453124907307938
 20
251.1541600686906008
 30
0.0
 11
4514.4107338114381491
 21
251.1236864026018054
 31
0.0
  0
ARC
  5
9B40
  8
0
 10
4514.409924336307995
 20
251.1253787183252939
 30
0.0
 40
0.0018759484246351
 50
267.0877264436426799
 51
315.8595056479867935
  0
ARC
  5
9B41
  8
0
 10
4514.4100575916927482
 20
251.1279981133183128
 30
0.0
 40
0.0044987307500538
 50
244.9849741191096939
 51
267.0877264436426799
  0
ARC
  5
9B42
  8
0
 10
4514.4105640335892531
 20
251.1290834382695039
 30
0.0
 40
0.0056964008399161
 50
215.9118384585370052
 51
244.9849741191096939
  0
ARC
  5
9B43
  8
0
 10
4514.4100877735936592
 20
251.1287385335378985
 30
0.0
 40
0.0051083678002457
 50
191.9698749484732048
 51
215.9118384585383126
  0
ARC
  5
9B44
  8
0
 10
4514.4071310679746603
 20
251.1281116909929096
 30
0.0
 40
0.0020859449801404
 50
155.506722825192611
 51
191.9698749484732048
  0
LINE
  5
9B45
  8
0
 10
4514.4052328373436467
 20
251.1289764955569979
 30
0.0
 11
4514.4052328484158352
 21
251.1789654091184048
 31
0.0
  0
LINE
  5
9B46
  8
0
 10
4514.4467058915051894
 20
251.1583023695934003
 30
0.0
 11
4514.4052328373436467
 21
251.1289764955569979
 31
0.0
  0
LINE
  5
9B47
  8
0
 10
4514.5005058344941062
 20
251.1875305959424054
 30
0.0
 11
4514.4699454614974456
 21
251.1655616757450957
 31
0.0
  0
ARC
  5
9B48
  8
0
 10
4514.468599216608709
 20
251.166868124057487
 30
0.0
 40
0.0018759484246351
 50
267.0877264436426799
 51
315.8595056479867935
  0
ARC
  5
9B49
  8
0
 10
4514.4687324719916433
 20
251.1694875190505911
 30
0.0
 40
0.0044987307500538
 50
244.9849741191096939
 51
267.0877264436426799
  0
ARC
  5
9B4A
  8
0
 10
4514.4692389138881481
 20
251.1705728440016969
 30
0.0
 40
0.0056964008399161
 50
215.9118384585370052
 51
244.9849741191096939
  0
ARC
  5
9B4B
  8
0
 10
4514.4687626538952827
 20
251.1702279392700916
 30
0.0
 40
0.0051083678002457
 50
191.9698749484732048
 51
215.9118384585383126
  0
ARC
  5
9B4C
  8
0
 10
4514.4658059482735553
 20
251.169601096725188
 30
0.0
 40
0.0020859449801404
 50
155.506722825192611
 51
191.9698749484732048
  0
LINE
  5
9B4D
  8
0
 10
4514.4639077176443607
 20
251.1704659012891909
 30
0.0
 11
4514.4639077259171245
 21
251.2078230447966121
 31
0.0
  0
LINE
  5
9B4E
  8
0
 10
4514.4938946123838832
 20
251.1916698351614912
 30
0.0
 11
4514.4639077176443607
 21
251.1704659012891909
 31
0.0
  0
LINE
  5
9B4F
  8
0
 10
4514.4930685198532956
 20
251.1200921346793962
 30
0.0
 11
4514.4391162695792445
 21
251.0973559180393124
 31
0.0
  0
ARC
  5
9B50
  8
0
 10
4514.4380770999732704
 20
251.098917746782206
 30
0.0
 40
0.0018759484246351
 50
254.8662035037235114
 51
303.6379827080152154
  0
ARC
  5
9B51
  8
0
 10
4514.4387618401333384
 20
251.1014495678736864
 30
0.0
 40
0.0044987307500538
 50
232.7634511791926002
 51
254.8662035037235114
  0
ARC
  5
9B52
  8
0
 10
4514.4394865588037646
 20
251.1024030858301899
 30
0.0
 40
0.0056964008399161
 50
203.6903155185964067
 51
232.7634511791906107
  0
ARC
  5
9B53
  8
0
 10
4514.4389480790032394
 20
251.1021668182710016
 30
0.0
 40
0.0051083678002457
 50
179.7483520085260977
 51
203.6903155185977994
  0
ARC
  5
9B54
  8
0
 10
4514.4359256853340412
 20
251.1021800929692915
 30
0.0
 40
0.0020859449801404
 50
143.2851998852459019
 51
179.7483520085260977
  0
LINE
  5
9B55
  8
0
 10
4514.4342535475234399
 20
251.1034271381174108
 30
0.0
 11
4514.4342535688983844
 21
251.1405940389959994
 31
0.0
  0
LINE
  5
9B56
  8
0
 10
4514.4881196413271027
 20
251.1254178731234106
 30
0.0
 11
4514.4342535475234399
 21
251.1034271381174108
 31
0.0
  0
LINE
  5
9B57
  8
0
 10
4514.5528012199392833
 20
251.1443182187933019
 30
0.0
 11
4514.5109780369757573
 21
251.1266933571131119
 31
0.0
  0
ARC
  5
9B58
  8
0
 10
4514.5099388673697831
 20
251.1282551858560055
 30
0.0
 40
0.0018759484246351
 50
254.8662035037235114
 51
303.6379827080152154
  0
ARC
  5
9B59
  8
0
 10
4514.5106236075298511
 20
251.1307870069474859
 30
0.0
 40
0.0044987307500538
 50
232.7634511791926002
 51
254.8662035037235114
  0
ARC
  5
9B5A
  8
0
 10
4514.5113483262011869
 20
251.1317405249039894
 30
0.0
 40
0.0056964008399161
 50
203.6903155185964067
 51
232.7634511791906107
  0
ARC
  5
9B5B
  8
0
 10
4514.5108098463997521
 20
251.1315042573448011
 30
0.0
 40
0.0051083678002457
 50
179.7483520085260977
 51
203.6903155185977994
  0
ARC
  5
9B5C
  8
0
 10
4514.5077874527305539
 20
251.131517532043091
 30
0.0
 40
0.0020859449801404
 50
143.2851998852459019
 51
179.7483520085260977
  0
LINE
  5
9B5D
  8
0
 10
4514.5061153149208621
 20
251.1327645771912103
 30
0.0
 11
4514.506115344293903
 21
251.1838392749465925
 31
0.0
  0
LINE
  5
9B5E
  8
0
 10
4514.5476489316906736
 20
251.1497206008370995
 30
0.0
 11
4514.5061153149208621
 21
251.1327645771912103
 31
0.0
  0
LINE
  5
9B5F
  8
0
 10
4514.5304857818382516
 20
251.0410504291563996
 30
0.0
 11
4514.4600002794832108
 21
251.0410504291563996
 31
0.0
  0
ARC
  5
9B60
  8
0
 10
4514.4600002794832108
 20
251.0452879644990958
 30
0.0
 40
0.0042375353427051
 50
201.8488159929447079
 51
270.0
  0
LINE
  5
9B61
  8
0
 10
4514.4560671301833281
 20
251.0437109285564077
 30
0.0
 11
4514.4560671301833281
 21
251.0671417394615901
 31
0.0
  0
LINE
  5
9B62
  8
0
 10
4514.531070062512299
 20
251.0342976596874962
 30
0.0
 11
4514.4600875722826459
 21
251.0343296912564028
 31
0.0
  0
ARC
  5
9B63
  8
0
 10
4514.4600856778488378
 20
251.0301315934324009
 30
0.0
 40
0.0041980982514726
 50
89.9741446999872352
 51
165.8910908919719134
  0
LINE
  5
9B64
  8
0
 10
4514.51991772276142
 20
251.0343026922940055
 30
0.0
 11
4514.5199042121830644
 21
250.9961712593564016
 31
0.0
  0
ARC
  5
9B65
  8
0
 10
4514.5039038330569383
 20
250.9961769285474986
 30
0.0
 40
0.016000380130284
 50
345.9268502340456735
 51
359.9796991865181894
  0
ARC
  5
9B66
  8
0
 10
4514.5006721884237777
 20
250.9969870517832931
 30
0.0
 40
0.0193320203695035
 50
338.9428015301396044
 51
345.9268502340473219
  0
ARC
  5
9B67
  8
0
 10
4514.5180470478599091
 20
250.9902975592812027
 30
0.0
 40
0.0007138826995124
 50
283.3103005635247769
 51
338.9428015301533037
  0
LINE
  5
9B68
  8
0
 10
4514.5182114012832244
 20
250.9896028532564003
 30
0.0
 11
4514.4525480031807092
 21
251.0020440114037967
 31
0.0
  0
LINE
  5
9B69
  8
0
 10
4514.4964075079833492
 20
250.9937340083994002
 30
0.0
 11
4514.4964075079833492
 21
250.9541608136563866
 31
0.0
  0
ARC
  5
9B6A
  8
0
 10
4514.4891331559438186
 20
250.9541608186804069
 30
0.0
 40
0.0072743520391176
 50
337.725179017700782
 51
359.9999604287555144
  0
ARC
  5
9B6B
  8
0
 10
4514.4780678860443004
 20
250.9586933414142891
 30
0.0
 40
0.019231942108014
 50
331.4318278375416185
 51
337.7251667848955776
  0
ARC
  5
9B6C
  8
0
 10
4514.4918159694661881
 20
250.9512075472827064
 30
0.0
 40
0.0035779678030196
 50
307.6901567309359962
 51
331.4318278375358773
  0
ARC
  5
9B6D
  8
0
 10
4514.4931335150831728
 20
250.9495022370479944
 30
0.0
 40
0.0014229714113237
 50
264.5350039612374076
 51
307.690156730934973
  0
LINE
  5
9B6E
  8
0
 10
4514.4929979946828098
 20
250.9480857336563986
 30
0.0
 11
4514.4374347798293456
 21
250.9707693211636865
 31
0.0
  0
LINE
  5
9B6F
  8
0
 10
4514.4412998374800736
 20
250.9766584259766944
 30
0.0
 11
4514.4964075079833492
 21
250.9541608136563866
 31
0.0
  0
LINE
  5
9B70
  8
0
 10
4514.4541385479597011
 20
251.0086317936520004
 30
0.0
 11
4514.5199042121830644
 21
250.9961712593564016
 31
0.0
  0
LINE
  5
9B71
  8
0
 10
4514.6049309709005684
 20
251.0410504290551899
 30
0.0
 11
4514.5429801570662676
 21
251.0410504290551899
 31
0.0
  0
ARC
  5
9B72
  8
0
 10
4514.5429801570662676
 20
251.0452879643978861
 30
0.0
 40
0.0042375353427051
 50
201.8488159929447079
 51
270.0
  0
LINE
  5
9B73
  8
0
 10
4514.5390470077645659
 20
251.043710928455198
 30
0.0
 11
4514.5390470077645659
 21
251.0828633489346942
 31
0.0
  0
LINE
  5
9B74
  8
0
 10
4514.605676611533454
 20
251.0343014381357989
 30
0.0
 11
4514.5430674498647932
 21
251.0343296911551931
 31
0.0
  0
ARC
  5
9B75
  8
0
 10
4514.5430655554309851
 20
251.0301315933311059
 30
0.0
 40
0.0041980982514726
 50
89.9741446999872352
 51
165.8910908919719134
  0
LINE
  5
9B76
  8
0
 10
4514.5198917625393733
 20
251.0792345090127071
 30
0.0
 11
4514.454767018783059
 21
251.0668954090564
 31
0.0
  0
ARC
  5
9B77
  8
0
 10
4514.4617612566589742
 20
251.0715225097711141
 30
0.0
 40
0.0083862640363926
 50
191.3652282143845014
 51
213.486985641838686
  0
ARC
  5
9B78
  8
0
 10
4514.5366366873713559
 20
251.0858132406146979
 30
0.0
 40
0.0846129008236909
 50
188.4103204639934006
 51
190.8609951452793041
  0
LINE
  5
9B79
  8
0
 10
4514.4529337133817535
 20
251.0734376545179032
 30
0.0
 11
4514.4529337133817535
 21
251.1031787779598119
 31
0.0
  0
LINE
  5
9B7A
  8
0
 10
4514.5168121821579916
 20
251.08554014175769
 30
0.0
 11
4514.4529337133817535
 21
251.0734376545179032
 31
0.0
  0
LINE
  5
9B7B
  8
0
 10
4514.5893841359793441
 20
251.0924006587300141
 30
0.0
 11
4514.5349183992830149
 21
251.0820811068894045
 31
0.0
  0
ARC
  5
9B7C
  8
0
 10
4514.54191263715893
 20
251.0867082076042038
 30
0.0
 40
0.0083862640363926
 50
191.3652282143845014
 51
213.486985641838686
  0
ARC
  5
9B7D
  8
0
 10
4514.6167880678713118
 20
251.1009989384477024
 30
0.0
 40
0.0846129008236909
 50
188.4103204639934006
 51
190.8609951452793041
  0
LINE
  5
9B7E
  8
0
 10
4514.5330850938826188
 20
251.0886233523509929
 30
0.0
 11
4514.5330850938826188
 21
251.1360095734441131
 31
0.0
  0
LINE
  5
9B7F
  8
0
 10
4514.5861284119191623
 20
251.0986729996265012
 30
0.0
 11
4514.5330850938826188
 21
251.0886233523509929
 31
0.0
  0
LINE
  5
9B80
  8
0
 10
4514.592443277257189
 20
251.0343074098121008
 30
0.0
 11
4514.5924248965620791
 21
250.9824308602412088
 31
0.0
  0
ARC
  5
9B81
  8
0
 10
4514.576424517437772
 20
250.9824365294323059
 30
0.0
 40
0.016000380130284
 50
345.9268502340456735
 51
359.9796991865181894
  0
ARC
  5
9B82
  8
0
 10
4514.5731928728046114
 20
250.9832466526679866
 30
0.0
 40
0.0193320203695035
 50
338.9428015301396044
 51
345.9268502340473219
  0
ARC
  5
9B83
  8
0
 10
4514.5905677322389238
 20
250.9765571601660099
 30
0.0
 40
0.0007138826995124
 50
283.3103005635247769
 51
338.9428015301533037
  0
LINE
  5
9B84
  8
0
 10
4514.5907320856631486
 20
250.9758624541412075
 30
0.0
 11
4514.5329525762253979
 21
250.9868098622158925
 31
0.0
  0
LINE
  5
9B85
  8
0
 10
4514.5345794174027105
 20
250.9933907674424063
 30
0.0
 11
4514.5924248965620791
 21
250.9824308602412088
 31
0.0
  0
LINE
  5
9B86
  8
0
 10
4514.5614277756521915
 20
250.9814147034273049
 30
0.0
 11
4514.5614277756521915
 21
250.927616400560197
 31
0.0
  0
ARC
  5
9B87
  8
0
 10
4514.5541534236135703
 20
250.9276164055841889
 30
0.0
 40
0.0072743520391176
 50
337.725179017700782
 51
359.9999604287555144
  0
ARC
  5
9B88
  8
0
 10
4514.5430881537158712
 20
250.9321489283180995
 30
0.0
 40
0.019231942108014
 50
331.4318278375416185
 51
337.7251667848955776
  0
ARC
  5
9B89
  8
0
 10
4514.5568362371368494
 20
250.9246631341866021
 30
0.0
 40
0.0035779678030196
 50
307.6901567309359962
 51
331.4318278375358773
  0
ARC
  5
9B8A
  8
0
 10
4514.5581537827529246
 20
250.9229578239518048
 30
0.0
 40
0.0014229714113237
 50
264.5350039612374076
 51
307.690156730934973
  0
LINE
  5
9B8B
  8
0
 10
4514.5580182623525616
 20
250.921541320560209
 30
0.0
 11
4514.5095229881017076
 21
250.9413394333957967
 31
0.0
  0
LINE
  5
9B8C
  8
0
 10
4514.5133110124006635
 20
250.947259986940594
 30
0.0
 11
4514.5614277756521915
 21
250.927616400560197
 31
0.0
  0
LINE
  5
9B8D
  8
0
 10
4514.4583345441833444
 20
250.9622370280837913
 30
0.0
 11
4514.4583345441833444
 21
250.9178820345564134
 31
0.0
  0
ARC
  5
9B8E
  8
0
 10
4514.4516909070580368
 20
250.918444210486399
 30
0.0
 40
0.0066673799965428
 50
314.7367033480622922
 51
355.1632280045545826
  0
ARC
  5
9B8F
  8
0
 10
4514.4538344724142007
 20
250.916085190108987
 30
0.0
 40
0.0034856262762204
 50
262.3230953064147002
 51
317.0010522833956088
  0
LINE
  5
9B90
  8
0
 10
4514.4533688390329189
 20
250.9126308050564091
 30
0.0
 11
4514.4106768980363995
 21
250.9428227158363995
 31
0.0
  0
LINE
  5
9B91
  8
0
 10
4514.4164429399033907
 20
250.9475038720001123
 30
0.0
 11
4514.4583345441833444
 21
250.9178820345564134
 31
0.0
  0
LINE
  5
9B92
  8
0
 10
4514.4082893291315486
 20
250.9410433690493107
 30
0.0
 11
4514.4082799304169384
 21
250.8898072609364078
 31
0.0
  0
ARC
  5
9B93
  8
0
 10
4514.4033628045681326
 20
250.8903481040773045
 30
0.0
 40
0.00494678056178
 50
305.8527799013666026
 51
353.7231701195249798
  0
ARC
  5
9B94
  8
0
 10
4514.4033205539872142
 20
250.8897731677658953
 30
0.0
 40
0.0045207747746117
 50
268.6454701892628805
 51
310.5599319746124252
  0
ARC
  5
9B95
  8
0
 10
4514.4032793859878439
 20
250.887173799903195
 30
0.0
 40
0.0019212672414598
 50
221.6635260900748108
 51
268.0403896068821155
  0
LINE
  5
9B96
  8
0
 10
4514.4018440811832988
 20
250.8858966280564005
 30
0.0
 11
4514.3727445347003595
 21
250.9215363421753864
 31
0.0
  0
LINE
  5
9B97
  8
0
 10
4514.3797676790227342
 20
250.9247274945126946
 30
0.0
 11
4514.4082799304169384
 21
250.8898072609364078
 31
0.0
  0
LINE
  5
9B98
  8
0
 10
4514.3496586962801302
 20
250.9128187306214102
 30
0.0
 11
4514.3496548057828477
 21
250.87184974238329
 31
0.0
  0
ARC
  5
9B99
  8
0
 10
4514.3457204996402652
 20
250.8723868449743009
 30
0.0
 40
0.003970798915164
 50
293.0338725116083083
 51
352.2261657485137789
  0
ARC
  5
9B9A
  8
0
 10
4514.3450645143675501
 20
250.8728826431251093
 30
0.0
 40
0.0047016237203171
 50
251.3091723222457006
 51
298.0328808846456923
  0
ARC
  5
9B9B
  8
0
 10
4514.3443457975454294
 20
250.8706566543231986
 30
0.0
 40
0.002362932996235
 50
203.0506065401922058
 51
250.5203555099251105
  0
LINE
  5
9B9C
  8
0
 10
4514.3421715225831576
 20
250.869731462056393
 30
0.0
 11
4514.3279041335681541
 21
250.9073821780906997
 31
0.0
  0
LINE
  5
9B9D
  8
0
 10
4514.3355784106133797
 20
250.9089967640854013
 30
0.0
 11
4514.3496548057828477
 21
250.87184974238329
 31
0.0
  0
LINE
  5
9B9E
  8
0
 10
4514.2864543759833396
 20
250.903100263571389
 30
0.0
 11
4514.2864543759833396
 21
250.8652332530564024
 31
0.0
  0
ARC
  5
9B9F
  8
0
 10
4514.2836400063442852
 20
250.8654858006449047
 30
0.0
 40
0.0028256781041099
 50
294.6693661394409105
 51
354.8722945775973017
  0
ARC
  5
9BA0
  8
0
 10
4514.2825231186579913
 20
250.8673619123279082
 30
0.0
 40
0.0050021060769905
 50
269.9341309934471269
 51
297.326544802440992
  0
LINE
  5
9BA1
  8
0
 10
4514.5114233695821895
 20
250.9405636059038898
 30
0.0
 11
4514.5114233695821895
 21
250.880342566056413
 31
0.0
  0
ARC
  5
9BA2
  8
0
 10
4514.5047797324577914
 20
250.8809047419865124
 30
0.0
 40
0.0066673799965428
 50
314.7367033480622922
 51
355.1632280045545826
  0
ARC
  5
9BA3
  8
0
 10
4514.5069232978139553
 20
250.8785457216089867
 30
0.0
 40
0.0034856262762204
 50
262.3230953064147002
 51
317.0010522833956088
  0
LINE
  5
9BA4
  8
0
 10
4514.5064576644326735
 20
250.8750913365564088
 30
0.0
 11
4514.4691304007683357
 21
250.9014893261513919
 31
0.0
  0
LINE
  5
9BA5
  8
0
 10
4514.4750396513945816
 20
250.9060697398961963
 30
0.0
 11
4514.5114233695821895
 21
250.880342566056413
 31
0.0
  0
LINE
  5
9BA6
  8
0
 10
4514.4458271763742232
 20
250.8862286183606898
 30
0.0
 11
4514.4458193989830761
 21
250.8438309892563893
 31
0.0
  0
ARC
  5
9BA7
  8
0
 10
4514.4409022731333607
 20
250.8443718323972007
 30
0.0
 40
0.00494678056178
 50
305.8527799013666026
 51
353.7231701195249798
  0
ARC
  5
9BA8
  8
0
 10
4514.4408600225524424
 20
250.8437968960857916
 30
0.0
 40
0.0045207747746117
 50
268.6454701892628805
 51
310.5599319746124252
  0
ARC
  5
9BA9
  8
0
 10
4514.4408188545539815
 20
250.8411975282232049
 30
0.0
 40
0.0019212672414598
 50
221.6635260900748108
 51
268.0403896068821155
  0
LINE
  5
9BAA
  8
0
 10
4514.4393835497476175
 20
250.8399203563764104
 30
0.0
 11
4514.4145088799359655
 21
250.8703856463216937
 31
0.0
  0
LINE
  5
9BAB
  8
0
 10
4514.4215606976376876
 20
250.8735417092381113
 30
0.0
 11
4514.4458193989830761
 21
250.8438309892563893
 31
0.0
  0
LINE
  5
9BAC
  8
0
 10
4514.3690899460261789
 20
250.8551218683701052
 30
0.0
 11
4514.3690866648994415
 21
250.8205698739483012
 31
0.0
  0
ARC
  5
9BAD
  8
0
 10
4514.36515235875504
 20
250.821106976539312
 30
0.0
 40
0.003970798915164
 50
293.0338725116083083
 51
352.2261657485137789
  0
ARC
  5
9BAE
  8
0
 10
4514.3644963734850535
 20
250.8216027746900068
 30
0.0
 40
0.0047016237203171
 50
251.3091723222457006
 51
298.0328808846456923
  0
ARC
  5
9BAF
  8
0
 10
4514.3637776566620232
 20
250.8193767858882097
 30
0.0
 40
0.002362932996235
 50
203.0506065401922058
 51
250.5203555099251105
  0
LINE
  5
9BB0
  8
0
 10
4514.3616033816997515
 20
250.8184515936214041
 30
0.0
 11
4514.3493651622484322
 21
250.8507474625359919
 31
0.0
  0
LINE
  5
9BB1
  8
0
 10
4514.3570581824333203
 20
250.8523125391562871
 30
0.0
 11
4514.3690866648994415
 21
250.8205698739483012
 31
0.0
  0
LINE
  5
9BB2
  8
0
 10
4514.2864543759833396
 20
250.8444548393617026
 30
0.0
 11
4514.2864543759833396
 21
250.8121444274563885
 31
0.0
  0
ARC
  5
9BB3
  8
0
 10
4514.2836400063442852
 20
250.8123969750448907
 30
0.0
 40
0.0028256781041099
 50
294.6693661394409105
 51
354.8722945775973017
  0
ARC
  5
9BB4
  8
0
 10
4514.2825231186579913
 20
250.8142730867278942
 30
0.0
 40
0.0050021060769905
 50
269.9341309934471269
 51
297.326544802440992
  0
LINE
  5
9BB5
  8
0
 10
4514.3944151310197412
 20
251.1126463860514093
 30
0.0
 11
4514.3525266773976909
 21
251.0825340541466915
 31
0.0
  0
ARC
  5
9BB6
  8
0
 10
4514.3511804325089543
 20
251.0838405024589974
 30
0.0
 40
0.0018759484246351
 50
267.0877264436426799
 51
315.8595056479867935
  0
ARC
  5
9BB7
  8
0
 10
4514.3513136878918885
 20
251.0864598974521016
 30
0.0
 40
0.0044987307500538
 50
244.9849741191096939
 51
267.0877264436426799
  0
ARC
  5
9BB8
  8
0
 10
4514.3518201297893029
 20
251.0875452224032074
 30
0.0
 40
0.0056964008399161
 50
215.9118384585370052
 51
244.9849741191096939
  0
ARC
  5
9BB9
  8
0
 10
4514.351343869793709
 20
251.0872003176716021
 30
0.0
 40
0.0051083678002457
 50
191.9698749484732048
 51
215.9118384585383126
  0
ARC
  5
9BBA
  8
0
 10
4514.3483871641747101
 20
251.0865734751266984
 30
0.0
 40
0.0020859449801404
 50
155.506722825192611
 51
191.9698749484732048
  0
LINE
  5
9BBB
  8
0
 10
4514.3464889335436965
 20
251.0874382796907014
 30
0.0
 11
4514.3464889438873797
 21
251.1341402131816949
 31
0.0
  0
LINE
  5
9BBC
  8
0
 10
4514.3877523697401557
 20
251.1166159314622917
 30
0.0
 11
4514.3464889335436965
 21
251.0874382796907014
 31
0.0
  0
LINE
  5
9BBD
  8
0
 10
4514.3357266440971216
 20
251.0710693524324881
 30
0.0
 11
4514.2995208468291821
 21
251.0454679889992065
 31
0.0
  0
LINE
  5
9BBE
  8
0
 10
4514.3286404169321031
 20
251.0748174692614896
 30
0.0
 11
4514.2931752600452455
 21
251.0497398195772973
 31
0.0
  0
LINE
  5
9BBF
  8
0
 10
4514.2864543760297238
 20
251.1431687445839884
 30
0.0
 11
4514.2864543759078515
 21
251.1050217689914064
 31
0.0
  0
ARC
  5
9BC0
  8
0
 10
4514.2843318135828667
 20
251.1050217689981991
 30
0.0
 40
0.0021225623251029
 50
305.4031380275533252
 51
359.9999998158489802
  0
ARC
  5
9BC1
  8
0
 10
4514.2824460648880631
 20
251.107674967433212
 30
0.0
 40
0.0053776368364801
 50
270.7597188015931238
 51
305.4031380275524157
  0
LINE
  5
9BC2
  8
0
 10
4514.4474189803268018
 20
251.0410504291563996
 30
0.0
 11
4514.376923843982695
 21
251.0410504291563996
 31
0.0
  0
ARC
  5
9BC3
  8
0
 10
4514.376923843982695
 20
251.0452879644990958
 30
0.0
 40
0.0042375353427051
 50
201.8488159929447079
 51
270.0
  0
LINE
  5
9BC4
  8
0
 10
4514.3729906946828123
 20
251.0437109285564077
 30
0.0
 11
4514.3729906946828123
 21
251.0972450121151951
 31
0.0
  0
LINE
  5
9BC5
  8
0
 10
4514.4482244252321834
 20
251.0342975555375062
 30
0.0
 11
4514.3770111367821301
 21
251.0343296912564028
 31
0.0
  0
ARC
  5
9BC6
  8
0
 10
4514.377009242348322
 20
251.0301315934324009
 30
0.0
 40
0.0041980982514726
 50
89.9741446999872352
 51
165.8910908919719134
  0
LINE
  5
9BC7
  8
0
 10
4514.3996530550821262
 20
251.0343194738609895
 30
0.0
 11
4514.3996530550821262
 21
250.9593761133563987
 31
0.0
  0
ARC
  5
9BC8
  8
0
 10
4514.3930094179577281
 20
250.959938289286498
 30
0.0
 40
0.0066673799965428
 50
314.7367033480622922
 51
355.1632280045545826
  0
ARC
  5
9BC9
  8
0
 10
4514.395152983313892
 20
250.9575792689090008
 30
0.0
 40
0.0034856262762204
 50
262.3230953064147002
 51
317.0010522833956088
  0
LINE
  5
9BCA
  8
0
 10
4514.3946873499317007
 20
250.9541248838563945
 30
0.0
 11
4514.3516567834949456
 21
250.9845562718973042
 31
0.0
  0
LINE
  5
9BCB
  8
0
 10
4514.3570927983400907
 20
250.9894707594903025
 30
0.0
 11
4514.3996530550821262
 21
250.9593761133563987
 31
0.0
  0
LINE
  5
9BCC
  8
0
 10
4514.2864543759833396
 20
250.9618336983959068
 30
0.0
 11
4514.2864543759833396
 21
250.9239460346643966
 31
0.0
  0
ARC
  5
9BCD
  8
0
 10
4514.2836400063442852
 20
250.9241985822528989
 30
0.0
 40
0.0028256781041099
 50
294.6693661394409105
 51
354.8722945775973017
  0
ARC
  5
9BCE
  8
0
 10
4514.2825231186579913
 20
250.9260746939359024
 30
0.0
 40
0.0050021060769905
 50
269.9341309934471269
 51
297.326544802440992
  0
LINE
  5
9BCF
  8
0
 10
4514.3408747304829376
 20
251.0343295362563936
 30
0.0
 11
4514.3408747304829376
 21
251.0009386653098886
 31
0.0
  0
ARC
  5
9BD0
  8
0
 10
4514.33423109335763
 20
251.0015008412399879
 30
0.0
 40
0.0066673799965428
 50
314.7367033480622922
 51
355.1632280045545826
  0
ARC
  5
9BD1
  8
0
 10
4514.3363746587128844
 20
250.9991418208624907
 30
0.0
 40
0.0034856262762204
 50
262.3230953064147002
 51
317.0010522833956088
  0
LINE
  5
9BD2
  8
0
 10
4514.3359090253334216
 20
250.9956874358099128
 30
0.0
 11
4514.2936861212829172
 21
251.0255472128563952
 31
0.0
  0
LINE
  5
9BD3
  8
0
 10
4514.298743038782959
 20
251.030730270256413
 30
0.0
 11
4514.3408747304829376
 21
251.0009386653098886
 31
0.0
  0
LINE
  5
9BD4
  8
0
 10
4514.2864543759833396
 20
251.0248247584563899
 30
0.0
 11
4514.2864543759833396
 21
250.9826930706564099
 31
0.0
  0
ARC
  5
9BD5
  8
0
 10
4514.2836400063442852
 20
250.9829456182449121
 30
0.0
 40
0.0028256781041099
 50
294.6693661394409105
 51
354.8722945775973017
  0
ARC
  5
9BD6
  8
0
 10
4514.2825231186579913
 20
250.9848217299278019
 30
0.0
 40
0.0050021060769905
 50
269.9341309934471269
 51
297.326544802440992
  0
LINE
  5
9BD7
  8
0
 10
4514.3629883407020316
 20
251.0410504291563996
 30
0.0
 11
4514.3015269236830136
 21
251.0410504291563996
 31
0.0
  0
ARC
  5
9BD8
  8
0
 10
4514.3015269236830136
 20
251.0460949672184938
 30
0.0
 40
0.0050445380621111
 50
232.4550117286705984
 51
270.0
  0
ARC
  5
9BD9
  8
0
 10
4514.2997991663878565
 20
251.0438469670407926
 30
0.0
 40
0.0022092867383452
 50
180.3281450785574123
 51
232.4550117286212867
  0
ARC
  5
9BDA
  8
0
 10
4514.3023586722483742
 20
251.0401558312605061
 30
0.0
 40
0.006022646672681
 50
118.1117265119542026
 51
142.3544290669429984
  0
LINE
  5
9BDB
  8
0
 10
4514.3648507986090408
 20
251.0343295362563936
 30
0.0
 11
4514.3015269236830136
 21
251.0343295362563936
 31
0.0
  0
ARC
  5
9BDC
  8
0
 10
4514.3015269236830136
 20
251.0276388502078078
 30
0.0
 40
0.0066906860485831
 50
90.0
 51
114.5875760185003003
  0
ARC
  5
9BDD
  8
0
 10
4514.2998391306682606
 20
251.0313274228377054
 30
0.0
 40
0.0026343067137625
 50
114.5875760185009966
 51
148.6292420300252104
  0
ARC
  5
9BDE
  8
0
 10
4514.3000570789863559
 20
251.0328220110195048
 30
0.0
 40
0.0024702390721121
 50
182.8595931206498904
 51
237.8627917120770121
  0
ARC
  5
9BDF
  8
0
 10
4514.2903558748248543
 20
251.0199267556126017
 30
0.0
 40
0.0065329993952485
 50
59.3523113270866318
 51
113.6056564589918025
  0
ARC
  5
9BE0
  8
0
 10
4514.2889168946494465
 20
251.0232195649614084
 30
0.0
 40
0.0029394972937852
 50
113.6056564589930957
 51
146.9016692368151951
  0
LINE
  5
9BE1
  8
0
 10
4514.2864543759833396
 20
251.0845553570676998
 30
0.0
 11
4514.2864543759833396
 21
251.0517083298564103
 31
0.0
  0
ARC
  5
9BE2
  8
0
 10
4514.2838286842970774
 20
251.0519108577996974
 30
0.0
 40
0.0026334909139637
 50
297.8959989089473197
 51
355.5893277622798792
  0
ARC
  5
9BE3
  8
0
 10
4514.2822754918533974
 20
251.0550962657434013
 30
0.0
 40
0.0061765586835011
 50
272.2442969138143098
 51
296.8046480892173236
  0
ARC
  5
9BE4
  8
0
 10
4514.2893239052809804
 20
251.0520272208609072
 30
0.0
 40
0.0028871941164877
 50
186.3412650123956951
 51
254.9032053518334067
  0
ARC
  5
9BE5
  8
0
 10
4514.2903961008341867
 20
251.0543566030121951
 30
0.0
 40
0.0054323630439712
 50
250.3790402403818121
 51
284.9492503207089271
  0
ARC
  5
9BE6
  8
0
 10
4514.2912386558136859
 20
251.0521452486914882
 30
0.0
 40
0.0030881264815596
 50
280.4250852092608284
 51
308.837443865562193
  0
ARC
  5
9BE7
  8
0
 10
4514.2831953540608083
 20
251.2175901199777002
 30
0.0
 40
0.6252195467316088
 50
75.7199516497937992
 51
90.0621313632379525
  0
ARC
  5
9BE8
  8
0
 10
4514.3111113940512951
 20
251.3272686633596038
 30
0.0
 40
0.5120440716183934
 50
51.4642357864190885
 51
75.719951668131003
  0
ARC
  5
9BE9
  8
0
 10
4514.4508529581371477
 20
251.5027229751127891
 30
0.0
 40
0.2877408833980835
 50
28.9753304577875603
 51
51.4642357864190885
  0
ARC
  5
9BEA
  8
0
 10
4514.4549781477380748
 20
251.5050072837003086
 30
0.0
 40
0.2830254560603364
 50
14.6326326104098907
 51
28.9753304577875603
  0
ARC
  5
9BEB
  8
0
 10
4514.5328287063593962
 20
251.5253331902864034
 30
0.0
 40
0.2025652052772146
 50
1.9775110722358511
 51
14.6326326104098907
  0
ARC
  5
9BEC
  8
0
 10
4514.2837590336412177
 20
251.2386408450572901
 30
0.0
 40
0.6180891260776241
 50
72.6785712960390953
 51
90.1151003000988311
  0
ARC
  5
9BED
  8
0
 10
4514.3212875474182511
 20
251.358972503197009
 30
0.0
 40
0.4920411300722973
 50
52.4413228335171624
 51
72.6785712960390953
  0
ARC
  5
9BEE
  8
0
 10
4514.4291471244341665
 20
251.4992401728609082
 30
0.0
 40
0.3150984627846452
 50
27.3976419977793597
 51
52.4413228335171624
  0
ARC
  5
9BEF
  8
0
 10
4514.5019766600489675
 20
251.536987615875006
 30
0.0
 40
0.2330679153513762
 50
12.2299261634224692
 51
27.3976419977779209
  0
ARC
  5
9BF0
  8
0
 10
4514.3758137472732415
 20
251.5096412442912026
 30
0.0
 40
0.3621605355858708
 50
7.0019723533947733
 51
12.2299261634224692
  0
LINE
  5
9BF1
  8
0
 10
4513.1211000452831286
 20
243.1368978219956887
 30
0.0
 11
4515.4195839521044036
 21
243.1368978219956887
 31
0.0
  0
ENDSEC
  0
EOF
