  0
SECTION
  2
HEADER
  9
$ACADVER
  1
AC1009
  9
$INSBASE
 10
3833.1631036920280167
 20
123.8915571039657948
 30
0.0
  9
$EXTMIN
 10
3787.962183456441835
 20
111.5751418703789
 30
0.0
  9
$EXTMAX
 10
3848.5568044793781155
 20
151.3486524583317987
 30
0.0
  9
$LIMMIN
 10
0.0
 20
0.0
  9
$LIMMAX
 10
11.6929133858000007
 20
8.2677165353999982
  9
$ORTHOMODE
 70
     0
  9
$REGENMODE
 70
     1
  9
$FILLMODE
 70
     1
  9
$QTEXTMODE
 70
     0
  9
$MIRRTEXT
 70
     0
  9
$DRAGMODE
 70
     2
  9
$LTSCALE
 40
0.6431102362
  9
$OSMODE
 70
  4095
  9
$ATTMODE
 70
     1
  9
$TEXTSIZE
 40
0.2
  9
$TRACEWID
 40
0.05
  9
$TEXTSTYLE
  7
STANDARD
  9
$CLAYER
  8
0
  9
$CELTYPE
  6
BYLAYER
  9
$CECOLOR
 62
   256
  9
$DIMSCALE
 40
1.0
  9
$DIMASZ
 40
0.1875
  9
$DIMEXO
 40
0.0625
  9
$DIMDLI
 40
0.4443307087
  9
$DIMRND
 40
0.0
  9
$DIMDLE
 40
0.0
  9
$DIMEXE
 40
0.125
  9
$DIMTP
 40
0.01
  9
$DIMTM
 40
0.01
  9
$DIMTXT
 40
2.0
  9
$DIMCEN
 40
0.1052362205
  9
$DIMTSZ
 40
0.0
  9
$DIMTOL
 70
     1
  9
$DIMLIM
 70
     0
  9
$DIMTIH
 70
     1
  9
$DIMTOH
 70
     1
  9
$DIMSE1
 70
     0
  9
$DIMSE2
 70
     0
  9
$DIMTAD
 70
     0
  9
$DIMZIN
 70
     0
  9
$DIMBLK
  1

  9
$DIMASO
 70
     1
  9
$DIMSHO
 70
     1
  9
$DIMPOST
  1
\X
  9
$DIMAPOST
  1

  9
$DIMALT
 70
     1
  9
$DIMALTD
 70
     2
  9
$DIMALTF
 40
25.3999999999999986
  9
$DIMLFAC
 40
1.0
  9
$DIMTOFL
 70
     0
  9
$DIMTVP
 40
0.0
  9
$DIMTIX
 70
     0
  9
$DIMSOXD
 70
     0
  9
$DIMSAH
 70
     0
  9
$DIMBLK1
  1

  9
$DIMBLK2
  1

  9
$DIMSTYLE
  2
STANDARD
  9
$DIMCLRD
 70
     0
  9
$DIMCLRE
 70
     0
  9
$DIMCLRT
 70
     0
  9
$DIMTFAC
 40
1.0
  9
$DIMGAP
 40
0.09
  9
$LUNITS
 70
     2
  9
$LUPREC
 70
     4
  9
$SKETCHINC
 40
0.1
  9
$FILLETRAD
 40
0.0
  9
$AUNITS
 70
     0
  9
$AUPREC
 70
     0
  9
$MENU
  1
.
  9
$ELEVATION
 40
0.0
  9
$PELEVATION
 40
0.0
  9
$THICKNESS
 40
0.0
  9
$LIMCHECK
 70
     0
  9
$BLIPMODE
 70
     0
  9
$CHAMFERA
 40
0.0
  9
$CHAMFERB
 40
0.0
  9
$SKPOLY
 70
     0
  9
$TDCREATE
 40
2458060.468368056230247
  9
$TDUPDATE
 40
2459079.5346874999813735
  9
$TDINDWG
 40
0.392946875
  9
$TDUSRTIMER
 40
0.392946875
  9
$USRTIMER
 70
     1
  9
$ANGBASE
 50
0.0
  9
$ANGDIR
 70
     0
  9
$PDMODE
 70
     0
  9
$PDSIZE
 40
0.3125
  9
$PLINEWID
 40
0.0
  9
$COORDS
 70
     1
  9
$SPLFRAME
 70
     0
  9
$SPLINETYPE
 70
     6
  9
$SPLINESEGS
 70
     8
  9
$ATTDIA
 70
     1
  9
$ATTREQ
 70
     1
  9
$HANDLING
 70
     1
  9
$HANDSEED
  5
6A7A
  9
$SURFTAB1
 70
     6
  9
$SURFTAB2
 70
     6
  9
$SURFTYPE
 70
     6
  9
$SURFU
 70
     6
  9
$SURFV
 70
     6
  9
$UCSNAME
  2

  9
$UCSORG
 10
0.0
 20
0.0
 30
0.0
  9
$UCSXDIR
 10
1.0
 20
0.0
 30
0.0
  9
$UCSYDIR
 10
0.0
 20
1.0
 30
0.0
  9
$PUCSNAME
  2

  9
$PUCSORG
 10
0.0
 20
0.0
 30
0.0
  9
$PUCSXDIR
 10
1.0
 20
0.0
 30
0.0
  9
$PUCSYDIR
 10
0.0
 20
1.0
 30
0.0
  9
$USERI1
 70
     0
  9
$USERI2
 70
     0
  9
$USERI3
 70
     0
  9
$USERI4
 70
     0
  9
$USERI5
 70
     0
  9
$USERR1
 40
0.0
  9
$USERR2
 40
0.0
  9
$USERR3
 40
0.0
  9
$USERR4
 40
0.0
  9
$USERR5
 40
0.0
  9
$WORLDVIEW
 70
     1
  9
$SHADEDGE
 70
     3
  9
$SHADEDIF
 70
    70
  9
$TILEMODE
 70
     1
  9
$MAXACTVP
 70
    64
  9
$PLIMCHECK
 70
     0
  9
$PEXTMIN
 10
1.0000000000000000E+20
 20
1.0000000000000000E+20
 30
1.0000000000000000E+20
  9
$PEXTMAX
 10
-1.0000000000000000E+20
 20
-1.0000000000000000E+20
 30
-1.0000000000000000E+20
  9
$PLIMMIN
 10
0.0
 20
0.0
  9
$PLIMMAX
 10
12.0
 20
9.0
  9
$UNITMODE
 70
     0
  9
$VISRETAIN
 70
     1
  9
$PLINEGEN
 70
     0
  9
$PSLTSCALE
 70
     1
  0
ENDSEC
  0
SECTION
  2
TABLES
  0
TABLE
  2
VPORT
 70
     1
  0
VPORT
  2
*ACTIVE
 70
     0
 10
0.0
 20
0.0
 11
1.0
 21
1.0
 12
134.8888215149353016
 22
-10.6997250784295392
 13
0.0
 23
0.0
 14
1.0
 24
1.0
 15
0.0
 25
0.0
 16
0.0
 26
0.0
 36
57.9818139787255973
 17
3750.841064453125
 27
131.5351943969725994
 37
0.0
 40
137.6233906876190929
 41
2.005224660397074
 42
50.0
 43
0.0
 44
0.0
 50
0.0
 51
0.0
 71
     0
 72
   100
 73
     1
 74
     1
 75
     0
 76
     0
 77
     0
 78
     0
  0
ENDTAB
  0
TABLE
  2
LTYPE
 70
     2
  0
LTYPE
  2
CONTINUOUS
 70
     0
  3
Solid line
 72
    65
 73
     0
 40
0.0
  0
LTYPE
  2
PHANTOM2
 70
     0
  3
___ _ _ ___ _ _ ___ _ _ ___ _ _
 72
    65
 73
     6
 40
1.25
 49
0.625
 49
-0.125
 49
0.125
 49
-0.125
 49
0.125
 49
-0.125
  0
ENDTAB
  0
TABLE
  2
LAYER
 70
     2
  0
LAYER
  2
0
 70
     0
 62
   255
  6
CONTINUOUS
  0
LAYER
  2
DEFPOINTS
 70
     0
 62
     7
  6
CONTINUOUS
  0
ENDTAB
  0
TABLE
  2
STYLE
 70
     1
  0
STYLE
  2
STANDARD
 70
     0
 40
0.0
 41
0.8
 50
0.0
 71
     0
 42
0.2
  3
txt
  4

  0
ENDTAB
  0
TABLE
  2
VIEW
 70
     0
  0
ENDTAB
  0
TABLE
  2
UCS
 70
     0
  0
ENDTAB
  0
TABLE
  2
APPID
 70
     9
  0
APPID
  2
ACAD
 70
     0
  0
APPID
  2
ACAD_MLEADERVER
 70
     0
  0
APPID
  2
ACAD_EXEMPT_FROM_CAD_STANDARDS
 70
     0
  0
APPID
  2
ACAD_NAV_VCDISPLAY
 70
     0
  0
APPID
  2
ACAECLAYERSTANDARD
 70
     0
  0
APPID
  2
ACCMTRANSPARENCY
 70
     0
  0
APPID
  2
ACAD_DSTYLE_DIMJAG
 70
     0
  0
APPID
  2
ACAD_DSTYLE_DIMTALN
 70
     0
  0
APPID
  2
ACDBATTR
 70
     0
  0
ENDTAB
  0
TABLE
  2
DIMSTYLE
 70
     1
  0
DIMSTYLE
  2
STANDARD
 70
     0
  3

  4

  5

  6

  7

 40
1.0
 41
0.1875
 42
0.0625
 43
0.38
 44
0.125
 45
0.0
 46
0.0
 47
0.01
 48
0.01
140
0.15625
141
0.09
142
0.0
143
25.3999999999999986
144
1.0
145
0.0
146
1.0
147
0.09
 71
     1
 72
     0
 73
     1
 74
     1
 75
     0
 76
     0
 77
     0
 78
     4
170
     0
171
     2
172
     0
173
     0
174
     0
175
     0
176
     0
177
     0
178
     0
  0
ENDTAB
  0
ENDSEC
  0
SECTION
  2
BLOCKS
  0
BLOCK
  8
0
  2
$MODEL_SPACE
 70
     0
 10
0.0
 20
0.0
 30
0.0
  3
$MODEL_SPACE
  1

  0
ENDBLK
  5
21
  8
0
  0
BLOCK
 67
     1
  8
0
  2
$PAPER_SPACE
 70
     0
 10
0.0
 20
0.0
 30
0.0
  3
$PAPER_SPACE
  1

  0
ENDBLK
  5
1D
 67
     1
  8
0
  0
BLOCK
  8
0
  2
_FILLED
 70
     0
 10
0.0
 20
0.0
 30
0.0
  3
_FILLED
  1

  0
SOLID
  5
635C
  8
0
  6
BYBLOCK
 62
     0
 10
0.0
 20
0.0
 30
0.0
 11
-1.0
 21
0.1666666667
 31
0.0
 12
-1.0
 22
-0.1666666667
 32
0.0
 13
-1.0
 23
-0.1666666667
 33
0.0
  0
ENDBLK
  5
635D
  8
0
  6
BYBLOCK
 62
     0
  0
BLOCK
  8
0
  2
A$C389C6A6F
 70
     0
 10
0.0
 20
0.0
 30
0.0
  3
A$C389C6A6F
  1

  0
LINE
  5
65E7
  8
0
 10
2.1259842907416409
 20
1.3761042435488371
 30
0.0
 11
2.1259842907416409
 21
0.395646962715908
 31
0.0
  0
LINE
  5
65E8
  8
0
 10
23.6614173615416483
 20
1.3760037655198469
 30
0.0
 11
23.6614173615416412
 21
0.3956469627159009
 31
0.0
  0
LINE
  5
65E9
  8
0
 10
0.8876524923260618
 20
1.376003740032004
 30
0.0
 11
24.9015820721394796
 21
1.3760037669078069
 31
0.0
  0
LINE
  5
65EA
  8
0
 10
24.9026135717382111
 20
0.3956469627159009
 30
0.0
 11
0.8866137625287819
 21
0.3956469627159009
 31
0.0
  0
ARC
  5
65EB
  8
0
 10
0.8858268103416406
 20
0.8858267354725911
 30
0.0
 40
0.4901804044569147
 50
89.7866007835059747
 51
270.0919846203599946
  0
ARC
  5
65EC
  8
0
 10
24.9034005239260701
 20
0.8858267354725911
 30
0.0
 40
0.8858267717000002
 50
213.5977265379464995
 51
146.4024863976835036
  0
ARC
  5
65ED
  8
0
 10
24.9034005239260701
 20
0.8858267354725911
 30
0.0
 40
0.4901804044569147
 50
269.9080153796404034
 51
90.2133992164940111
  0
CIRCLE
  5
65EE
  8
0
 10
0.8858268103416406
 20
0.8858267354725911
 30
0.0
 40
0.8858267717000032
  0
LINE
  5
65EF
  8
0
 62
     4
 10
12.8946172822327707
 20
0.8858267354725911
 30
0.0
 11
16.8974798135066884
 21
4.5887724949441369
 31
0.0
  0
ENDBLK
  5
65F1
  8
0
  0
ENDSEC
  0
SECTION
  2
ENTITIES
  0
ATTDEF
  5
3930
  8
DEFPOINTS
 10
3833.1636962388961365
 20
123.8939894673170983
 30
0.0
 40
0.001
  1
K-98460T
  3

  2
MODELNUMBER
 70
     0
1001
ACDBATTR
1070
     0
1070
     1
  0
ATTDEF
  5
3931
  8
DEFPOINTS
 10
3833.1636962388961365
 20
123.8923228006505042
 30
0.0
 40
0.001
  1
LOURE
  3

  2
TRADENAME
 70
     0
1001
ACDBATTR
1070
     0
1070
     1
  0
ATTDEF
  5
3932
  8
DEFPOINTS
 10
3833.1636962388961365
 20
123.8906561339837964
 30
0.0
 40
0.001
  1
TOWEL ARM
  3

  2
PRODUCT
 70
     0
1001
ACDBATTR
1070
     0
1070
     1
  0
LINE
  5
69E4
  8
0
 10
3827.8481430620781794
 20
123.8915571039657948
 30
0.0
 11
3838.478064321977854
 21
123.8915571039657948
 31
0.0
  0
LINE
  5
69E5
  8
0
 10
3838.478064321977854
 20
123.8915571039657948
 30
0.0
 11
3838.478064321977854
 21
124.600218521265802
 31
0.0
  0
ARC
  5
69E6
  8
0
 10
3838.3599540856071144
 20
124.6002185210945044
 30
0.0
 40
0.1181102363714315
 50
0.0000000831231096
 51
89.9999999652685432
  0
ARC
  5
69E7
  8
0
 10
3827.9662532984489189
 20
124.6002185210951012
 30
0.0
 40
0.1181102363708559
 50
90.0000000346272486
 51
179.9999999171569982
  0
LINE
  5
69E8
  8
0
 10
3827.8481430620781794
 20
123.8915571039657948
 30
0.0
 11
3827.8481430620781794
 21
124.600218521265802
 31
0.0
  0
LINE
  5
69E9
  8
0
 10
3827.9662532984489189
 20
124.7183287574657982
 30
0.0
 11
3838.3599540856071144
 21
124.7183287574657982
 31
0.0
  0
LINE
  5
69EA
  8
0
 10
3832.6709777077780927
 20
124.7183287574657982
 30
0.0
 11
3832.6709777077780927
 21
149.4269901747657912
 31
0.0
  0
LINE
  5
69EB
  8
0
 10
3848.5568044793781155
 20
149.4269901747657912
 30
0.0
 11
3824.1473556604778423
 21
149.4269901747657912
 31
0.0
  0
LINE
  5
69EC
  8
0
 10
3824.1473556604778423
 20
150.2143917495658059
 30
0.0
 11
3848.5568044793781155
 21
150.2143917495658059
 31
0.0
  0
LINE
  5
69ED
  8
0
 10
3848.5568044793781155
 20
150.2143917495658059
 30
0.0
 11
3848.5568044793781155
 21
149.4269901747657912
 31
0.0
  0
LINE
  5
69EE
  8
0
 10
3833.6552296762779406
 20
149.4269901747657912
 30
0.0
 11
3833.6552296762779406
 21
124.7183287574657982
 31
0.0
  0
LINE
  5
69EF
  8
0
 10
3824.1473556604778423
 20
150.2143917495658059
 30
0.0
 11
3824.1473556604778423
 21
149.4269901747657912
 31
0.0
  0
LINE
  5
69F0
  8
0
 10
3828.1003763797780266
 20
123.8915571039657948
 30
0.0
 11
3828.1003763797780266
 21
123.7734468676657968
 31
0.0
  0
LINE
  5
69F1
  8
0
 10
3828.1003763797780266
 20
123.7734468676657968
 30
0.0
 11
3834.8422370266771395
 21
123.7734468676657968
 31
0.0
  0
LINE
  5
69F2
  8
0
 10
3834.8422370266771395
 20
123.7734468676657968
 30
0.0
 11
3834.8422370266771395
 21
123.8915571039657948
 31
0.0
  0
LINE
  5
69F3
  8
0
 10
3836.0361920746781834
 20
123.891557103865793
 30
0.0
 11
3836.0361965062779745
 21
123.7734468676657968
 31
0.0
  0
LINE
  5
69F4
  8
0
 10
3836.0361965062779745
 20
123.7734468676657968
 30
0.0
 11
3838.3205840069781516
 21
123.7734468676657968
 31
0.0
  0
LINE
  5
69F5
  8
0
 10
3838.3205840069781516
 20
123.7734468676657968
 30
0.0
 11
3838.3205840069781516
 21
123.891557103865793
 31
0.0
  0
LINE
  5
69F6
  8
0
 10
3836.5466976695779522
 20
123.8915571039657948
 30
0.0
 11
3836.5466976695779522
 21
123.7734468676657968
 31
0.0
  0
ENDSEC
  0
EOF
