  0
SECTION
  2
HEADER
  9
$ACADVER
  1
AC1009
  9
$INSBASE
 10
311.0221743985507032
 20
5.70931598819186
 30
0.0
  9
$EXTMIN
 10
307.6426943578322266
 20
-32.1156017904210032
 30
-0.0000000000112498
  9
$EXTMAX
 10
311.613166794563881
 20
14.6782915654478892
 30
0.0000000000002956
  9
$LIMMIN
 10
0.0
 20
0.0
  9
$LIMMAX
 10
22.0
 20
17.0
  9
$ORTHOMODE
 70
     0
  9
$REGENMODE
 70
     1
  9
$FILLMODE
 70
     1
  9
$QTEXTMODE
 70
     0
  9
$MIRRTEXT
 70
     0
  9
$DRAGMODE
 70
     2
  9
$LTSCALE
 40
1.2099999999999991
  9
$OSMODE
 70
     7
  9
$ATTMODE
 70
     1
  9
$TEXTSIZE
 40
0.2
  9
$TRACEWID
 40
0.05
  9
$TEXTSTYLE
  7
STANDARD
  9
$CLAYER
  8
0
  9
$CELTYPE
  6
BYLAYER
  9
$CECOLOR
 62
   256
  9
$DIMSCALE
 40
1.0
  9
$DIMASZ
 40
0.1875
  9
$DIMEXO
 40
0.0625
  9
$DIMDLI
 40
0.38
  9
$DIMRND
 40
0.0
  9
$DIMDLE
 40
0.0
  9
$DIMEXE
 40
0.125
  9
$DIMTP
 40
1.5
  9
$DIMTM
 40
1.5
  9
$DIMTXT
 40
1.5
  9
$DIMCEN
 40
0.09
  9
$DIMTSZ
 40
0.0
  9
$DIMTOL
 70
     0
  9
$DIMLIM
 70
     0
  9
$DIMTIH
 70
     1
  9
$DIMTOH
 70
     1
  9
$DIMSE1
 70
     0
  9
$DIMSE2
 70
     0
  9
$DIMTAD
 70
     0
  9
$DIMZIN
 70
     4
  9
$DIMBLK
  1

  9
$DIMASO
 70
     1
  9
$DIMSHO
 70
     1
  9
$DIMPOST
  1

  9
$DIMAPOST
  1

  9
$DIMALT
 70
     0
  9
$DIMALTD
 70
     2
  9
$DIMALTF
 40
25.3999999999999986
  9
$DIMLFAC
 40
1.0
  9
$DIMTOFL
 70
     0
  9
$DIMTVP
 40
0.0
  9
$DIMTIX
 70
     0
  9
$DIMSOXD
 70
     0
  9
$DIMSAH
 70
     0
  9
$DIMBLK1
  1

  9
$DIMBLK2
  1

  9
$DIMSTYLE
  2
STANDARD
  9
$DIMCLRD
 70
     0
  9
$DIMCLRE
 70
     0
  9
$DIMCLRT
 70
     0
  9
$DIMTFAC
 40
1.0
  9
$DIMGAP
 40
0.09
  9
$LUNITS
 70
     2
  9
$LUPREC
 70
     4
  9
$SKETCHINC
 40
0.1
  9
$FILLETRAD
 40
0.0
  9
$AUNITS
 70
     0
  9
$AUPREC
 70
     0
  9
$MENU
  1
.
  9
$ELEVATION
 40
0.0
  9
$PELEVATION
 40
0.0
  9
$THICKNESS
 40
0.0
  9
$LIMCHECK
 70
     0
  9
$BLIPMODE
 70
     0
  9
$CHAMFERA
 40
0.0
  9
$CHAMFERB
 40
0.0
  9
$SKPOLY
 70
     0
  9
$TDCREATE
 40
2457827.4934837957844138
  9
$TDUPDATE
 40
2459564.5532175931148231
  9
$TDINDWG
 40
0.4991802083
  9
$TDUSRTIMER
 40
0.4991802083
  9
$USRTIMER
 70
     1
  9
$ANGBASE
 50
0.0
  9
$ANGDIR
 70
     0
  9
$PDMODE
 70
     0
  9
$PDSIZE
 40
0.3125
  9
$PLINEWID
 40
0.0
  9
$COORDS
 70
     1
  9
$SPLFRAME
 70
     0
  9
$SPLINETYPE
 70
     6
  9
$SPLINESEGS
 70
     8
  9
$ATTDIA
 70
     1
  9
$ATTREQ
 70
     1
  9
$HANDLING
 70
     1
  9
$HANDSEED
  5
69BB
  9
$SURFTAB1
 70
     6
  9
$SURFTAB2
 70
     6
  9
$SURFTYPE
 70
     6
  9
$SURFU
 70
     6
  9
$SURFV
 70
     6
  9
$UCSNAME
  2

  9
$UCSORG
 10
0.0
 20
0.0
 30
0.0
  9
$UCSXDIR
 10
1.0
 20
0.0
 30
0.0
  9
$UCSYDIR
 10
0.0
 20
1.0
 30
0.0
  9
$PUCSNAME
  2

  9
$PUCSORG
 10
0.0
 20
0.0
 30
0.0
  9
$PUCSXDIR
 10
1.0
 20
0.0
 30
0.0
  9
$PUCSYDIR
 10
0.0
 20
1.0
 30
0.0
  9
$USERI1
 70
     0
  9
$USERI2
 70
     0
  9
$USERI3
 70
     0
  9
$USERI4
 70
     0
  9
$USERI5
 70
     0
  9
$USERR1
 40
0.0
  9
$USERR2
 40
0.0
  9
$USERR3
 40
0.0
  9
$USERR4
 40
0.0
  9
$USERR5
 40
0.0
  9
$WORLDVIEW
 70
     1
  9
$SHADEDGE
 70
     3
  9
$SHADEDIF
 70
    70
  9
$TILEMODE
 70
     1
  9
$MAXACTVP
 70
    48
  9
$PLIMCHECK
 70
     0
  9
$PEXTMIN
 10
1.0000000000000000E+20
 20
1.0000000000000000E+20
 30
1.0000000000000000E+20
  9
$PEXTMAX
 10
-1.0000000000000000E+20
 20
-1.0000000000000000E+20
 30
-1.0000000000000000E+20
  9
$PLIMMIN
 10
0.0
 20
0.0
  9
$PLIMMAX
 10
12.0
 20
9.0
  9
$UNITMODE
 70
     0
  9
$VISRETAIN
 70
     1
  9
$PLINEGEN
 70
     0
  9
$PSLTSCALE
 70
     1
  0
ENDSEC
  0
SECTION
  2
TABLES
  0
TABLE
  2
VPORT
 70
     1
  0
VPORT
  2
*ACTIVE
 70
     0
 10
0.0
 20
0.0
 11
1.0
 21
1.0
 12
98.6490029638933663
 22
-15.9211042980471102
 13
0.0
 23
0.0
 14
1.0
 24
1.0
 15
0.0
 25
0.0
 16
-0.0000000000000284
 26
0.0
 36
157.2215818301446859
 17
210.9789276123046875
 27
7.2024491855605604
 37
0.0
 40
47.128933165099447
 41
1.8876941457586609
 42
50.0
 43
0.0
 44
0.0
 50
0.0
 51
0.0
 71
     0
 72
   100
 73
     1
 74
     1
 75
     0
 76
     0
 77
     0
 78
     0
  0
ENDTAB
  0
TABLE
  2
LTYPE
 70
     2
  0
LTYPE
  2
CONTINUOUS
 70
     0
  3
Solid line
 72
    65
 73
     0
 40
0.0
  0
LTYPE
  2
PHANTOM2
 70
     0
  3
___ _ _ ___ _ _ ___ _ _ ___ _ _
 72
    65
 73
     6
 40
1.25
 49
0.625
 49
-0.125
 49
0.125
 49
-0.125
 49
0.125
 49
-0.125
  0
ENDTAB
  0
TABLE
  2
LAYER
 70
     2
  0
LAYER
  2
0
 70
     0
 62
     7
  6
CONTINUOUS
  0
LAYER
  2
DEFPOINTS
 70
     0
 62
     7
  6
CONTINUOUS
  0
ENDTAB
  0
TABLE
  2
STYLE
 70
     1
  0
STYLE
  2
STANDARD
 70
     0
 40
0.0
 41
0.8
 50
0.0
 71
     0
 42
0.2
  3
txt
  4

  0
ENDTAB
  0
TABLE
  2
VIEW
 70
     0
  0
ENDTAB
  0
TABLE
  2
UCS
 70
     0
  0
ENDTAB
  0
TABLE
  2
APPID
 70
     9
  0
APPID
  2
ACAD
 70
     0
  0
APPID
  2
ACAD_MLEADERVER
 70
     0
  0
APPID
  2
ACAD_EXEMPT_FROM_CAD_STANDARDS
 70
     0
  0
APPID
  2
ACAD_NAV_VCDISPLAY
 70
     0
  0
APPID
  2
ACADANNOMONITORALERTICONDI
 70
     0
  0
APPID
  2
ACAD_DSTYLE_DIMJAG
 70
     0
  0
APPID
  2
ACAD_DSTYLE_DIMTALN
 70
     0
  0
APPID
  2
ACDBATTR
 70
     0
  0
APPID
  2
DCO15
 70
     0
  0
ENDTAB
  0
TABLE
  2
DIMSTYLE
 70
     1
  0
DIMSTYLE
  2
STANDARD
 70
     0
  3

  4

  5

  6

  7

 40
1.0
 41
0.1875
 42
0.0625
 43
0.38
 44
0.125
 45
0.0
 46
0.0
 47
1.5
 48
1.5
140
1.5
141
0.09
142
0.0
143
25.3999999999999986
144
1.0
145
0.0
146
1.0
147
0.09
 71
     0
 72
     0
 73
     1
 74
     1
 75
     0
 76
     0
 77
     0
 78
     4
170
     0
171
     2
172
     0
173
     0
174
     0
175
     0
176
     0
177
     0
178
     0
  0
ENDTAB
  0
ENDSEC
  0
SECTION
  2
BLOCKS
  0
BLOCK
  8
0
  2
$MODEL_SPACE
 70
     0
 10
0.0
 20
0.0
 30
0.0
  3
$MODEL_SPACE
  1

  0
ENDBLK
  5
21
  8
0
  0
BLOCK
 67
     1
  8
0
  2
$PAPER_SPACE
 70
     0
 10
0.0
 20
0.0
 30
0.0
  3
$PAPER_SPACE
  1

  0
ENDBLK
  5
1D
 67
     1
  8
0
  0
ENDSEC
  0
SECTION
  2
ENTITIES
  0
ATTDEF
  5
4EF9
  8
DEFPOINTS
 10
311.0222212435783717
 20
5.7126971016315871
 30
0.0
 40
0.001
  1
K-98444IN
  3

  2
MODELNUMBER
 70
     0
1001
ACDBATTR
1070
     0
1070
     1
  0
ATTDEF
  5
4EFA
  8
DEFPOINTS
 10
311.0222212435783717
 20
5.7110304349649068
 30
0.0
 40
0.001
  1

  3

  2
TRADENAME
 70
     0
1001
ACDBATTR
1070
     0
1070
     1
  0
ATTDEF
  5
4EFB
  8
DEFPOINTS
 10
311.0222212435783717
 20
5.7093637682982283
 30
0.0
 40
0.001
  1
HANDSHOWER
  3

  2
PRODUCT
 70
     0
1001
ACDBATTR
1070
     0
1070
     1
  0
LINE
  5
67C9
  8
0
 10
311.5275798759489021
 20
5.70931598819186
 30
0.0
 11
310.4926825487752922
 21
5.70931598819186
 31
0.0
  0
LINE
  5
67CA
  8
0
 10
310.5911456609755987
 20
5.0793947283918612
 30
0.0
 11
311.4532031361256941
 21
5.079394728391847
 31
0.0
  0
LINE
  5
67CB
  8
0
 10
310.5944452612770874
 20
5.0006545708918528
 30
0.0
 11
311.4499035358242054
 21
5.0006545708918528
 31
0.0
  0
LINE
  5
67CC
  8
0
 10
310.6313039129454978
 20
4.5282136259918531
 30
0.0
 11
311.4130448841556813
 21
4.5282136259918531
 31
0.0
  0
LINE
  5
67CD
  8
0
 10
310.8177023343361043
 20
4.7250640196918559
 30
0.0
 11
311.2266464627651885
 21
4.7250640196918559
 31
0.0
  0
ARC
  5
67CE
  8
0
 10
314.1065486467426808
 20
4.552109706104388
 30
0.0
 40
11.8145365987851498
 50
121.1821736731989034
 51
122.8020317633009029
  0
ARC
  5
67CF
  8
0
 10
307.7701496667984884
 20
14.3835104631189097
 30
0.0
 40
0.1181100984363081
 50
122.8019862568227012
 51
214.6306415548922075
  0
LINE
  5
67D0
  8
0
 10
307.6729648309282084
 20
14.3163903988348107
 30
0.0
 11
307.732630411850721
 21
14.2297820947918598
 31
0.0
  0
ARC
  5
67D1
  8
0
 10
307.7489582704596955
 20
14.2410891710915699
 30
0.0
 40
0.0198607386873652
 50
214.7026824552721109
 51
302.5683436685794732
  0
LINE
  5
67D2
  8
0
 10
307.7596494102006091
 20
14.2243515346918592
 30
0.0
 11
307.7639885996505882
 21
14.2270001267918502
 31
0.0
  0
LINE
  5
67D3
  8
0
 10
307.7443226342505795
 20
14.2054505750918398
 30
0.0
 11
307.7709635070506238
 21
14.2222513728918596
 31
0.0
  0
ARC
  5
67D4
  8
0
 10
307.8061348464435127
 20
14.1092964088675892
 30
0.0
 40
0.1143082379291155
 50
122.7347285865375994
 51
124.6679155638420013
  0
ARC
  5
67D5
  8
0
 10
307.7523181297466977
 20
14.1870102312735291
 30
0.0
 40
0.0197796268062629
 50
124.5023996762634937
 51
214.6533082308359042
  0
ARC
  5
67D6
  8
0
 10
-3824817.0750697068870068
 20
-2571204.5435922900214791
 30
0.0
 40
4608985.3077240632846951
 50
33.9086742726062269
 51
33.9086766216783104
  0
ARC
  5
67D7
  8
0
 10
272.989616939316079
 20
-9.9634000317426352
 30
0.0
 40
42.3085526648683725
 50
34.2896796674270732
 51
34.7886186047404635
  0
LINE
  5
67D8
  8
0
 10
307.9449340774506254
 20
13.8722755904918493
 30
0.0
 11
307.9311124705506018
 21
13.8614691958918606
 31
0.0
  0
LINE
  5
67D9
  8
0
 10
307.9475657852506174
 20
13.8737947205918601
 30
0.0
 11
307.9328983760506162
 21
13.8623201459918608
 31
0.0
  0
ARC
  5
67DA
  8
0
 10
307.9455711481351159
 20
13.8464062843942504
 30
0.0
 40
0.0203433070874219
 50
128.5315527144030909
 51
193.7867727505532116
  0
ARC
  5
67DB
  8
0
 10
308.0204225438192225
 20
13.8678115837239098
 30
0.0
 40
0.0981836163101736
 50
195.5090037061789019
 51
203.3323127371247097
  0
LINE
  5
67DC
  8
0
 10
307.9633747320071961
 20
13.7598373015973099
 30
0.0
 11
307.9255476291506284
 21
13.8373256943918594
 31
0.0
  0
ARC
  5
67DD
  8
0
 10
308.322428731139496
 20
13.9931612121734492
 30
0.0
 40
0.425163064436949
 50
202.7238960685299105
 51
204.5144982236778048
  0
ARC
  5
67DE
  8
0
 10
307.9432372902851967
 20
13.8459614717504103
 30
0.0
 40
0.0196850390307868
 50
128.0203162039784957
 51
206.0208058428655988
  0
ARC
  5
67DF
  8
0
 10
308.1166359540915778
 20
13.8826022571429704
 30
0.0
 40
0.1905725802062909
 50
200.0878658509377885
 51
211.9453806549635999
  0
ARC
  5
67E0
  8
0
 10
307.778191957679212
 20
13.7174105221222202
 30
0.0
 40
0.1880864304998467
 50
20.0092122667553411
 51
32.0240342391527975
  0
LINE
  5
67E1
  8
0
 10
308.0222305361082249
 20
13.7584622209424197
 30
0.0
 11
307.9858334395506176
 21
13.7493739092918492
 31
0.0
  0
LINE
  5
67E2
  8
0
 10
308.0251837786506144
 20
13.7596009396918504
 30
0.0
 11
307.9876162320505841
 21
13.7502318342918493
 31
0.0
  0
LINE
  5
67E3
  8
0
 10
308.0469132221505788
 20
13.7686435113918595
 30
0.0
 11
308.0029783071506131
 21
13.7577269458918501
 31
0.0
  0
ARC
  5
67E4
  8
0
 10
307.981064636250494
 20
13.7684725817917109
 30
0.0
 40
0.0196850393998143
 50
206.019195043902414
 51
284.0196828352019907
  0
ARC
  5
67E5
  8
0
 10
307.982802082944886
 20
13.7697911559601796
 30
0.0
 40
0.0201430656985903
 50
219.3903282926100928
 51
283.8273993711313778
  0
ARC
  5
67E6
  8
0
 10
308.0096226256496834
 20
13.7918142170791906
 30
0.0
 40
0.0548469088868758
 50
215.7318810414529935
 51
219.3903282926108034
  0
ARC
  5
67E7
  8
0
 10
308.1897586697397742
 20
13.9017154150808793
 30
0.0
 40
0.2657366480156861
 50
207.2272451082478995
 51
212.2832696950410138
  0
LINE
  5
67E8
  8
0
 10
307.9678808844507216
 20
13.8851635849918598
 30
0.0
 11
307.9482703750505834
 21
13.8697943283918494
 31
0.0
  0
ARC
  5
67E9
  8
0
 10
307.9639955890268084
 20
13.8522363896418703
 30
0.0
 40
0.0235703960031671
 50
131.8482115683682139
 51
195.1525182315326958
  0
ARC
  5
67EA
  8
0
 10
307.8777784799514734
 20
13.7658772892378796
 30
0.0
 40
0.0956186548459021
 50
14.20539394532112
 51
37.9648794720097413
  0
ARC
  5
67EB
  8
0
 10
308.0458590183005185
 20
13.8481650354285097
 30
0.0
 40
0.0956198401280041
 50
194.2055433510579974
 51
217.9647300662649911
  0
ARC
  5
67EC
  8
0
 10
307.9980756876083205
 20
13.7778591916772601
 30
0.0
 40
0.0207205935904414
 50
235.3380129032163097
 51
283.6863178002868153
  0
ARC
  5
67ED
  8
0
 10
308.0027620295094266
 20
13.7846367319005498
 30
0.0
 40
0.0289605481954349
 50
218.6611144193828977
 51
235.3380129032144055
  0
ARC
  5
67EE
  8
0
 10
308.2281782740428184
 20
13.9371521304800901
 30
0.0
 40
0.301041332690406
 50
197.6101749319169016
 51
214.5221125598399965
  0
ARC
  5
67EF
  8
0
 10
308.0256952774623755
 20
13.9271483987077698
 30
0.0
 40
0.0976391136217594
 50
214.1939591422504066
 51
214.4439259993548035
  0
ARC
  5
67F0
  8
0
 10
307.5218995699622724
 20
13.5654867072332195
 30
0.0
 40
0.5255906752778554
 50
35.5246832520671205
 51
35.915635295336827
  0
ARC
  5
67F1
  8
0
 10
307.6416339913345155
 20
13.5683670351700805
 30
0.0
 40
0.4520640683119323
 50
26.2971599318169496
 51
31.9535034646106411
  0
ARC
  5
67F2
  8
0
 10
307.5055626147229191
 20
13.4834936652576793
 30
0.0
 40
0.6124352267328856
 50
31.9535034646106411
 51
40.9846628831267665
  0
ARC
  5
67F3
  8
0
 10
308.1640640059192151
 20
13.8512310413867699
 30
0.0
 40
0.1663844736229347
 50
212.1295323256794063
 51
213.4159452509163941
  0
ARC
  5
67F4
  8
0
 10
307.283032877278572
 20
13.5129231458991903
 30
0.0
 40
0.8148320852172325
 50
34.789613243976099
 51
45.0567861701342309
  0
ARC
  5
67F5
  8
0
 10
306.9375082388518194
 20
13.1667129249283601
 30
0.0
 40
1.3039627353146299
 50
45.0567861701342309
 51
50.9434176099624665
  0
ARC
  5
67F6
  8
0
 10
307.7346971438312835
 20
14.1422479907345107
 30
0.0
 40
0.0443526468615354
 50
56.5899302464881586
 51
67.1686554743247939
  0
ARC
  5
67F7
  8
0
 10
307.7499068335109769
 20
14.1779620728072597
 30
0.0
 40
0.0055373846827492
 50
68.8270410477258423
 51
107.0143916259778933
  0
LINE
  5
67F8
  8
0
 10
307.7482865288505991
 20
14.1832570932918607
 30
0.0
 11
307.7360472566668932
 21
14.1757633505585794
 31
0.0
  0
ARC
  5
67F9
  8
0
 10
280.9454752767463219
 20
-4.6083810101943641
 30
0.0
 40
32.7843188078860095
 50
30.014625225469949
 51
34.5360072720894706
  0
ARC
  5
67FA
  8
0
 10
307.6881611004848196
 20
14.1081289880967304
 30
0.0
 40
0.1409970114733693
 50
54.0369385423628685
 51
57.4663337923395474
  0
ARC
  5
67FB
  8
0
 10
306.9103092778244104
 20
13.1011483632682602
 30
0.0
 40
1.413363951879373
 50
48.9321294886595908
 51
52.4870828899685691
  0
ARC
  5
67FC
  8
0
 10
306.7996797882012743
 20
12.9463788718561403
 30
0.0
 40
1.602832056491555
 50
46.1989045136432992
 51
49.5852021151951092
  0
ARC
  5
67FD
  8
0
 10
307.4967169394620896
 20
13.6645587926225005
 30
0.0
 40
0.6020585429598933
 50
34.5080286704046202
 51
46.7690779068956672
  0
ARC
  5
67FE
  8
0
 10
277.6857861361714868
 20
-6.4670758513225328
 30
0.0
 40
36.5738924664689904
 50
29.9788879015257308
 51
34.0394131926699899
  0
ARC
  5
67FF
  8
0
 10
308.9175248653849053
 20
11.5594686103327398
 30
0.0
 40
0.5132184551963658
 50
11.2952013288629693
 51
28.9893063162080296
  0
ARC
  5
6800
  8
0
 10
308.379069992198481
 20
11.4079732514594401
 30
0.0
 40
1.0717833532343171
 50
5.521978600104946
 51
13.5997240826176107
  0
ARC
  5
6801
  8
0
 10
309.4173284652998746
 20
11.5253155244796108
 30
0.0
 40
0.0198296659080935
 50
208.5646947118397065
 51
301.9787726661277816
  0
LINE
  5
6802
  8
0
 10
309.4278303562505812
 20
11.5084951220918601
 30
0.0
 11
309.4450672396935147
 21
11.5191911663990396
 31
0.0
  0
LINE
  5
6803
  8
0
 10
309.4458795834506191
 20
11.5111083680918505
 30
0.0
 11
309.4353365709507102
 21
11.5042956262918494
 31
0.0
  0
ARC
  5
6804
  8
0
 10
309.4462871889758731
 20
11.4878581389909797
 30
0.0
 40
0.0197511271552332
 50
123.6714656481915995
 51
207.6040292817257864
  0
ARC
  5
6805
  8
0
 10
303.6044285882159102
 20
8.3553266870396072
 30
0.0
 40
6.6089802350582554
 50
1.666527454099926
 51
28.2029603592262283
  0
ARC
  5
6806
  8
0
 10
283.3151071910912719
 20
6.8658792284063557
 30
0.0
 40
26.948027845215961
 50
1.221900412392001
 51
3.57778287111184
  0
ARC
  5
6807
  8
0
 10
319.9091959039927247
 20
7.618537899430506
 30
0.0
 40
9.6538299128135101
 50
181.0565167316445923
 51
185.8995842838756971
  0
ARC
  5
6808
  8
0
 10
334.2870851415681273
 20
9.2522930660718288
 30
0.0
 40
24.1239431135310411
 50
186.2493521855234917
 51
188.2835094347296945
  0
ARC
  5
6809
  8
0
 10
310.4927408239598776
 20
5.7880567590871834
 30
0.0
 40
0.0787407924597345
 50
188.2758139375679889
 51
269.957596027001216
  0
ARC
  5
680A
  8
0
 10
311.5275798759665236
 20
5.7880485178099121
 30
0.0
 40
0.0787325296180548
 50
269.9999999872151193
 51
8.9013255012295716
  0
ARC
  5
680B
  8
0
 10
-16.8894299000108887
 20
-45.0942272541441866
 30
0.0
 40
332.4140123704938787
 50
8.8069457648029026
 51
9.1716605637064426
  0
ARC
  5
680C
  8
0
 10
286.4314289712431219
 20
3.742728776811048
 30
0.0
 40
25.1871376339142508
 50
9.4778713737717695
 51
12.9635135290285408
  0
ARC
  5
680D
  8
0
 10
303.7011579929883283
 20
7.8092841916398461
 30
0.0
 40
7.4458370127917757
 50
12.2803014943423001
 51
32.4888754609699433
  0
ARC
  5
680E
  8
0
 10
264.8052679905118225
 20
-15.5951211048426295
 30
0.0
 40
52.8382348538712208
 50
31.2408274517211417
 51
34.887034666214447
  0
ARC
  5
680F
  8
0
 10
308.0504821884442208
 20
14.5585571869945003
 30
0.0
 40
0.1182873516034435
 50
34.9089068364367776
 51
65.4348723948749154
  0
ARC
  5
6810
  8
0
 10
308.0506016042186275
 20
14.5586194059483294
 30
0.0
 40
0.1181811486950861
 50
65.4749864477445556
 51
121.1640260121606048
  0
ARC
  5
6811
  8
0
 10
307.7215335117331279
 20
13.2459151653627298
 30
0.0
 40
0.5654372437281282
 50
26.5822438403988599
 51
40.8303112697739081
  0
LINE
  5
6812
  8
0
 10
308.2272000558505738
 20
13.4989381341918602
 30
0.0
 11
308.1858887019506028
 21
13.4874399639918607
 31
0.0
  0
LINE
  5
6813
  8
0
 10
308.1493711892505871
 20
13.6156099019918599
 30
0.0
 11
308.1280730402506265
 21
13.5979359652918497
 31
0.0
  0
LINE
  5
6814
  8
0
 10
308.129809395650625
 20
13.6039543734918595
 30
0.0
 11
308.1130989541505869
 21
13.59016822449186
 31
0.0
  0
ARC
  5
6815
  8
0
 10
308.1296601264126025
 20
13.5736534699735607
 30
0.0
 40
0.0233882351511915
 50
135.0804070910724022
 51
201.7598514257248041
  0
ARC
  5
6816
  8
0
 10
308.6401806647986064
 20
13.7954897733186801
 30
0.0
 40
0.5800130834715518
 50
203.4167654119243025
 51
211.7887039141043886
  0
ARC
  5
6817
  8
0
 10
308.1669352053339139
 20
13.5029690834658709
 30
0.0
 40
0.0236687754922914
 50
213.3830916063263885
 51
279.8681881433529952
  0
LINE
  5
6818
  8
0
 10
308.1709916102507236
 20
13.4796504961918497
 30
0.0
 11
308.2061738725506075
 21
13.4894758514918607
 31
0.0
  0
ARC
  5
6819
  8
0
 10
308.1813061851780162
 20
13.5111204699453804
 30
0.0
 40
0.0241198221839754
 50
221.4276716776599869
 51
280.9521806641649277
  0
ARC
  5
681A
  8
0
 10
308.407025580641573
 20
13.6742649497761004
 30
0.0
 40
0.3025206219750964
 50
199.6160188822638872
 51
216.3018202307636102
  0
ARC
  5
681B
  8
0
 10
308.1458588952120863
 20
13.5803670561131202
 30
0.0
 40
0.0250000641287421
 50
135.3515769946909018
 51
197.8491017527956899
  0
ARC
  5
681C
  8
0
 10
307.9619102904770784
 20
13.4405945920287007
 30
0.0
 40
0.1888551633846794
 50
21.6490617440101616
 51
33.614984140599617
  0
ARC
  5
681D
  8
0
 10
308.2947181497751217
 20
13.6148192510166997
 30
0.0
 40
0.188855415912574
 50
201.6490697733310071
 51
213.6149761112843066
  0
ARC
  5
681E
  8
0
 10
308.2263532901126268
 20
13.5791190299147093
 30
0.0
 40
0.095771881779992
 50
195.8326215805446964
 51
219.5529810108731965
  0
ARC
  5
681F
  8
0
 10
308.0610751317573204
 20
13.49237254463619
 30
0.0
 40
0.0949939394294948
 50
15.7340646420604706
 51
39.6515379493422486
  0
ARC
  5
6820
  8
0
 10
307.7092075471878161
 20
13.3051158301932109
 30
0.0
 40
0.5159558022652844
 50
35.0014959587583192
 51
35.3938780667859234
  0
ARC
  5
6821
  8
0
 10
291.3179878386446831
 20
2.2088721639323832
 30
0.0
 40
20.3059304598365991
 50
33.2117965456370001
 51
33.7442753634801491
  0
LINE
  5
6822
  8
0
 10
308.309245897450694
 20
13.3331545728918606
 30
0.0
 11
308.2906528083506146
 21
13.3167412867918493
 31
0.0
  0
LINE
  5
6823
  8
0
 10
308.3067437282227274
 20
13.3315060769966696
 30
0.0
 11
308.2889403508241912
 21
13.3157992402621392
 31
0.0
  0
LINE
  5
6824
  8
0
 10
308.3281785860506261
 20
13.3452445472918502
 30
0.0
 11
308.3051622133506271
 21
13.3248904564918593
 31
0.0
  0
ARC
  5
6825
  8
0
 10
308.7337968556178112
 20
13.6244485511232405
 30
0.0
 40
0.5148744486129752
 50
214.4548961585747975
 51
214.8455355259347925
  0
LINE
  5
6826
  8
0
 10
308.2848171595505846
 20
13.2913682113918501
 30
0.0
 11
308.3271732463181252
 21
13.2162595810395498
 31
0.0
  0
ARC
  5
6827
  8
0
 10
308.3019635325155718
 20
13.3010378885729992
 30
0.0
 40
0.0196850390561292
 50
131.4203034008409929
 51
209.4207744743150954
  0
ARC
  5
6828
  8
0
 10
308.3049417650893815
 20
13.3013909504084999
 30
0.0
 40
0.0209715786665181
 50
132.9491211367989933
 51
199.9902910745288978
  0
ARC
  5
6829
  8
0
 10
308.5341777905517233
 20
13.3983529412557498
 30
0.0
 40
0.2698453130255428
 50
202.6991753327012873
 51
207.9410450286559922
  0
ARC
  5
682A
  8
0
 10
308.471493989708506
 20
13.3471835445972999
 30
0.0
 40
0.1890388267813307
 50
203.4586927327291903
 51
215.4128274925909068
  0
ARC
  5
682B
  8
0
 10
308.1449589689773916
 20
13.1629219142932303
 30
0.0
 40
0.1879590894240865
 50
23.4242310823371405
 51
35.4472891429809565
  0
ARC
  5
682C
  8
0
 10
308.344319880804278
 20
13.2259287950387492
 30
0.0
 40
0.0196850393336018
 50
209.4192262764657926
 51
287.4196955690165964
  0
LINE
  5
682D
  8
0
 10
308.3502129673506147
 20
13.2071465612918502
 30
0.0
 11
308.3815164436372243
 21
13.2169684776200693
 31
0.0
  0
LINE
  5
682E
  8
0
 10
308.351921897150703
 20
13.2080954621918494
 30
0.0
 11
308.3843252131507029
 21
13.21825216129184
 31
0.0
  0
ARC
  5
682F
  8
0
 10
308.3459031412090781
 20
13.2274939576143709
 30
0.0
 40
0.0203107618700311
 50
216.0260961334699914
 51
287.2375076195489783
  0
ARC
  5
6830
  8
0
 10
308.5445571215632867
 20
13.3722552936821799
 30
0.0
 40
0.2661140247858491
 50
211.2594938190912899
 51
216.0770259200388921
  0
ARC
  5
6831
  8
0
 10
308.3192043309600763
 20
13.3092838415699308
 30
0.0
 40
0.0209939871458242
 50
131.9794312942001966
 51
185.8059613157043088
  0
ARC
  5
6832
  8
0
 10
308.3388674269696139
 20
13.3112832129958694
 30
0.0
 40
0.0407584712215084
 50
185.8059613157003014
 51
204.0254602370231112
  0
ARC
  5
6833
  8
0
 10
308.3603238651410265
 20
13.2362558349180102
 30
0.0
 40
0.0208995708146292
 50
232.8153774284787971
 51
286.959217723094298
  0
ARC
  5
6834
  8
0
 10
308.3756416176739776
 20
13.2556519310487904
 30
0.0
 40
0.0456126474408304
 50
214.8506708818605091
 51
232.2113929654726974
  0
LINE
  5
6835
  8
0
 10
308.3664200807505722
 20
13.2162651316918502
 30
0.0
 11
308.4047894311506184
 21
13.2282549598918493
 31
0.0
  0
ARC
  5
6836
  8
0
 10
308.6216488812075909
 20
13.4316263514787408
 30
0.0
 40
0.3480769328351108
 50
203.1669720477017052
 51
215.4818023262118913
  0
ARC
  5
6837
  8
0
 10
308.4048623947301166
 20
13.3095314641867901
 30
0.0
 40
0.0967166442702657
 50
197.6791699874991934
 51
221.163320793039901
  0
ARC
  5
6838
  8
0
 10
308.2425651392052828
 20
13.2180023566702705
 30
0.0
 40
0.0937248733516554
 50
17.2987514557190991
 51
41.5437393248265323
  0
ARC
  5
6839
  8
0
 10
307.8930924519560222
 20
12.9767484276298397
 30
0.0
 40
0.5701660585192425
 50
26.1747901571987889
 51
40.2629248832186306
  0
ARC
  5
683A
  8
0
 10
308.6611795376375085
 20
13.3913655053353793
 30
0.0
 40
0.3265218934053875
 50
211.3934282006790966
 51
212.0171966892669104
  0
ARC
  5
683B
  8
0
 10
160.4488200483143032
 20
-82.3961746699020949
 30
0.0
 40
176.1418627281412057
 50
32.8146692984640893
 51
32.8758746774356894
  0
LINE
  5
683C
  8
0
 10
308.5045426713505776
 20
13.0741737637918405
 30
0.0
 11
308.4799771094506013
 21
13.0511958052918509
 31
0.0
  0
LINE
  5
683D
  8
0
 10
308.485615751050716
 20
13.0613353912918502
 30
0.0
 11
308.4654160148505753
 21
13.0424744965918507
 31
0.0
  0
LINE
  5
683E
  8
0
 10
308.4831182165841028
 20
13.0595866605022994
 30
0.0
 11
308.4637040733506979
 21
13.0414700050918508
 31
0.0
  0
ARC
  5
683F
  8
0
 10
308.9879537951118778
 20
13.3988631597281191
 30
0.0
 40
0.6052012103233702
 50
213.8976906811203094
 51
214.2382946903842083
  0
ARC
  5
6840
  8
0
 10
308.4771343393535972
 20
13.0270780374924602
 30
0.0
 40
0.019685039402882
 50
133.02030584647909
 51
211.0207774446303119
  0
ARC
  5
6841
  8
0
 10
308.47967993309652
 20
13.0276313656443197
 30
0.0
 40
0.0205858665119994
 50
133.8599990465816063
 51
201.6676988303051132
  0
LINE
  5
6842
  8
0
 10
308.4602646449505983
 20
13.0169333745918596
 30
0.0
 11
308.5047013724991984
 21
12.9430366814425302
 31
0.0
  0
ARC
  5
6843
  8
0
 10
308.5215714870880106
 20
12.9531812853989994
 30
0.0
 40
0.0196853690762762
 50
211.0199998801195136
 51
289.0189170916117973
  0
LINE
  5
6844
  8
0
 10
308.5279865613505876
 20
12.9345705202918495
 30
0.0
 11
308.5565982614077143
 21
12.9444334915253592
 31
0.0
  0
LINE
  5
6845
  8
0
 10
308.5594074740507153
 20
12.9458146437918504
 30
0.0
 11
308.5296947907506251
 21
12.9355817834918501
 31
0.0
  0
LINE
  5
6846
  8
0
 10
308.580013228050575
 20
12.95660688439186
 30
0.0
 11
308.5442440873507053
 21
12.94432331289185
 31
0.0
  0
ARC
  5
6847
  8
0
 10
308.5232059265904923
 20
12.9550459351314107
 30
0.0
 40
0.020517274603047
 50
217.8506963829889003
 51
288.4371042952421931
  0
ARC
  5
6848
  8
0
 10
308.6963552012107925
 20
13.08959983476581
 30
0.0
 40
0.2398011618551123
 50
211.8762948604345127
 51
217.8506963829889003
  0
ARC
  5
6849
  8
0
 10
308.6890960589947213
 20
13.1217997134386497
 30
0.0
 40
0.2501816819485664
 50
204.0027735204062935
 51
210.0685023177242101
  0
ARC
  5
684A
  8
0
 10
308.6460528436580262
 20
13.0783258656828298
 30
0.0
 40
0.1898448221004218
 50
205.0687350380640908
 51
216.9717565257824958
  0
ARC
  5
684B
  8
0
 10
308.3250035125104205
 20
12.8852655311849702
 30
0.0
 40
0.1868446612797905
 50
24.9728181505421283
 51
37.0676734132957009
  0
ARC
  5
684C
  8
0
 10
308.0764333900141878
 20
12.7163473586356695
 30
0.0
 40
0.5579581462739119
 50
25.5059563295826095
 51
39.889875718129268
  0
ARC
  5
684D
  8
0
 10
308.5375749776633825
 20
12.9642118956190906
 30
0.0
 40
0.0209769575229228
 50
232.7047180783150111
 51
288.5375141520221973
  0
ARC
  5
684E
  8
0
 10
308.5619977847492805
 20
12.9934401248699505
 30
0.0
 40
0.0590520563826694
 50
216.993605777377411
 51
231.0367426527130874
  0
ARC
  5
684F
  8
0
 10
308.8043124972602982
 20
13.1737094193522193
 30
0.0
 40
0.3610667802430334
 50
205.6785167397588054
 51
216.7039303567613899
  0
ARC
  5
6850
  8
0
 10
308.5631873715640268
 20
13.0565435258810396
 30
0.0
 40
0.0929914374093596
 50
198.8748677489622025
 51
204.9946392768387966
  0
ARC
  5
6851
  8
0
 10
308.4972794525775726
 20
13.03502201465521
 30
0.0
 40
0.0236846486408995
 50
136.9308327464736124
 51
201.1908945859784126
  0
ARC
  5
6852
  8
0
 10
308.5792386736872004
 20
13.0382275108046901
 30
0.0
 40
0.0958022753804317
 50
199.2174064530248074
 51
222.9305029375967138
  0
ARC
  5
6853
  8
0
 10
308.4198004870773957
 20
12.9421470714435998
 30
0.0
 40
0.0944655970241554
 50
19.0471476708464813
 51
43.1007617197783972
  0
ARC
  5
6854
  8
0
 10
-3972103.0922661698423326
 20
-2337227.117869331035763
 30
0.0
 40
4608985.3077240632846951
 50
30.4711807835681689
 51
30.4711831326401708
  0
LINE
  5
6855
  8
0
 10
309.2287449512248259
 20
11.8328235835837692
 30
0.0
 11
309.2130245341468253
 21
11.8250336241201808
 31
0.0
  0
LINE
  5
6856
  8
0
 10
309.2312526790482821
 20
11.8345396673138303
 30
0.0
 11
309.2145640497943191
 21
11.8262759872309804
 31
0.0
  0
ARC
  5
6857
  8
0
 10
309.2056945717101826
 20
11.8445839773383099
 30
0.0
 40
0.0203433070874219
 50
230.5930846546941098
 51
295.8483046908451115
  0
ARC
  5
6858
  8
0
 10
309.2573612646810943
 20
11.9028203157595005
 30
0.0
 40
0.0981836163101736
 50
221.0475446681211906
 51
228.8708536990671973
  0
LINE
  5
6859
  8
0
 10
309.1353353209502188
 20
11.8980697905384005
 30
0.0
 11
309.1888485551672261
 21
11.8304556315771592
 31
0.0
  0
ARC
  5
685A
  8
0
 10
309.500974899564028
 20
12.1209319005762897
 30
0.0
 40
0.425163064436949
 50
219.8653591815690902
 51
221.6559613367165014
  0
ARC
  5
685B
  8
0
 10
309.20428432620389
 20
11.8426719212816902
 30
0.0
 40
0.0196850390307868
 50
218.359051562381012
 51
296.3595412012692236
  0
ARC
  5
685C
  8
0
 10
309.3123006721813795
 20
11.9831785501847605
 30
0.0
 40
0.1905725802062909
 50
212.4344767502830962
 51
224.2919915543077138
  0
ARC
  5
685D
  8
0
 10
309.0170063745583775
 20
11.7494395379979295
 30
0.0
 40
0.1880864304998467
 50
32.3558231660938134
 51
44.3706451384908718
  0
LINE
  5
685E
  8
0
 10
309.1595448498999872
 20
11.9517335141439194
 30
0.0
 11
309.1356118906737152
 21
11.9228447705030192
 31
0.0
  0
LINE
  5
685F
  8
0
 10
309.161848600712176
 20
11.9539040104234999
 30
0.0
 11
309.1371563493830195
 21
11.9240813107161596
 31
0.0
  0
LINE
  5
6860
  8
0
 10
309.179397983368915
 20
11.9695869943914897
 30
0.0
 11
309.1505571496313109
 21
11.9346920883492196
 31
0.0
  0
ARC
  5
6861
  8
0
 10
309.1507707488245273
 20
11.9102865144244703
 30
0.0
 40
0.0196850393998143
 50
140.3601745700439949
 51
218.3606623613443105
  0
ARC
  5
6862
  8
0
 10
309.1527109582863773
 20
11.9112829812314605
 30
0.0
 40
0.0201430656985903
 50
140.5524580341156877
 51
204.9895291126366885
  0
ARC
  5
6863
  8
0
 10
309.1841660014031277
 20
11.9259437109052104
 30
0.0
 40
0.0548469088868758
 50
204.9895291126360064
 51
208.6479763637925089
  0
ARC
  5
6864
  8
0
 10
309.3611530997699219
 20
12.0408472996842697
 30
0.0
 40
0.2657366480156861
 50
212.0965877102051138
 51
217.1526122969995072
  0
LINE
  5
6865
  8
0
 10
309.250288068243492
 20
11.8479414691119391
 30
0.0
 11
309.227950269711414
 21
11.8369047628958093
 31
0.0
  0
ARC
  5
6866
  8
0
 10
309.2189182435205907
 20
11.8586759840521001
 30
0.0
 40
0.0235703960031671
 50
229.2273391737138013
 51
292.5316458368786243
  0
ARC
  5
6867
  8
0
 10
309.1037694043399142
 20
11.8182776059258696
 30
0.0
 40
0.0956186548459021
 50
26.4149779332370898
 51
50.1744634599245529
  0
ARC
  5
6868
  8
0
 10
309.2506451557455875
 20
11.93425111235657
 30
0.0
 40
0.0956198401280041
 50
206.4151273389807955
 51
230.1743140541883008
  0
ARC
  5
6869
  8
0
 10
309.1665900982172275
 20
11.9215662528183604
 30
0.0
 40
0.0207205935904414
 50
140.6935396049586871
 51
189.041844502030699
  0
ARC
  5
686A
  8
0
 10
309.1747276617397802
 20
11.9228612091144299
 30
0.0
 40
0.0289605481954349
 50
189.041844502030699
 51
205.7187429858632015
  0
ARC
  5
686B
  8
0
 10
309.4097184406214183
 20
12.0601665766132804
 30
0.0
 40
0.301041332690406
 50
209.8577448454065006
 51
226.7696824733297092
  0
ARC
  5
686C
  8
0
 10
309.3131440623840831
 20
11.8819172343378003
 30
0.0
 40
0.0976391136217594
 50
209.9359314058922905
 51
210.1858982629952095
  0
ARC
  5
686D
  8
0
 10
308.7691980854958729
 20
11.5840379497226706
 30
0.0
 40
0.5255906752778554
 50
28.4642221099099189
 51
28.8551741531790817
  0
ARC
  5
686E
  8
0
 10
308.8235687161516125
 20
11.6907546891427501
 30
0.0
 40
0.4520640683119323
 50
32.4263539406356074
 51
38.0826974734292918
  0
ARC
  5
686F
  8
0
 10
308.6882024081327813
 20
11.6047612527266608
 30
0.0
 40
0.6124352267328856
 50
23.3951945221197413
 51
32.4263539406356074
  0
ARC
  5
6870
  8
0
 10
309.3045218772807061
 20
12.03950850338971
 30
0.0
 40
0.1663844736229347
 50
210.963912154330103
 51
212.2503250795674887
  0
ARC
  5
6871
  8
0
 10
308.5673689043053969
 20
11.9022276143888508
 30
0.0
 40
0.5654372437281282
 50
23.5495461354722586
 51
37.7976135648476017
  0
LINE
  5
6872
  8
0
 10
309.0141664108759869
 20
12.2487694801381899
 30
0.0
 11
308.9859355905567782
 21
12.2164916756419295
 31
0.0
  0
LINE
  5
6873
  8
0
 10
309.0857136596951023
 20
12.1281435083732294
 30
0.0
 11
309.0605680358689824
 21
12.1165816403711393
 31
0.0
  0
LINE
  5
6874
  8
0
 10
309.066745522475685
 20
12.1155449019467198
 30
0.0
 11
309.0470891786849847
 21
12.1064385905003693
 31
0.0
  0
ARC
  5
6875
  8
0
 10
309.0393592421203834
 20
12.12851250325261
 30
0.0
 40
0.0233882351511915
 50
222.6200059795216077
 51
289.2994503141737823
  0
ARC
  5
6876
  8
0
 10
309.4601352189591807
 20
12.4929163217166206
 30
0.0
 40
0.5800130834715518
 50
212.5911534911421086
 51
220.9630919933221946
  0
ARC
  5
6877
  8
0
 10
308.9917423514870052
 20
12.1926868418231908
 30
0.0
 40
0.0236687754922914
 50
144.5116692618927914
 51
210.9967657989190002
  0
LINE
  5
6878
  8
0
 10
308.9724704351506261
 20
12.2064274449404593
 30
0.0
 11
308.9965426746214234
 21
12.2339020964245595
 31
0.0
  0
ARC
  5
6879
  8
0
 10
309.0053063497126118
 20
12.2021201930492396
 30
0.0
 40
0.0241198221839754
 50
143.4276767410821947
 51
202.9521857275856007
  0
ARC
  5
687A
  8
0
 10
309.2500122479248148
 20
12.3351028617239393
 30
0.0
 40
0.3025206219750964
 50
208.0780371744824038
 51
224.7638385229818994
  0
ARC
  5
687B
  8
0
 10
309.0524171447164008
 20
12.1402156451071193
 30
0.0
 40
0.0250000641287421
 50
226.5307556524504946
 51
289.0282804105552259
  0
ARC
  5
687C
  8
0
 10
308.8468471443865724
 20
12.0347907625387602
 30
0.0
 40
0.1888551633846794
 50
30.7648732646471288
 51
42.7307956612361721
  0
ARC
  5
687D
  8
0
 10
309.147849172756878
 20
12.2595419181019096
 30
0.0
 40
0.188855415912574
 50
210.7648812939619916
 51
222.7307876319154047
  0
ARC
  5
687E
  8
0
 10
309.0860978227033229
 20
12.2133355268776391
 30
0.0
 40
0.095771881779992
 50
204.8268763943736133
 51
228.5472358247004934
  0
ARC
  5
687F
  8
0
 10
308.9364134697592021
 20
12.1018168431461408
 30
0.0
 40
0.0949939394294948
 50
24.7283194559045398
 51
48.6457927631864493
  0
ARC
  5
6880
  8
0
 10
308.6154192122953077
 20
11.8655150004746393
 30
0.0
 40
0.5159558022652844
 50
28.9859793384606199
 51
29.37836144648805
  0
ARC
  5
6881
  8
0
 10
291.5225431787852131
 20
1.883917135512263
 30
0.0
 40
20.3059304598365991
 50
30.6355820417659892
 51
31.1680608596100512
  0
LINE
  5
6882
  8
0
 10
308.9001594438037728
 20
12.3944338916468002
 30
0.0
 11
308.8773201995094269
 21
12.3847660147886494
 31
0.0
  0
LINE
  5
6883
  8
0
 10
308.8975910821932871
 20
12.3928905484577001
 30
0.0
 11
308.8757303030884032
 21
12.3836292686365503
 31
0.0
  0
LINE
  5
6884
  8
0
 10
308.9192472857076837
 20
12.4062773907103701
 30
0.0
 11
308.8909420543282067
 21
12.3943251398296006
 31
0.0
  0
ARC
  5
6885
  8
0
 10
309.3463905722192067
 20
12.6512869194032191
 30
0.0
 40
0.5148744486129752
 50
209.5343218793123015
 51
209.924961246671387
  0
LINE
  5
6886
  8
0
 10
308.8519184397674167
 20
12.3904755116298304
 30
0.0
 11
308.8025093362711004
 21
12.4611443515194598
 31
0.0
  0
ARC
  5
6887
  8
0
 10
308.8680515388774097
 20
12.4017548678059608
 30
0.0
 40
0.0196850390561292
 50
214.9590829309314017
 51
292.95955400440522
  0
ARC
  5
6888
  8
0
 10
308.869657683875289
 20
12.4042876173335603
 30
0.0
 40
0.0209715786665181
 50
224.3895663307172015
 51
291.4307362684475038
  0
ARC
  5
6889
  8
0
 10
309.0562087183030258
 20
12.5690586542080798
 30
0.0
 40
0.2698453130255428
 50
216.4388123765911018
 51
221.680682072544414
  0
ARC
  5
688A
  8
0
 10
308.9829656187768023
 20
12.5346636776224507
 30
0.0
 40
0.1890388267813307
 50
208.9670299126561872
 51
220.9211646725179889
  0
ARC
  5
688B
  8
0
 10
308.6756258411434146
 20
12.3199086328610807
 30
0.0
 40
0.1879590894240865
 50
28.9325682622654909
 51
40.9556263229091613
  0
ARC
  5
688C
  8
0
 10
308.818642130821388
 20
12.4724241437853607
 30
0.0
 40
0.0196850393336018
 50
136.9601618362293038
 51
214.9606311287799087
  0
LINE
  5
688D
  8
0
 10
308.8042547425300768
 20
12.4858593152290798
 30
0.0
 11
308.8266466833482013
 21
12.5098380277546504
 31
0.0
  0
LINE
  5
688E
  8
0
 10
308.8058492940049859
 20
12.4869899166501099
 30
0.0
 11
308.8290186756768207
 21
12.5118155722779196
 31
0.0
  0
ARC
  5
688F
  8
0
 10
308.820738013680625
 20
12.4731749583018097
 30
0.0
 40
0.0203107618700311
 50
137.1423497856974905
 51
208.3537612717759089
  0
ARC
  5
6890
  8
0
 10
309.0371650280238214
 20
12.5897021902829191
 30
0.0
 40
0.2661140247858491
 50
208.3028314852078893
 51
213.1203635861542978
  0
ARC
  5
6891
  8
0
 10
308.8829417233935146
 20
12.4137349878767207
 30
0.0
 40
0.0209939871458242
 50
238.5738960895413925
 51
292.4004261110459879
  0
ARC
  5
6892
  8
0
 10
308.8932468948505061
 20
12.4306002857400806
 30
0.0
 40
0.0407584712215084
 50
220.3543971682231017
 51
238.5738960895455136
  0
ARC
  5
6893
  8
0
 10
308.8348739891010268
 20
12.4823891848845694
 30
0.0
 40
0.0208995708146292
 50
137.4206396821518865
 51
191.5644799767669042
  0
ARC
  5
6894
  8
0
 10
308.8589865106515049
 20
12.4878139790973197
 30
0.0
 40
0.0456126474408304
 50
192.1684644397726913
 51
209.5291865233855901
  0
LINE
  5
6895
  8
0
 10
308.819484780930793
 20
12.4965300594025095
 30
0.0
 11
308.8468867892659091
 21
12.5259425222301797
 31
0.0
  0
ARC
  5
6896
  8
0
 10
309.1240334472616951
 20
12.6335421224002804
 30
0.0
 40
0.3480769328351108
 50
208.89805507903489
 51
221.2128853575439109
  0
ARC
  5
6897
  8
0
 10
308.9202037835542001
 20
12.4908641268474803
 30
0.0
 40
0.0967166442702657
 50
203.2165366122063119
 51
226.7006874177465932
  0
ARC
  5
6898
  8
0
 10
308.7674959836969037
 20
12.3841012843581399
 30
0.0
 40
0.0937248733516554
 50
22.8361180804194106
 51
47.0811059495278386
  0
ARC
  5
6899
  8
0
 10
308.3988490472775084
 20
12.1733074189842192
 30
0.0
 40
0.5701660585192425
 50
24.1169325220271915
 51
38.2050672480478966
  0
ARC
  5
689A
  8
0
 10
309.1048241897659068
 20
12.6865950483932792
 30
0.0
 40
0.3265218934053875
 50
212.3626607159798141
 51
212.9864292045666048
  0
ARC
  5
689B
  8
0
 10
158.6476263470412107
 20
-79.5348123119933348
 30
0.0
 40
176.1418627281412057
 50
31.5039827278107509
 51
31.5651881067823901
  0
LINE
  5
689C
  8
0
 10
308.7510883456290003
 20
12.6825132159080294
 30
0.0
 11
308.7197473500347087
 21
12.6702986588776998
 31
0.0
  0
LINE
  5
689D
  8
0
 10
308.7313281819294275
 20
12.6709985274166002
 30
0.0
 11
308.7055872578708886
 21
12.6609403208146301
 31
0.0
  0
LINE
  5
689E
  8
0
 10
308.7286714445460234
 20
12.6695027051472895
 30
0.0
 11
308.7039412791647237
 21
12.6598310413313992
 31
0.0
  0
ARC
  5
689F
  8
0
 10
309.2528827716594719
 20
12.97799904029619
 30
0.0
 40
0.6052012103233702
 50
210.1415627148628005
 51
210.4821667241257899
  0
ARC
  5
68A0
  8
0
 10
308.6967716057920939
 20
12.6781639778125701
 30
0.0
 40
0.019685039402882
 50
213.3590799606166968
 51
291.3595515587675209
  0
ARC
  5
68A1
  8
0
 10
308.6983712528090109
 20
12.6802200296038698
 30
0.0
 40
0.0205858665119994
 50
222.7121585749410997
 51
290.5198583586657719
  0
LINE
  5
68A2
  8
0
 10
308.6803298578636259
 20
12.6673394824582601
 30
0.0
 11
308.6329132094217016
 21
12.7393603507130102
 31
0.0
  0
ARC
  5
68A3
  8
0
 10
308.6493550858908179
 20
12.7501852504282205
 30
0.0
 40
0.0196853690762762
 50
135.360940313633904
 51
213.3598575251276088
  0
LINE
  5
68A4
  8
0
 10
308.6353480164722782
 20
12.7640169445390192
 30
0.0
 11
308.6566907886924014
 21
12.78562950972956
 31
0.0
  0
LINE
  5
68A5
  8
0
 10
308.6590731136921022
 20
12.7874865808825593
 30
0.0
 11
308.6369984959665089
 21
12.765119948792
 31
0.0
  0
LINE
  5
68A6
  8
0
 10
308.6777142523505972
 20
12.80139979419185
 30
0.0
 11
308.651171719254819
 21
12.7744589053411204
 31
0.0
  0
ARC
  5
68A7
  8
0
 10
308.6517431404832905
 20
12.7508527130678395
 30
0.0
 40
0.020517274603047
 50
135.9427531100039914
 51
206.5291610222566874
  0
ARC
  5
68A8
  8
0
 10
308.847938002443982
 20
12.8487965712141605
 30
0.0
 40
0.2398011618551123
 50
206.5291610222566874
 51
212.5035625448109045
  0
ARC
  5
68A9
  8
0
 10
308.8738331341966727
 20
12.8283278271448893
 30
0.0
 40
0.2501816819485664
 50
214.3113550875224007
 51
220.3770838848404026
  0
ARC
  5
68AA
  8
0
 10
308.8160216050716826
 20
12.8083148082458198
 30
0.0
 40
0.1898448221004218
 50
207.4081008794640866
 51
219.3111223671822927
  0
ARC
  5
68AB
  8
0
 10
308.5031202341812104
 20
12.6023106872152297
 30
0.0
 40
0.1868446612797905
 50
27.3121839919515317
 51
39.4070392547038324
  0
ARC
  5
68AC
  8
0
 10
308.2433275918717754
 20
12.4512205226872901
 30
0.0
 40
0.5579581462739119
 50
24.4899816871164901
 51
38.8739010756646621
  0
ARC
  5
68AD
  8
0
 10
308.666221126371795
 20
12.7598456205515092
 30
0.0
 40
0.0209769575229228
 50
135.8423432532250104
 51
191.6751393269308039
  0
ARC
  5
68AE
  8
0
 10
308.7031361420764028
 20
12.7692288239822407
 30
0.0
 40
0.0590520563826694
 50
193.343114752533495
 51
207.3862516278684893
  0
ARC
  5
68AF
  8
0
 10
308.9704590138917979
 20
12.9097703503606898
 30
0.0
 40
0.3610667802430334
 50
207.6759270484849083
 51
218.7013406654870948
  0
ARC
  5
68B0
  8
0
 10
308.7605496332311077
 20
12.7430153661906598
 30
0.0
 40
0.0929914374093596
 50
219.3852181284069047
 51
225.5049896562836977
  0
ARC
  5
68B1
  8
0
 10
308.7126453383086186
 20
12.69289343727195
 30
0.0
 40
0.0236846486408995
 50
223.1889628192687951
 51
287.4490246587733964
  0
ARC
  5
68B2
  8
0
 10
308.7509750657637255
 20
12.7654084089927693
 30
0.0
 40
0.0958022753804317
 50
201.4493544676498118
 51
225.162450952220496
  0
ARC
  5
68B3
  8
0
 10
308.5953996877248073
 20
12.6631915418654408
 30
0.0
 40
0.0944655970241554
 50
21.2790956854679401
 51
45.3327097344009928
  0
ARC
  5
68B4
  8
0
 10
281.4635056061821956
 20
-4.243011648587383
 30
0.0
 40
32.0849488088888535
 50
32.0544870982369829
 51
32.3911372260181665
  0
ARC
  5
68B5
  8
0
 10
308.672699645727505
 20
13.0161705504750707
 30
0.0
 40
0.133360675494978
 50
210.2964350738143935
 51
211.8408168309910877
  0
LINE
  5
68B6
  8
0
 10
308.6590731136921022
 20
12.7874865808825593
 30
0.0
 11
308.6611850467343743
 21
12.7846225148836297
 31
0.0
  0
ARC
  5
68B7
  8
0
 10
293.6980200314177978
 20
3.0452371017329649
 30
0.0
 40
17.8409763877289294
 50
28.3452387634219605
 51
29.5026421697072898
  0
LINE
  5
68B8
  8
0
 10
310.6017943412190903
 20
4.5567106881299821
 30
0.0
 11
310.5865760421506252
 21
4.9925057559918571
 31
0.0
  0
ARC
  5
68B9
  8
0
 10
310.6265051070799927
 20
5.0715207125211492
 30
0.0
 40
0.0078740158707067
 50
0.0000012421412551
 51
89.9999994854898659
  0
LINE
  5
68BA
  8
0
 10
310.6343791229505769
 20
5.07152071269185
 30
0.0
 11
310.6343791229505769
 21
5.0085285866918516
 31
0.0
  0
ARC
  5
68BB
  8
0
 10
310.6265051072505798
 20
5.0085285866918516
 30
0.0
 40
0.0078740157000006
 50
269.999999272355808
 51
0.0
  0
LINE
  5
68BC
  8
0
 10
310.5832764418506144
 20
5.0869939449918604
 30
0.0
 11
310.5618290401507124
 21
5.7011671732918501
 31
0.0
  0
ARC
  5
68BD
  8
0
 10
310.5911456609755987
 20
5.0872687441535467
 30
0.0
 40
0.0078740157616913
 50
181.9999998149436067
 51
270.0000056398764059
  0
ARC
  5
68BE
  8
0
 10
310.5696982592771178
 20
5.7014419724294347
 30
0.0
 40
0.007874015762421
 50
90.0000001928126352
 51
181.9999996391966874
  0
ARC
  5
68BF
  8
0
 10
310.5944452612770874
 20
4.9927805551294284
 30
0.0
 40
0.0078740157624103
 50
89.9999994651050059
 51
181.9999996391998991
  0
ARC
  5
68C0
  8
0
 10
310.6313039129454978
 20
4.5577411850791938
 30
0.0
 40
0.0295275590873452
 50
182.000000070561498
 51
270.000000009927021
  0
LINE
  5
68C2
  8
0
 10
310.8177023343361043
 20
4.7250640196918559
 30
0.0
 11
310.8302588425668205
 21
4.5567106429439121
 31
0.0
  0
ARC
  5
68C3
  8
0
 10
310.8472919427910028
 20
4.5586638232143173
 30
0.0
 40
0.0171447197824224
 50
186.541517180359989
 51
218.4799148182682131
  0
ARC
  5
68C4
  8
0
 10
310.8636256764435757
 20
4.5736396991024568
 30
0.0
 40
0.0392807787459677
 50
220.755967595042307
 51
251.3190556443339858
  0
ARC
  5
68C5
  8
0
 10
310.9018649021069791
 20
4.6867364687515609
 30
0.0
 40
0.1586672004379103
 50
251.3190556443321952
 51
267.5557426618021282
  0
LINE
  5
68C6
  8
0
 10
310.8307256086005737
 20
4.5282136259918531
 30
0.0
 11
310.8307256086005737
 21
-28.9736227134581483
 31
0.0
  0
LINE
  5
68C7
  8
0
 10
311.213623188600593
 20
4.5282136259918531
 30
0.0
 11
311.213623188600593
 21
-28.9736227134581483
 31
0.0
  0
LINE
  5
68C8
  8
0
 10
310.4579610263506879
 20
-15.1883218070081494
 30
0.0
 11
310.4579610263506879
 21
-28.9736227134581483
 31
0.0
  0
LINE
  5
68C9
  8
0
 10
310.8307256086005737
 20
-13.9639123582081499
 30
0.0
 11
310.2005909186506187
 21
-13.9639123582081499
 31
0.0
  0
LINE
  5
68CA
  8
0
 10
310.8307256086005737
 20
-14.5150934606081403
 30
0.0
 11
310.2005909186506187
 21
-14.5150934606081403
 31
0.0
  0
LINE
  5
68CB
  8
0
 10
310.3068901313505989
 20
-14.5269044842081403
 30
0.0
 11
310.8307256086005737
 21
-14.5269044842081403
 31
0.0
  0
LINE
  5
68CC
  8
0
 10
310.3501972179506083
 20
-15.1883218070081494
 30
0.0
 11
310.8307256086005737
 21
-15.1883218070081494
 31
0.0
  0
ARC
  5
68CD
  8
0
 10
310.825908823496718
 20
-31.9016341662168301
 30
0.0
 40
0.2103452279913285
 50
200.2256786703050864
 51
339.7743213296949989
  0
ARC
  5
68CE
  8
0
 10
311.911786699301615
 20
-31.5391363056384399
 30
0.0
 40
1.355047112007973
 50
186.5888264221763109
 51
198.7344854199859014
  0
ARC
  5
68CF
  8
0
 10
327.3117103810915864
 20
-29.929408048361541
 30
0.0
 40
16.83880003881535
 50
181.5616507702158913
 51
186.0173708418631975
  0
ARC
  5
68D0
  8
0
 10
352.7323583330431234
 20
-29.0475076933331486
 30
0.0
 40
42.2744618727942267
 50
179.899861536164309
 51
181.8175304853573948
  0
ARC
  5
68D1
  8
0
 10
309.5402135682317066
 20
-31.46218428150409
 30
0.0
 40
1.5690173827556699
 50
340.9479272687688081
 51
352.3520068532000096
  0
ARC
  5
68D2
  8
0
 10
300.2522994683420734
 20
-30.2047709265303297
 30
0.0
 40
10.9416595905213008
 50
352.2989571725544806
 51
359.0388631925197842
  0
ARC
  5
68D3
  8
0
 10
263.1120021495394781
 20
-28.9601681285616408
 30
0.0
 40
48.1016229207633472
 50
358.2986342764049823
 51
359.9839737020727739
  0
ARC
  5
68D4
  8
0
 10
309.1573159882316872
 20
-31.46218428150409
 30
0.0
 40
1.5690173827556699
 50
340.3487470468052152
 51
352.3520068532000096
  0
ARC
  5
68D5
  8
0
 10
299.8694018883422245
 20
-30.2047709265303297
 30
0.0
 40
10.9416595905213008
 50
352.2989571725544806
 51
359.0388631925197842
  0
ARC
  5
68D6
  8
0
 10
264.0018051293146186
 20
-28.9792436125452788
 30
0.0
 40
46.8289208166257467
 50
358.2757307370233093
 51
0.0068772414547012
  0
LINE
  5
68D7
  8
0
 10
311.4425544558823162
 20
4.5567106881299821
 30
0.0
 11
311.4577727549506108
 21
4.9925057559918571
 31
0.0
  0
ARC
  5
68D8
  8
0
 10
311.4178436900213001
 20
5.0715207125211492
 30
0.0
 40
0.0078740158707067
 50
90.0000005145101341
 51
179.9999987578586911
  0
LINE
  5
68D9
  8
0
 10
311.4099696741506023
 20
5.07152071269185
 30
0.0
 11
311.4099696741506023
 21
5.0085285866918516
 31
0.0
  0
ARC
  5
68DA
  8
0
 10
311.417843689850713
 20
5.0085285866918516
 30
0.0
 40
0.0078740157000006
 50
180.0
 51
270.0000007276424867
  0
LINE
  5
68DB
  8
0
 10
311.4610723552506215
 20
5.0869939449918604
 30
0.0
 11
311.4825197569505804
 21
5.7011671732918501
 31
0.0
  0
ARC
  5
68DC
  8
0
 10
311.4532031361256941
 20
5.0872687441535467
 30
0.0
 40
0.0078740157617005
 50
270.000000000050477
 51
358.000000185032718
  0
ARC
  5
68DD
  8
0
 10
311.4746505378241181
 20
5.7014419724294347
 30
0.0
 40
0.007874015762421
 50
358.0000003608033126
 51
89.9999998071857163
  0
ARC
  5
68DE
  8
0
 10
311.4499035358242054
 20
4.9927805551294284
 30
0.0
 40
0.0078740157624103
 50
358.0000003608000725
 51
90.000000534893374
  0
ARC
  5
68DF
  8
0
 10
311.4130448841556813
 20
4.5577411850791938
 30
0.0
 40
0.0295275590873452
 50
269.999999990072979
 51
357.999999929438502
  0
LINE
  5
68E0
  8
0
 10
311.2266464627651885
 20
4.7250640196918559
 30
0.0
 11
311.2140899545344723
 21
4.5567106429439121
 31
0.0
  0
ARC
  5
68E1
  8
0
 10
311.19705685431029
 20
4.5586638232143173
 30
0.0
 40
0.0171447197824224
 50
321.5200851817318153
 51
353.4584828196399258
  0
ARC
  5
68E2
  8
0
 10
311.1807231206577171
 20
4.5736396991024568
 30
0.0
 40
0.0392807787459677
 50
288.6809443556659858
 51
319.244032404957693
  0
ARC
  5
68E3
  8
0
 10
311.1424838949940863
 20
4.6867364687515609
 30
0.0
 40
0.1586672004379103
 50
272.4442573381978718
 51
288.6809443556678048
  0
LINE
  5
68E4
  8
0
 10
310.196653910850614
 20
-14.5085765885081504
 30
0.0
 11
310.196653910850614
 21
-13.9704292303081399
 31
0.0
  0
ARC
  5
68E5
  8
0
 10
310.4230318636006132
 20
-14.1978937150023103
 30
0.0
 40
0.2274636738646372
 50
5.6003303454285573
 51
174.3996696545713974
  0
ARC
  5
68E6
  8
0
 10
310.4230318636006132
 20
-14.2811121038139799
 30
0.0
 40
0.2274636738646408
 50
185.600330345428489
 51
354.3996696545714826
  0
ARC
  5
68E7
  8
0
 10
310.8977844610781176
 20
-14.2184470282724291
 30
0.0
 40
0.2520270378799542
 50
105.4352762378105979
 51
170.2337304389957922
  0
ARC
  5
68E8
  8
0
 10
310.8977837862476008
 20
-14.2605589218978608
 30
0.0
 40
0.2520263505476557
 50
189.766266155588994
 51
254.5642871846432058
  0
LINE
  5
68E9
  8
0
 10
310.6494098163506123
 20
-14.1756958449081498
 30
0.0
 11
310.6494098163506123
 21
-14.3033099739081404
 31
0.0
  0
LINE
  5
68EA
  8
0
 10
310.196653910850614
 20
-13.9704292303081399
 30
0.0
 11
310.2005909186506187
 21
-13.9639123582081499
 31
0.0
  0
LINE
  5
68EB
  8
0
 10
310.196653910850614
 20
-14.5085765885081504
 30
0.0
 11
310.2005909186506187
 21
-14.5150934606081403
 31
0.0
  0
LINE
  5
68EC
  8
0
 10
310.3068901313505989
 20
-14.5269044842081403
 30
0.0
 11
310.3068901313505989
 21
-14.5150934606081403
 31
0.0
  0
LINE
  5
68ED
  8
0
 10
310.3501972179506083
 20
-15.1883218070081494
 30
0.0
 11
310.3501972179506083
 21
-14.5347784999081409
 31
0.0
  0
ARC
  5
68EE
  8
0
 10
310.3423232021506237
 20
-14.5347784999081409
 30
0.0
 40
0.0078740157000006
 50
0.0000000000105849
 51
90.0
  0
LINE
  5
68EF
  8
0
 10
308.1054828724035133
 20
14.56398085185978
 30
0.0
 11
307.7191728056855027
 21
14.3153077500714403
 31
0.0
  0
ARC
  5
68F0
  8
0
 10
308.1142917027395924
 20
14.6189924632774897
 30
0.0
 40
0.0339776755894136
 50
321.6015950972137034
 51
12.3330473579766604
  0
ARC
  5
68F1
  8
0
 10
308.0002247508668916
 20
14.7094615327691702
 30
0.0
 40
0.1795658672110818
 50
305.8864747687783847
 51
321.5851187835971814
  0
ARC
  5
68F2
  8
0
 10
307.6890293517561759
 20
14.4020363148134507
 30
0.0
 40
0.0918176004750785
 50
274.5831861037726753
 51
289.1654502423431268
  0
ARC
  5
68F3
  8
0
 10
307.6933568365159886
 20
14.3480525710919107
 30
0.0
 40
0.0376606829987315
 50
237.2164608912038943
 51
274.5831861037743238
  0
ENDSEC
  0
EOF
