  0
SECTION
  2
HEADER
  9
$ACADVER
  1
AC1009
  9
$INSBASE
 10
311.9660227845922122
 20
-3.583718120707303
 30
0.0
  9
$EXTMIN
 10
305.5285390896838749
 20
-6.954701899755789
 30
-0.0000000349181948
  9
$EXTMAX
 10
313.1012967989424851
 20
-2.998071438910805
 30
0.0000000814935746
  9
$LIMMIN
 10
0.0
 20
0.0
  9
$LIMMAX
 10
22.0
 20
17.0
  9
$ORTHOMODE
 70
     0
  9
$REGENMODE
 70
     1
  9
$FILLMODE
 70
     1
  9
$QTEXTMODE
 70
     0
  9
$MIRRTEXT
 70
     0
  9
$DRAGMODE
 70
     2
  9
$LTSCALE
 40
1.2099999999999991
  9
$OSMODE
 70
     7
  9
$ATTMODE
 70
     1
  9
$TEXTSIZE
 40
0.2
  9
$TRACEWID
 40
0.05
  9
$TEXTSTYLE
  7
STANDARD
  9
$CLAYER
  8
0
  9
$CELTYPE
  6
BYLAYER
  9
$CECOLOR
 62
   256
  9
$DIMSCALE
 40
1.0
  9
$DIMASZ
 40
0.1875
  9
$DIMEXO
 40
0.0625
  9
$DIMDLI
 40
0.38
  9
$DIMRND
 40
0.0
  9
$DIMDLE
 40
0.0
  9
$DIMEXE
 40
0.125
  9
$DIMTP
 40
1.5
  9
$DIMTM
 40
1.5
  9
$DIMTXT
 40
1.5
  9
$DIMCEN
 40
0.09
  9
$DIMTSZ
 40
0.0
  9
$DIMTOL
 70
     0
  9
$DIMLIM
 70
     0
  9
$DIMTIH
 70
     1
  9
$DIMTOH
 70
     1
  9
$DIMSE1
 70
     0
  9
$DIMSE2
 70
     0
  9
$DIMTAD
 70
     0
  9
$DIMZIN
 70
     4
  9
$DIMBLK
  1

  9
$DIMASO
 70
     1
  9
$DIMSHO
 70
     1
  9
$DIMPOST
  1

  9
$DIMAPOST
  1

  9
$DIMALT
 70
     0
  9
$DIMALTD
 70
     2
  9
$DIMALTF
 40
25.3999999999999986
  9
$DIMLFAC
 40
1.0
  9
$DIMTOFL
 70
     0
  9
$DIMTVP
 40
0.0
  9
$DIMTIX
 70
     0
  9
$DIMSOXD
 70
     0
  9
$DIMSAH
 70
     0
  9
$DIMBLK1
  1

  9
$DIMBLK2
  1

  9
$DIMSTYLE
  2
STANDARD
  9
$DIMCLRD
 70
     0
  9
$DIMCLRE
 70
     0
  9
$DIMCLRT
 70
     0
  9
$DIMTFAC
 40
1.0
  9
$DIMGAP
 40
0.09
  9
$LUNITS
 70
     2
  9
$LUPREC
 70
     4
  9
$SKETCHINC
 40
0.1
  9
$FILLETRAD
 40
0.0
  9
$AUNITS
 70
     0
  9
$AUPREC
 70
     0
  9
$MENU
  1
.
  9
$ELEVATION
 40
0.0
  9
$PELEVATION
 40
0.0
  9
$THICKNESS
 40
0.0
  9
$LIMCHECK
 70
     0
  9
$BLIPMODE
 70
     0
  9
$CHAMFERA
 40
0.0
  9
$CHAMFERB
 40
0.0
  9
$SKPOLY
 70
     0
  9
$TDCREATE
 40
2457827.4934837957844138
  9
$TDUPDATE
 40
2459564.5527199069038033
  9
$TDINDWG
 40
0.495534375
  9
$TDUSRTIMER
 40
0.495534375
  9
$USRTIMER
 70
     1
  9
$ANGBASE
 50
0.0
  9
$ANGDIR
 70
     0
  9
$PDMODE
 70
     0
  9
$PDSIZE
 40
0.3125
  9
$PLINEWID
 40
0.0
  9
$COORDS
 70
     1
  9
$SPLFRAME
 70
     0
  9
$SPLINETYPE
 70
     6
  9
$SPLINESEGS
 70
     8
  9
$ATTDIA
 70
     1
  9
$ATTREQ
 70
     1
  9
$HANDLING
 70
     1
  9
$HANDSEED
  5
655A
  9
$SURFTAB1
 70
     6
  9
$SURFTAB2
 70
     6
  9
$SURFTYPE
 70
     6
  9
$SURFU
 70
     6
  9
$SURFV
 70
     6
  9
$UCSNAME
  2

  9
$UCSORG
 10
0.0
 20
0.0
 30
0.0
  9
$UCSXDIR
 10
1.0
 20
0.0
 30
0.0
  9
$UCSYDIR
 10
0.0
 20
1.0
 30
0.0
  9
$PUCSNAME
  2

  9
$PUCSORG
 10
0.0
 20
0.0
 30
0.0
  9
$PUCSXDIR
 10
1.0
 20
0.0
 30
0.0
  9
$PUCSYDIR
 10
0.0
 20
1.0
 30
0.0
  9
$USERI1
 70
     0
  9
$USERI2
 70
     0
  9
$USERI3
 70
     0
  9
$USERI4
 70
     0
  9
$USERI5
 70
     0
  9
$USERR1
 40
0.0
  9
$USERR2
 40
0.0
  9
$USERR3
 40
0.0
  9
$USERR4
 40
0.0
  9
$USERR5
 40
0.0
  9
$WORLDVIEW
 70
     1
  9
$SHADEDGE
 70
     3
  9
$SHADEDIF
 70
    70
  9
$TILEMODE
 70
     1
  9
$MAXACTVP
 70
    48
  9
$PLIMCHECK
 70
     0
  9
$PEXTMIN
 10
1.0000000000000000E+20
 20
1.0000000000000000E+20
 30
1.0000000000000000E+20
  9
$PEXTMAX
 10
-1.0000000000000000E+20
 20
-1.0000000000000000E+20
 30
-1.0000000000000000E+20
  9
$PLIMMIN
 10
0.0
 20
0.0
  9
$PLIMMAX
 10
12.0
 20
9.0
  9
$UNITMODE
 70
     0
  9
$VISRETAIN
 70
     1
  9
$PLINEGEN
 70
     0
  9
$PSLTSCALE
 70
     1
  0
ENDSEC
  0
SECTION
  2
TABLES
  0
TABLE
  2
VPORT
 70
     1
  0
VPORT
  2
*ACTIVE
 70
     0
 10
0.0
 20
0.0
 11
1.0
 21
1.0
 12
98.3359903320085351
 22
-12.17883585489386
 13
0.0
 23
0.0
 14
1.0
 24
1.0
 15
0.0
 25
0.0
 16
-0.0000000000000284
 26
0.0
 36
157.2215818301446859
 17
210.9789276123046875
 27
7.2024491855605604
 37
0.0
 40
4.0268603457282266
 41
1.8876941457586609
 42
50.0
 43
0.0
 44
0.0
 50
0.0
 51
0.0
 71
     0
 72
   100
 73
     1
 74
     1
 75
     0
 76
     0
 77
     0
 78
     0
  0
ENDTAB
  0
TABLE
  2
LTYPE
 70
     2
  0
LTYPE
  2
CONTINUOUS
 70
     0
  3
Solid line
 72
    65
 73
     0
 40
0.0
  0
LTYPE
  2
PHANTOM2
 70
     0
  3
___ _ _ ___ _ _ ___ _ _ ___ _ _
 72
    65
 73
     6
 40
1.25
 49
0.625
 49
-0.125
 49
0.125
 49
-0.125
 49
0.125
 49
-0.125
  0
ENDTAB
  0
TABLE
  2
LAYER
 70
     2
  0
LAYER
  2
0
 70
     0
 62
     7
  6
CONTINUOUS
  0
LAYER
  2
DEFPOINTS
 70
     0
 62
     7
  6
CONTINUOUS
  0
ENDTAB
  0
TABLE
  2
STYLE
 70
     1
  0
STYLE
  2
STANDARD
 70
     0
 40
0.0
 41
0.8
 50
0.0
 71
     0
 42
0.2
  3
txt
  4

  0
ENDTAB
  0
TABLE
  2
VIEW
 70
     0
  0
ENDTAB
  0
TABLE
  2
UCS
 70
     0
  0
ENDTAB
  0
TABLE
  2
APPID
 70
     9
  0
APPID
  2
ACAD
 70
     0
  0
APPID
  2
ACAD_MLEADERVER
 70
     0
  0
APPID
  2
ACAD_EXEMPT_FROM_CAD_STANDARDS
 70
     0
  0
APPID
  2
ACAD_NAV_VCDISPLAY
 70
     0
  0
APPID
  2
ACADANNOMONITORALERTICONDI
 70
     0
  0
APPID
  2
ACAD_DSTYLE_DIMJAG
 70
     0
  0
APPID
  2
ACAD_DSTYLE_DIMTALN
 70
     0
  0
APPID
  2
ACDBATTR
 70
     0
  0
APPID
  2
DCO15
 70
     0
  0
ENDTAB
  0
TABLE
  2
DIMSTYLE
 70
     1
  0
DIMSTYLE
  2
STANDARD
 70
     0
  3

  4

  5

  6

  7

 40
1.0
 41
0.1875
 42
0.0625
 43
0.38
 44
0.125
 45
0.0
 46
0.0
 47
1.5
 48
1.5
140
1.5
141
0.09
142
0.0
143
25.3999999999999986
144
1.0
145
0.0
146
1.0
147
0.09
 71
     0
 72
     0
 73
     1
 74
     1
 75
     0
 76
     0
 77
     0
 78
     4
170
     0
171
     2
172
     0
173
     0
174
     0
175
     0
176
     0
177
     0
178
     0
  0
ENDTAB
  0
ENDSEC
  0
SECTION
  2
BLOCKS
  0
BLOCK
  8
0
  2
$MODEL_SPACE
 70
     0
 10
0.0
 20
0.0
 30
0.0
  3
$MODEL_SPACE
  1

  0
ENDBLK
  5
21
  8
0
  0
BLOCK
 67
     1
  8
0
  2
$PAPER_SPACE
 70
     0
 10
0.0
 20
0.0
 30
0.0
  3
$PAPER_SPACE
  1

  0
ENDBLK
  5
1D
 67
     1
  8
0
  0
ENDSEC
  0
SECTION
  2
ENTITIES
  0
ATTDEF
  5
4EF9
  8
DEFPOINTS
 10
311.9660338836919209
 20
-3.580372520088754
 30
0.0
 40
0.001
  1
K-98444IN
  3

  2
MODELNUMBER
 70
     0
1001
ACDBATTR
1070
     0
1070
     1
  0
ATTDEF
  5
4EFA
  8
DEFPOINTS
 10
311.9660338836919209
 20
-3.5820391867554342
 30
0.0
 40
0.001
  1

  3

  2
TRADENAME
 70
     0
1001
ACDBATTR
1070
     0
1070
     1
  0
ATTDEF
  5
4EFB
  8
DEFPOINTS
 10
311.9660338836919209
 20
-3.5837058534221131
 30
0.0
 40
0.001
  1
HANDSHOWER
  3

  2
PRODUCT
 70
     0
1001
ACDBATTR
1070
     0
1070
     1
  0
ARC
  5
6424
  8
0
 10
316.7436778851758845
 20
-5.9422272426830238
 30
0.0
 40
5.9075496351248056
 50
174.9302967372148885
 51
185.0697032627851115
  0
ARC
  5
6425
  8
0
 10
319.1192870947970164
 20
-5.7734407942002539
 30
0.0
 40
8.2888859530949937
 50
184.7807601940828874
 51
186.5988769750526046
  0
ARC
  5
6426
  8
0
 10
311.0509997691639796
 20
-6.7161881692365952
 30
0.0
 40
0.1659740210600282
 50
183.382311648482812
 51
248.2645672814668103
  0
ARC
  5
6427
  8
0
 10
311.2473212068729254
 20
-6.2373802029331102
 30
0.0
 40
0.6834611996446682
 50
247.8411341655292972
 51
260.5206018418725762
  0
ARC
  5
6428
  8
0
 10
311.5980268561439175
 20
-3.905151428617017
 30
0.0
 40
3.0418415511091661
 50
261.2398676916196791
 51
267.7986186655915049
  0
ARC
  5
6429
  8
0
 10
315.2024774601100034
 20
-5.8248050189219986
 30
0.0
 40
4.3620445563879926
 50
157.7208512910877971
 51
174.6777173350666033
  0
ARC
  5
642A
  8
0
 10
294.2466861646535108
 20
3.4587295384096981
 30
0.0
 40
18.56015505380444
 50
335.7269978366934993
 51
337.3359894247569173
  0
ARC
  5
642B
  8
0
 10
309.1292489510590826
 20
-3.602385898533754
 30
0.0
 40
2.2462108730257002
 50
357.68827041937692
 51
0.2028454271218208
  0
ARC
  5
642C
  8
0
 10
292.1677001061688088
 20
262.5055922455055111
 30
0.0
 40
267.0156427926373226
 50
272.9898242096202807
 51
273.0107240650871745
  0
ARC
  5
642D
  8
0
 10
292.1677001061688088
 20
262.5055922455055111
 30
0.0
 40
267.0156427926373226
 50
273.0763574449127873
 51
274.1129933109045851
  0
ARC
  5
642E
  8
0
 10
291.8909494163160048
 20
266.6136552649181226
 30
0.0
 40
270.7500780844393944
 50
273.0002844101932169
 51
273.0234001487066848
  0
ARC
  5
642F
  8
0
 10
291.8909494163160048
 20
266.6136552649181226
 30
0.0
 40
270.7500780844393944
 50
273.0871250934928867
 51
274.1313740325920207
  0
LINE
  5
6430
  8
0
 10
305.8108082592422079
 20
-3.5037329908743748
 30
0.0
 11
305.5494095152421892
 21
-3.9564888963743741
 31
0.0
  0
LINE
  5
6431
  8
0
 10
305.5494095152421892
 20
-3.9564888963743741
 30
0.0
 11
305.8108082592422079
 21
-4.4092448018743786
 31
0.0
  0
LINE
  5
6432
  8
0
 10
305.8108082592422079
 20
-4.4092448018743786
 30
0.0
 11
306.3336057470422134
 21
-4.4092448018743786
 31
0.0
  0
LINE
  5
6433
  8
0
 10
306.3336057470422134
 20
-4.4092448018743786
 30
0.0
 11
306.5950044909421877
 21
-3.9564888963743741
 31
0.0
  0
LINE
  5
6434
  8
0
 10
306.5950044909421877
 20
-3.9564888963743741
 30
0.0
 11
306.3336057470422134
 21
-3.5037329908743748
 31
0.0
  0
LINE
  5
6435
  8
0
 10
306.3336057470422134
 20
-3.5037329908743748
 30
0.0
 11
305.8108082592422079
 21
-3.5037329908743748
 31
0.0
  0
CIRCLE
  5
6436
  8
0
 10
306.0722070031421822
 20
-3.9564888963743741
 30
0.0
 40
0.1188098220000029
  0
CIRCLE
  5
6437
  8
0
 10
306.0722070031421822
 20
-3.9564888963743741
 30
0.0
 40
0.1914487900000026
  0
ARC
  5
6438
  8
0
 10
307.1883676840084831
 20
-5.9422272426830238
 30
0.0
 40
5.9075496351248056
 50
354.9302967372149169
 51
5.0697032627851151
  0
ARC
  5
6439
  8
0
 10
304.8127584743874081
 20
-5.7734407942002539
 30
0.0
 40
8.2888859530949937
 50
353.4011230249471964
 51
355.2192398059171978
  0
ARC
  5
643A
  8
0
 10
312.881045800020388
 20
-6.7161881692365952
 30
0.0
 40
0.1659740210600282
 50
291.7354327185332181
 51
356.6176883515170744
  0
ARC
  5
643B
  8
0
 10
312.6847243623114991
 20
-6.2373802029331102
 30
0.0
 40
0.6834611996446682
 50
279.4793981581274238
 51
292.1588658344707028
  0
ARC
  5
643C
  8
0
 10
312.334018713040507
 20
-3.905151428617017
 30
0.0
 40
3.0418415511091661
 50
272.2013813344084951
 51
278.7601323083803209
  0
ARC
  5
643D
  8
0
 10
308.729568109074421
 20
-5.8248050189219986
 30
0.0
 40
4.3620445563879926
 50
5.3222826649334181
 51
22.2791487089121603
  0
ARC
  5
643E
  8
0
 10
329.6853594045309137
 20
3.4587295384096981
 30
0.0
 40
18.56015505380444
 50
202.6640105752431111
 51
204.2730021633065007
  0
ARC
  5
643F
  8
0
 10
314.802796618125285
 20
-3.602385898533754
 30
0.0
 40
2.2462108730257002
 50
179.7971545728782132
 51
182.3117295806227958
  0
CIRCLE
  5
6440
  8
0
 10
306.0722070031421822
 20
-3.9564888963743741
 30
0.0
 40
0.3739600249598693
  0
CIRCLE
  5
6441
  8
0
 10
306.0722070031421822
 20
-3.9564888963743741
 30
0.0
 40
0.2204724409000001
  0
ARC
  5
6442
  8
0
 10
311.9660227845922122
 20
-3.590172522951526
 30
0.0
 40
0.5905924092771562
 50
359.5866111099833233
 51
180.4133888900167051
  0
ARC
  5
6443
  8
0
 10
311.9660227845922122
 20
5.9596415097854267
 30
0.0
 40
12.9134944606811999
 50
267.8483167299121988
 51
272.1516832700876876
  0
LINE
  5
6445
  8
0
 10
311.4243498030469937
 20
-6.4576231409289298
 30
0.0
 11
312.507695766137374
 21
-6.4576231409289298
 31
0.0
  0
ARC
  5
6446
  8
0
 10
311.3853629329427122
 20
-8.9226958610985232
 30
0.0
 40
2.4635365264243481
 50
91.1077644708571057
 51
96.032955716064933
  0
ARC
  5
6447
  8
0
 10
311.1957665907377759
 20
-7.1287337224084899
 30
0.0
 40
0.6595833873348612
 50
96.032955716064933
 51
106.325158961915804
  0
ARC
  5
6448
  8
0
 10
311.0861960792959735
 20
-6.7437781362052931
 30
0.0
 40
0.2593674620626201
 50
106.9997339483907979
 51
124.7857824567130933
  0
ARC
  5
6449
  8
0
 10
311.0122003485773803
 20
-6.6346244049253249
 30
0.0
 40
0.1275140555692058
 50
125.460357443188002
 51
177.731541832322705
  0
ARC
  5
644A
  8
0
 10
311.6674770349948744
 20
-18.8842373469232498
 30
0.0
 40
12.4289923757131007
 50
91.1208513442118289
 51
91.5202368780793591
  0
ARC
  5
644B
  8
0
 10
311.6196101173965189
 20
-6.6737507076389591
 30
0.0
 40
0.7361504324398102
 50
176.5598361586243925
 51
184.0685348445950069
  0
ARC
  5
644C
  8
0
 10
312.5466826362417123
 20
-8.9226958610985232
 30
0.0
 40
2.4635365264243481
 50
83.967044283935067
 51
88.8922355291428801
  0
ARC
  5
644D
  8
0
 10
312.7362789784465917
 20
-7.1287337224084899
 30
0.0
 40
0.6595833873348612
 50
73.6748410380841534
 51
83.967044283935067
  0
ARC
  5
644E
  8
0
 10
312.8458494898882805
 20
-6.7437781362052931
 30
0.0
 40
0.2593674620626201
 50
55.2142175432869209
 51
73.0002660516092163
  0
ARC
  5
644F
  8
0
 10
312.9198452206069874
 20
-6.6346244049253249
 30
0.0
 40
0.1275140555692058
 50
2.268458167677279
 51
54.5396425568120122
  0
ARC
  5
6450
  8
0
 10
312.2645685341894932
 20
-18.8842373469232498
 30
0.0
 40
12.4289923757131007
 50
88.4797631219206551
 51
88.8791486557881711
  0
ARC
  5
6451
  8
0
 10
312.3124354517879055
 20
-6.6737507076389591
 30
0.0
 40
0.7361504324398102
 50
355.9314651554046804
 51
3.4401638413753051
  0
ENDSEC
  0
EOF
