  0
SECTION
  2
HEADER
  9
$ACADVER
  1
AC1009
  9
$INSBASE
 10
340.4748015274574868
 20
-2.7607341763069111
 30
0.0
  9
$EXTMIN
 10
334.0444000999661966
 20
-40.5824639227233632
 30
-0.0000000349181948
  9
$EXTMAX
 10
341.628854253214115
 20
6.2071872484595181
 30
0.0000000814935746
  9
$LIMMIN
 10
0.0
 20
0.0
  9
$LIMMAX
 10
22.0
 20
17.0
  9
$ORTHOMODE
 70
     0
  9
$REGENMODE
 70
     1
  9
$FILLMODE
 70
     1
  9
$QTEXTMODE
 70
     0
  9
$MIRRTEXT
 70
     0
  9
$DRAGMODE
 70
     2
  9
$LTSCALE
 40
1.2099999999999991
  9
$OSMODE
 70
     7
  9
$ATTMODE
 70
     1
  9
$TEXTSIZE
 40
0.2
  9
$TRACEWID
 40
0.05
  9
$TEXTSTYLE
  7
STANDARD
  9
$CLAYER
  8
0
  9
$CELTYPE
  6
BYLAYER
  9
$CECOLOR
 62
   256
  9
$DIMSCALE
 40
1.0
  9
$DIMASZ
 40
0.1875
  9
$DIMEXO
 40
0.0625
  9
$DIMDLI
 40
0.38
  9
$DIMRND
 40
0.0
  9
$DIMDLE
 40
0.0
  9
$DIMEXE
 40
0.125
  9
$DIMTP
 40
1.5
  9
$DIMTM
 40
1.5
  9
$DIMTXT
 40
1.5
  9
$DIMCEN
 40
0.09
  9
$DIMTSZ
 40
0.0
  9
$DIMTOL
 70
     0
  9
$DIMLIM
 70
     0
  9
$DIMTIH
 70
     1
  9
$DIMTOH
 70
     1
  9
$DIMSE1
 70
     0
  9
$DIMSE2
 70
     0
  9
$DIMTAD
 70
     0
  9
$DIMZIN
 70
     4
  9
$DIMBLK
  1

  9
$DIMASO
 70
     1
  9
$DIMSHO
 70
     1
  9
$DIMPOST
  1

  9
$DIMAPOST
  1

  9
$DIMALT
 70
     0
  9
$DIMALTD
 70
     2
  9
$DIMALTF
 40
25.3999999999999986
  9
$DIMLFAC
 40
1.0
  9
$DIMTOFL
 70
     0
  9
$DIMTVP
 40
0.0
  9
$DIMTIX
 70
     0
  9
$DIMSOXD
 70
     0
  9
$DIMSAH
 70
     0
  9
$DIMBLK1
  1

  9
$DIMBLK2
  1

  9
$DIMSTYLE
  2
STANDARD
  9
$DIMCLRD
 70
     0
  9
$DIMCLRE
 70
     0
  9
$DIMCLRT
 70
     0
  9
$DIMTFAC
 40
1.0
  9
$DIMGAP
 40
0.09
  9
$LUNITS
 70
     2
  9
$LUPREC
 70
     4
  9
$SKETCHINC
 40
0.1
  9
$FILLETRAD
 40
0.0
  9
$AUNITS
 70
     0
  9
$AUPREC
 70
     0
  9
$MENU
  1
.
  9
$ELEVATION
 40
0.0
  9
$PELEVATION
 40
0.0
  9
$THICKNESS
 40
0.0
  9
$LIMCHECK
 70
     0
  9
$BLIPMODE
 70
     0
  9
$CHAMFERA
 40
0.0
  9
$CHAMFERB
 40
0.0
  9
$SKPOLY
 70
     0
  9
$TDCREATE
 40
2457827.4934837957844138
  9
$TDUPDATE
 40
2459564.5529513889923692
  9
$TDINDWG
 40
0.4936246528
  9
$TDUSRTIMER
 40
0.4936246528
  9
$USRTIMER
 70
     1
  9
$ANGBASE
 50
0.0
  9
$ANGDIR
 70
     0
  9
$PDMODE
 70
     0
  9
$PDSIZE
 40
0.3125
  9
$PLINEWID
 40
0.0
  9
$COORDS
 70
     1
  9
$SPLFRAME
 70
     0
  9
$SPLINETYPE
 70
     6
  9
$SPLINESEGS
 70
     8
  9
$ATTDIA
 70
     1
  9
$ATTREQ
 70
     1
  9
$HANDLING
 70
     1
  9
$HANDSEED
  5
69D3
  9
$SURFTAB1
 70
     6
  9
$SURFTAB2
 70
     6
  9
$SURFTYPE
 70
     6
  9
$SURFU
 70
     6
  9
$SURFV
 70
     6
  9
$UCSNAME
  2

  9
$UCSORG
 10
0.0
 20
0.0
 30
0.0
  9
$UCSXDIR
 10
1.0
 20
0.0
 30
0.0
  9
$UCSYDIR
 10
0.0
 20
1.0
 30
0.0
  9
$PUCSNAME
  2

  9
$PUCSORG
 10
0.0
 20
0.0
 30
0.0
  9
$PUCSXDIR
 10
1.0
 20
0.0
 30
0.0
  9
$PUCSYDIR
 10
0.0
 20
1.0
 30
0.0
  9
$USERI1
 70
     0
  9
$USERI2
 70
     0
  9
$USERI3
 70
     0
  9
$USERI4
 70
     0
  9
$USERI5
 70
     0
  9
$USERR1
 40
0.0
  9
$USERR2
 40
0.0
  9
$USERR3
 40
0.0
  9
$USERR4
 40
0.0
  9
$USERR5
 40
0.0
  9
$WORLDVIEW
 70
     1
  9
$SHADEDGE
 70
     3
  9
$SHADEDIF
 70
    70
  9
$TILEMODE
 70
     1
  9
$MAXACTVP
 70
    48
  9
$PLIMCHECK
 70
     0
  9
$PEXTMIN
 10
1.0000000000000000E+20
 20
1.0000000000000000E+20
 30
1.0000000000000000E+20
  9
$PEXTMAX
 10
-1.0000000000000000E+20
 20
-1.0000000000000000E+20
 30
-1.0000000000000000E+20
  9
$PLIMMIN
 10
0.0
 20
0.0
  9
$PLIMMAX
 10
12.0
 20
9.0
  9
$UNITMODE
 70
     0
  9
$VISRETAIN
 70
     1
  9
$PLINEGEN
 70
     0
  9
$PSLTSCALE
 70
     1
  0
ENDSEC
  0
SECTION
  2
TABLES
  0
TABLE
  2
VPORT
 70
     1
  0
VPORT
  2
*ACTIVE
 70
     0
 10
0.0
 20
0.0
 11
1.0
 21
1.0
 12
126.8576995642853973
 22
-24.3900875226924789
 13
0.0
 23
0.0
 14
1.0
 24
1.0
 15
0.0
 25
0.0
 16
-0.0000000000000284
 26
0.0
 36
157.2215818301446859
 17
210.9789276123046875
 27
7.2024491855605604
 37
0.0
 40
47.1246606067760681
 41
1.8876941457586609
 42
50.0
 43
0.0
 44
0.0
 50
0.0
 51
0.0
 71
     0
 72
   100
 73
     1
 74
     1
 75
     0
 76
     0
 77
     0
 78
     0
  0
ENDTAB
  0
TABLE
  2
LTYPE
 70
     2
  0
LTYPE
  2
CONTINUOUS
 70
     0
  3
Solid line
 72
    65
 73
     0
 40
0.0
  0
LTYPE
  2
PHANTOM2
 70
     0
  3
___ _ _ ___ _ _ ___ _ _ ___ _ _
 72
    65
 73
     6
 40
1.25
 49
0.625
 49
-0.125
 49
0.125
 49
-0.125
 49
0.125
 49
-0.125
  0
ENDTAB
  0
TABLE
  2
LAYER
 70
     2
  0
LAYER
  2
0
 70
     0
 62
     7
  6
CONTINUOUS
  0
LAYER
  2
DEFPOINTS
 70
     0
 62
     7
  6
CONTINUOUS
  0
ENDTAB
  0
TABLE
  2
STYLE
 70
     1
  0
STYLE
  2
STANDARD
 70
     0
 40
0.0
 41
0.8
 50
0.0
 71
     0
 42
0.2
  3
txt
  4

  0
ENDTAB
  0
TABLE
  2
VIEW
 70
     0
  0
ENDTAB
  0
TABLE
  2
UCS
 70
     0
  0
ENDTAB
  0
TABLE
  2
APPID
 70
     9
  0
APPID
  2
ACAD
 70
     0
  0
APPID
  2
ACAD_MLEADERVER
 70
     0
  0
APPID
  2
ACAD_EXEMPT_FROM_CAD_STANDARDS
 70
     0
  0
APPID
  2
ACAD_NAV_VCDISPLAY
 70
     0
  0
APPID
  2
ACADANNOMONITORALERTICONDI
 70
     0
  0
APPID
  2
ACAD_DSTYLE_DIMJAG
 70
     0
  0
APPID
  2
ACAD_DSTYLE_DIMTALN
 70
     0
  0
APPID
  2
ACDBATTR
 70
     0
  0
APPID
  2
DCO15
 70
     0
  0
ENDTAB
  0
TABLE
  2
DIMSTYLE
 70
     1
  0
DIMSTYLE
  2
STANDARD
 70
     0
  3

  4

  5

  6

  7

 40
1.0
 41
0.1875
 42
0.0625
 43
0.38
 44
0.125
 45
0.0
 46
0.0
 47
1.5
 48
1.5
140
1.5
141
0.09
142
0.0
143
25.3999999999999986
144
1.0
145
0.0
146
1.0
147
0.09
 71
     0
 72
     0
 73
     1
 74
     1
 75
     0
 76
     0
 77
     0
 78
     4
170
     0
171
     2
172
     0
173
     0
174
     0
175
     0
176
     0
177
     0
178
     0
  0
ENDTAB
  0
ENDSEC
  0
SECTION
  2
BLOCKS
  0
BLOCK
  8
0
  2
$MODEL_SPACE
 70
     0
 10
0.0
 20
0.0
 30
0.0
  3
$MODEL_SPACE
  1

  0
ENDBLK
  5
21
  8
0
  0
BLOCK
 67
     1
  8
0
  2
$PAPER_SPACE
 70
     0
 10
0.0
 20
0.0
 30
0.0
  3
$PAPER_SPACE
  1

  0
ENDBLK
  5
1D
 67
     1
  8
0
  0
ENDSEC
  0
SECTION
  2
ENTITIES
  0
ATTDEF
  5
4EF9
  8
DEFPOINTS
 10
340.4748941561256856
 20
-2.7572981746750891
 30
0.0
 40
0.001
  1
K-98444IN
  3

  2
MODELNUMBER
 70
     0
1001
ACDBATTR
1070
     0
1070
     1
  0
ATTDEF
  5
4EFA
  8
DEFPOINTS
 10
340.4748941561256856
 20
-2.758964841341768
 30
0.0
 40
0.001
  1

  3

  2
TRADENAME
 70
     0
1001
ACDBATTR
1070
     0
1070
     1
  0
ATTDEF
  5
4EFB
  8
DEFPOINTS
 10
340.4748941561256856
 20
-2.7606315080084469
 30
0.0
 40
0.001
  1
HANDSHOWER
  3

  2
PRODUCT
 70
     0
1001
ACDBATTR
1070
     0
1070
     1
  0
LINE
  5
65CB
  8
0
 10
340.9866583774074797
 20
-2.7607341763068969
 30
0.0
 11
339.9629446775074939
 21
-2.7607341763068969
 31
0.0
  0
LINE
  5
65CC
  8
0
 10
340.0437727899324045
 20
-3.390655436106897
 30
0.0
 11
340.905830264982626
 21
-3.390655436106897
 31
0.0
  0
LINE
  5
65CD
  8
0
 10
340.0470649349027781
 20
-3.4693955936069041
 30
0.0
 11
340.9025306646810236
 21
-3.4693955936069041
 31
0.0
  0
LINE
  5
65CE
  8
0
 10
340.100785779407488
 20
-3.9418365385069052
 30
0.0
 11
340.8488172755074856
 21
-3.9418365385069052
 31
0.0
  0
LINE
  5
65CF
  8
0
 10
340.0485424423075074
 20
-3.7449861448069011
 30
0.0
 11
340.9010606126075231
 21
-3.7449861448069011
 31
0.0
  0
LINE
  5
65D0
  8
0
 10
340.100785779407488
 20
-3.7449861448069011
 30
0.0
 11
340.100785779407488
 21
-3.9418365385069052
 31
0.0
  0
LINE
  5
65D1
  8
0
 10
340.0485424423075074
 20
-3.7449861448069011
 30
0.0
 11
340.0392031711074878
 21
-3.4775444085069012
 31
0.0
  0
ARC
  5
65D2
  8
0
 10
340.0791322360367985
 20
-3.398529451977609
 30
0.0
 40
0.0078740158707067
 50
0.0000012421404409
 51
89.9999994854898659
  0
LINE
  5
65D3
  8
0
 10
340.0870062519074963
 20
-3.3985294518069078
 30
0.0
 11
340.0870062519074963
 21
-3.4615215778069048
 31
0.0
  0
ARC
  5
65D4
  8
0
 10
340.0791322362074993
 20
-3.4615215778069048
 30
0.0
 40
0.0078740157000006
 50
269.999999272355808
 51
0.0
  0
LINE
  5
65D5
  8
0
 10
340.0359035708074771
 20
-3.3830562195068969
 30
0.0
 11
340.0144561691075182
 21
-2.7688829912069082
 31
0.0
  0
ARC
  5
65D6
  8
0
 10
340.0437727899324045
 20
-3.3827814203452098
 30
0.0
 40
0.0078740157616968
 50
181.9999998149681062
 51
269.9999999999608917
  0
ARC
  5
65D7
  8
0
 10
340.0223253882339804
 20
-2.7686081920693222
 30
0.0
 40
0.007874015762421
 50
90.0000001928126352
 51
181.9999996391966874
  0
ARC
  5
65D8
  8
0
 10
339.9630392580872922
 20
-2.6819171218237439
 30
0.0
 40
0.0788171112315527
 50
180.0782751526865013
 51
269.9312450144095124
  0
LINE
  5
65D9
  8
0
 10
339.8842222204074801
 20
-2.6820247985069008
 30
0.0
 11
339.8839954870074962
 21
-2.4300932148069019
 31
0.0
  0
ARC
  5
65DA
  8
0
 10
290.6362778682151884
 20
-2.2667372079139478
 30
0.0
 40
49.2479885461862992
 50
359.8099490518753214
 51
1.886928260117684
  0
ARC
  5
65DB
  8
0
 10
311.6152527130190037
 20
-1.6275984429392589
 30
0.0
 40
28.2593922574746692
 50
1.992329327392043
 51
4.8142965078480264
  0
ARC
  5
65DC
  8
0
 10
319.1127178339797865
 20
-1.07342542544471
 30
0.0
 40
20.7420117725962605
 50
5.0270443768038948
 51
8.9347543073439795
  0
ARC
  5
65DD
  8
0
 10
352.5394758216468745
 20
4.8587395407618308
 30
0.0
 40
13.1945242313899698
 50
176.8849299652760863
 51
183.1150700347239137
  0
ARC
  5
65DE
  8
0
 10
354.1241745529663945
 20
5.0166770802659073
 30
0.0
 40
14.7856372975568195
 50
183.3924867949376107
 51
187.6086954185296918
  0
ARC
  5
65DF
  8
0
 10
391.5166336268508758
 20
10.2683447060397004
 30
0.0
 40
52.5448453812816183
 50
187.8861121787421098
 51
188.8901800189555047
  0
ARC
  5
65E0
  8
0
 10
355.3501424551272976
 20
4.7311698630138599
 30
0.0
 40
16.0079902573463393
 50
175.442928412116288
 51
176.9756788430431129
  0
ARC
  5
65E1
  8
0
 10
339.5360811866898985
 20
5.9970616440469646
 30
0.0
 40
0.1434472661179218
 50
113.2128936783594071
 51
177.6122793555489068
  0
ARC
  5
65E2
  8
0
 10
339.6561506039346909
 20
5.7001332253881278
 30
0.0
 40
0.4637117309355588
 50
100.9356640504131946
 51
112.3869266604556003
  0
ARC
  5
65E3
  8
0
 10
339.9568131416457959
 20
4.0106209340578403
 30
0.0
 40
2.1797284766888958
 50
94.6858624509821709
 51
100.2703850167994943
  0
ARC
  5
65E4
  8
0
 10
340.2928278738792756
 20
-0.0454657818497708
 30
0.0
 40
6.2497089407738846
 50
91.6010142490968065
 51
94.7183108177719362
  0
ARC
  5
65E5
  8
0
 10
340.1781732175368234
 20
16.1297487283677903
 30
0.0
 40
10.3776384501907604
 50
267.9170977349444911
 51
269.4380358566298241
  0
ARC
  5
65E6
  8
0
 10
339.785531608767883
 20
5.3338529392491969
 30
0.0
 40
0.4253950738914926
 50
87.9170977349445053
 51
110.6321594120726957
  0
ARC
  5
65E7
  8
0
 10
361.4656804788057798
 20
4.578018616126954
 30
0.0
 40
22.0007591653111483
 50
177.6581955603045913
 51
178.3931275325300021
  0
ARC
  5
65E8
  8
0
 10
354.1495045352493207
 20
4.736361022188035
 30
0.0
 40
14.6830949079160806
 50
178.210206883644787
 51
185.5002868460373975
  0
ARC
  5
65E9
  8
0
 10
339.8669045638404214
 20
3.386838438920023
 30
0.0
 40
0.342805692800178
 50
209.9205721994887881
 51
263.7274031588905814
  0
ARC
  5
65EA
  8
0
 10
339.8546943847729267
 20
3.3681622687859232
 30
0.0
 40
0.3230650688391461
 50
186.9669396747968904
 51
208.1296528170497027
  0
ARC
  5
65EB
  8
0
 10
339.8546943847729267
 20
3.3681622687859232
 30
0.0
 40
0.3230650688391461
 50
265.5183225413305763
 51
268.5680761821161013
  0
ARC
  5
65EC
  8
0
 10
339.7418277602731109
 20
3.448856163209939
 30
0.0
 40
0.062283951652395
 50
106.465638550463197
 51
187.3109848705638001
  0
ARC
  5
65ED
  8
0
 10
339.7565233295130724
 20
3.4533248774056631
 30
0.0
 40
0.0774710968390817
 50
189.2063484745362985
 51
227.6246329016233858
  0
ARC
  5
65EE
  8
0
 10
339.7566026385911755
 20
3.4144226094747832
 30
0.0
 40
0.0995908253188182
 50
60.4712380738347122
 51
109.0030771309779993
  0
ARC
  5
65EF
  8
0
 10
339.7684406093529788
 20
3.4333301642866871
 30
0.0
 40
0.0773109670294286
 50
9.9111640281203144
 51
61.1986792853478292
  0
ARC
  5
65F0
  8
0
 10
339.7856785303130778
 20
3.4387571868948461
 30
0.0
 40
0.0594438281415719
 50
330.3897852640109249
 51
7.6174994548909156
  0
ARC
  5
65F1
  8
0
 10
339.7724499926575277
 20
3.446681113946922
 30
0.0
 40
0.0748608290241592
 50
290.5171767293251719
 51
330.1196586937927009
  0
ARC
  5
65F2
  8
0
 10
339.7586463416820948
 20
3.429650013762199
 30
0.0
 40
0.0638638352402513
 50
194.110708236613192
 51
269.3651834360575208
  0
ARC
  5
65F3
  8
0
 10
339.7637488041967799
 20
3.426240205109309
 30
0.0
 40
0.0607286746412532
 50
264.5099988492225975
 51
327.9007481214421205
  0
LINE
  5
65F4
  8
0
 10
339.815193817107513
 20
3.3939697453930928
 30
0.0
 11
339.8445977726074716
 21
3.4466370086931022
 31
0.0
  0
LINE
  5
65F5
  8
0
 10
339.6967095039075275
 20
3.4140802488931001
 30
0.0
 11
339.6858472981651857
 21
3.4761596152926151
 31
0.0
  0
ARC
  5
65F6
  8
0
 10
339.7639650802364031
 20
3.4833378218380342
 30
0.0
 40
0.090513748985565
 50
201.1860156790802137
 51
220.1785637297151084
  0
ARC
  5
65F7
  8
0
 10
339.7810048531213738
 20
3.4697693477212961
 30
0.0
 40
0.0786726542491053
 50
298.9406336865715161
 51
321.0503370858074277
  0
ARC
  5
65F8
  8
0
 10
339.7552675987602129
 20
3.3994563318346991
 30
0.0
 40
0.0234511803253728
 50
46.4487091698999706
 51
121.4785206614383952
  0
ARC
  5
65F9
  8
0
 10
339.7626637907245026
 20
3.4063241130239699
 30
0.0
 40
0.013392455328228
 50
290.3677455710410982
 51
49.1386484547987834
  0
ARC
  5
65FA
  8
0
 10
339.7579120582680048
 20
3.4158824580447908
 30
0.0
 40
0.0240334895564653
 50
234.5882875662474873
 51
293.0576848559227869
  0
ARC
  5
65FB
  8
0
 10
339.7505815692114766
 20
3.4081702258189348
 30
0.0
 40
0.0135840056816439
 50
123.8150198281786061
 51
240.9517310708671971
  0
ARC
  5
65FC
  8
0
 10
340.1177944318242226
 20
3.4083750185002231
 30
0.0
 40
0.0939094896840666
 50
53.8987687236481321
 51
126.9699142236611067
  0
ARC
  5
65FD
  8
0
 10
340.1321086130968752
 20
3.4280037746064802
 30
0.0
 40
0.0696157898467636
 50
14.6081178507577008
 51
53.8987687236458584
  0
ARC
  5
65FE
  8
0
 10
340.1384531658209767
 20
3.4309841005085668
 30
0.0
 40
0.0627378146437836
 50
335.4539199402713052
 51
13.4355549055234995
  0
ARC
  5
65FF
  8
0
 10
340.1235905297999125
 20
3.4395679739288592
 30
0.0
 40
0.0798399503175153
 50
297.3021501190398794
 51
334.2813569950315014
  0
ARC
  5
6600
  8
0
 10
340.1035622473767148
 20
3.428913194159704
 30
0.0
 40
0.068948288025959
 50
127.7849366342839943
 51
163.3803832524660038
  0
ARC
  5
6601
  8
0
 10
340.1013301348172035
 20
3.431827902734625
 30
0.0
 40
0.0660109380401369
 50
165.2507870344821015
 51
237.767739109129991
  0
ARC
  5
6602
  8
0
 10
340.1172940251742034
 20
3.4262797961563791
 30
0.0
 40
0.0722833920194031
 50
236.9696989674858116
 51
296.7866006589009089
  0
ARC
  5
6603
  8
0
 10
340.1251266933646207
 20
3.410224890161345
 30
0.0
 40
0.0544219228686947
 50
297.042739690849487
 51
334.5646661305751763
  0
ARC
  5
6604
  8
0
 10
340.109120189040425
 20
3.4131993141453729
 30
0.0
 40
0.0568622063128283
 50
196.5919664470972918
 51
236.690443425526297
  0
LINE
  5
6605
  8
0
 10
340.1742735319074882
 20
3.3868511024930958
 30
0.0
 11
340.1996060460074887
 21
3.4424045751930938
 31
0.0
  0
LINE
  5
6606
  8
0
 10
340.0546255759074938
 20
3.3969620838930998
 30
0.0
 11
340.0394352849925781
 21
3.4542430010500729
 31
0.0
  0
ARC
  5
6607
  8
0
 10
340.1038212973560917
 20
3.4591669039213708
 30
0.0
 40
0.075352044853058
 50
204.8819786981354127
 51
227.4291071954799008
  0
ARC
  5
6608
  8
0
 10
340.1267967936092873
 20
3.4668658061762438
 30
0.0
 40
0.0886757288296703
 50
304.9742985456568931
 51
324.8966643591299999
  0
ARC
  5
6609
  8
0
 10
340.1141316915346238
 20
3.3876005960981099
 30
0.0
 40
0.023461805976579
 50
49.3626509782991505
 51
124.5748895072734967
  0
ARC
  5
660A
  8
0
 10
340.1205037042798836
 20
3.3950251505619771
 30
0.0
 40
0.0136778111169557
 50
293.8505480421897005
 51
49.3626509783014527
  0
ARC
  5
660B
  8
0
 10
340.1155653693799081
 20
3.4061951547080578
 30
0.0
 40
0.0258907609739088
 50
239.9464938194956005
 51
293.8505480421900984
  0
ARC
  5
660C
  8
0
 10
340.1087751511893771
 20
3.395896175587978
 30
0.0
 40
0.0135948505811909
 50
125.8271404334866048
 51
242.9803085222006018
  0
ARC
  5
660D
  8
0
 10
339.7255445306288948
 20
3.7305066015929782
 30
0.0
 40
0.062283951652395
 50
106.465638550463197
 51
187.3109848705638001
  0
ARC
  5
660E
  8
0
 10
339.7402400998690268
 20
3.7349753157887018
 30
0.0
 40
0.0774710968390817
 50
189.2063484745362985
 51
227.6246329016233858
  0
ARC
  5
660F
  8
0
 10
339.740319408947073
 20
3.6960730478578219
 30
0.0
 40
0.0995908253188182
 50
60.4712380738347122
 51
109.0030771309779993
  0
ARC
  5
6610
  8
0
 10
339.7521573797088763
 20
3.7149806026697259
 30
0.0
 40
0.0773109670294286
 50
9.9111640281203144
 51
61.1986792853478292
  0
ARC
  5
6611
  8
0
 10
339.7693953006689753
 20
3.7204076252778862
 30
0.0
 40
0.0594438281415719
 50
330.3897852640109249
 51
7.6174994548909156
  0
ARC
  5
6612
  8
0
 10
339.7561667630134252
 20
3.7283315523299621
 30
0.0
 40
0.0748608290241592
 50
290.5171767293251719
 51
330.1196586937927009
  0
ARC
  5
6613
  8
0
 10
339.7423631120379923
 20
3.7113004521452231
 30
0.0
 40
0.0638638352402513
 50
194.110708236613192
 51
269.3651834360575208
  0
ARC
  5
6614
  8
0
 10
339.7474655745526775
 20
3.7078906434923482
 30
0.0
 40
0.0607286746412532
 50
264.5099988492225975
 51
327.9007481214421205
  0
LINE
  5
6615
  8
0
 10
339.7989105874634106
 20
3.675620183776132
 30
0.0
 11
339.828314542963426
 21
3.7282874470761271
 31
0.0
  0
LINE
  5
6616
  8
0
 10
339.6804262742634251
 20
3.6957306872761251
 30
0.0
 11
339.6695640685210833
 21
3.7578100536756551
 31
0.0
  0
ARC
  5
6617
  8
0
 10
339.7476818505923006
 20
3.7649882602210591
 30
0.0
 40
0.090513748985565
 50
201.1860156790802137
 51
220.1785637297151084
  0
ARC
  5
6618
  8
0
 10
339.7647216234773282
 20
3.7514197861043348
 30
0.0
 40
0.0786726542491053
 50
298.9406336865715161
 51
321.0503370858074277
  0
ARC
  5
6619
  8
0
 10
339.7389843691159967
 20
3.6811067702177378
 30
0.0
 40
0.0234511803253728
 50
46.4487091698999706
 51
121.4785206614383952
  0
ARC
  5
661A
  8
0
 10
339.7463805610804002
 20
3.6879745514069948
 30
0.0
 40
0.013392455328228
 50
290.3677455710410982
 51
49.1386484547987834
  0
ARC
  5
661B
  8
0
 10
339.7416288286239023
 20
3.69753289642783
 30
0.0
 40
0.0240334895564653
 50
234.5882875662474873
 51
293.0576848559227869
  0
ARC
  5
661C
  8
0
 10
339.7342983395673741
 20
3.689820664201974
 30
0.0
 40
0.0135840056816439
 50
123.8150198281786061
 51
240.9517310708671971
  0
ARC
  5
661D
  8
0
 10
339.7147831471344261
 20
4.0092024629905856
 30
0.0
 40
0.062283951652395
 50
106.465638550463197
 51
187.3109848705638001
  0
ARC
  5
661E
  8
0
 10
339.7294787163743877
 20
4.0136711771863096
 30
0.0
 40
0.0774710968390817
 50
189.2063484745362985
 51
227.6246329016233858
  0
ARC
  5
661F
  8
0
 10
339.7295580254524907
 20
3.974768909255431
 30
0.0
 40
0.0995908253188182
 50
60.4712380738347122
 51
109.0030771309779993
  0
ARC
  5
6620
  8
0
 10
339.7413959962144077
 20
3.9936764640673341
 30
0.0
 40
0.0773109670294286
 50
9.9111640281203144
 51
61.1986792853478292
  0
ARC
  5
6621
  8
0
 10
339.758633917174393
 20
3.999103486675494
 30
0.0
 40
0.0594438281415719
 50
330.3897852640109249
 51
7.6174994548909156
  0
ARC
  5
6622
  8
0
 10
339.745405379518786
 20
4.0070274137275703
 30
0.0
 40
0.0748608290241592
 50
290.5171767293251719
 51
330.1196586937927009
  0
ARC
  5
6623
  8
0
 10
339.73160172854341
 20
3.9899963135428318
 30
0.0
 40
0.0638638352402513
 50
194.110708236613192
 51
269.3651834360575208
  0
ARC
  5
6624
  8
0
 10
339.7367041910580951
 20
3.986586504889956
 30
0.0
 40
0.0607286746412532
 50
264.5099988492225975
 51
327.9007481214421205
  0
LINE
  5
6625
  8
0
 10
339.7881492039688283
 20
3.9543160451737398
 30
0.0
 11
339.8175531594687868
 21
4.0069833084737354
 31
0.0
  0
LINE
  5
6626
  8
0
 10
339.6696648907687859
 20
3.9744265486737329
 30
0.0
 11
339.658802685026501
 21
4.0365059150732634
 31
0.0
  0
ARC
  5
6627
  8
0
 10
339.7369204670977183
 20
4.043684121618667
 30
0.0
 40
0.090513748985565
 50
201.1860156790802137
 51
220.1785637297151084
  0
ARC
  5
6628
  8
0
 10
339.753960239982689
 20
4.0301156475019431
 30
0.0
 40
0.0786726542491053
 50
298.9406336865715161
 51
321.0503370858074277
  0
ARC
  5
6629
  8
0
 10
339.7282229856215281
 20
3.9598026316153461
 30
0.0
 40
0.0234511803253728
 50
46.4487091698999706
 51
121.4785206614383952
  0
ARC
  5
662A
  8
0
 10
339.7356191775858179
 20
3.9666704128046031
 30
0.0
 40
0.013392455328228
 50
290.3677455710410982
 51
49.1386484547987834
  0
ARC
  5
662B
  8
0
 10
339.73086744512932
 20
3.9762287578254378
 30
0.0
 40
0.0240334895564653
 50
234.5882875662474873
 51
293.0576848559227869
  0
ARC
  5
662C
  8
0
 10
339.7235369560727918
 20
3.9685165255995818
 30
0.0
 40
0.0135840056816439
 50
123.8150198281786061
 51
240.9517310708671971
  0
ARC
  5
662D
  8
0
 10
339.7046199555334169
 20
4.2808693999583047
 30
0.0
 40
0.0589188362462415
 50
107.2883554279238041
 51
182.6273790358966096
  0
ARC
  5
662E
  8
0
 10
339.7222362123201833
 20
4.290563184570515
 30
0.0
 40
0.0774710968390817
 50
189.2063484745362985
 51
227.6246329016233858
  0
ARC
  5
662F
  8
0
 10
339.7228178620146082
 20
4.2419760493767731
 30
0.0
 40
0.1016297347029586
 50
58.3285945463597173
 51
110.5698176350350934
  0
ARC
  5
6630
  8
0
 10
339.7376522054535144
 20
4.2636233836454229
 30
0.0
 40
0.0754280525342253
 50
15.5746333964569708
 51
59.2851724498823316
  0
ARC
  5
6631
  8
0
 10
339.7513914131203023
 20
4.2759954940596989
 30
0.0
 40
0.0594438281415719
 50
330.3897852640109249
 51
7.6174994548909156
  0
ARC
  5
6632
  8
0
 10
339.7381628754645817
 20
4.2839194211117748
 30
0.0
 40
0.0748608290241592
 50
290.5171767293251719
 51
330.1196586937927009
  0
ARC
  5
6633
  8
0
 10
339.7243592244893193
 20
4.2668883209270509
 30
0.0
 40
0.0638638352402513
 50
194.110708236613192
 51
269.3651834360575208
  0
ARC
  5
6634
  8
0
 10
339.7294616870038908
 20
4.263478512274161
 30
0.0
 40
0.0607286746412532
 50
264.5099988492225975
 51
327.9007481214421205
  0
LINE
  5
6635
  8
0
 10
339.7809066999146808
 20
4.2312080525579461
 30
0.0
 11
339.8103106554146962
 21
4.283875315857955
 31
0.0
  0
LINE
  5
6636
  8
0
 10
339.6624223867146952
 20
4.2513185560579521
 30
0.0
 11
339.6509140730075273
 21
4.3055624897430951
 31
0.0
  0
ARC
  5
6637
  8
0
 10
339.729677963043514
 20
4.3205761290028866
 30
0.0
 40
0.090513748985565
 50
202.316013559164702
 51
220.1785637297151084
  0
ARC
  5
6638
  8
0
 10
339.7467177359284847
 20
4.3070076548861493
 30
0.0
 40
0.0786726542491053
 50
298.9406336865715161
 51
321.0503370858074277
  0
ARC
  5
6639
  8
0
 10
339.7209804815673237
 20
4.236694638999551
 30
0.0
 40
0.0234511803253728
 50
46.4487091698999706
 51
121.4785206614383952
  0
ARC
  5
663A
  8
0
 10
339.7283766735317272
 20
4.2435624201888231
 30
0.0
 40
0.013392455328228
 50
290.3677455710410982
 51
49.1386484547987834
  0
ARC
  5
663B
  8
0
 10
339.7236249410751157
 20
4.2531207652096441
 30
0.0
 40
0.0240334895564653
 50
234.5882875662474873
 51
293.0576848559227869
  0
ARC
  5
663C
  8
0
 10
339.7162944520185874
 20
4.2454085329837881
 30
0.0
 40
0.0135840056816439
 50
123.8150198281786061
 51
240.9517310708671971
  0
ARC
  5
663D
  8
0
 10
339.7009478459075922
 20
4.551896758419459
 30
0.0
 40
0.0604752025503912
 50
111.1994072293437057
 51
185.7067501380886938
  0
ARC
  5
663E
  8
0
 10
339.699377883178613
 20
4.5513665249881683
 30
0.0
 40
0.058861468279651
 50
185.3451361189673889
 51
235.312993021514302
  0
ARC
  5
663F
  8
0
 10
339.7179288514885229
 20
4.5138673991677356
 30
0.0
 40
0.1020927948783499
 50
57.2301128990872101
 51
112.3667405671694013
  0
ARC
  5
6640
  8
0
 10
339.7335560428812755
 20
4.5377545559227883
 30
0.0
 40
0.073549079808641
 50
7.44475820065355
 51
57.3943512462904195
  0
ARC
  5
6641
  8
0
 10
339.7489649424517211
 20
4.5442381781572863
 30
0.0
 40
0.0576007820761902
 50
324.8954811804023279
 51
3.0314332927963501
  0
ARC
  5
6642
  8
0
 10
339.7270680488538233
 20
4.5650995327525692
 30
0.0
 40
0.0876257789598294
 50
288.524737529465483
 51
321.9684559929110037
  0
ARC
  5
6643
  8
0
 10
339.7200187815827235
 20
4.5374389571383773
 30
0.0
 40
0.0641821267531741
 50
194.4461049897026044
 51
268.3088581514481916
  0
ARC
  5
6644
  8
0
 10
339.7229565856845284
 20
4.534788013457117
 30
0.0
 40
0.0616927429416583
 50
265.5078519908643102
 51
323.4663743980735262
  0
LINE
  5
6645
  8
0
 10
339.772527175607479
 20
4.4980626659930891
 30
0.0
 11
339.8064851221528784
 21
4.5472843270264027
 31
0.0
  0
LINE
  5
6646
  8
0
 10
339.6578659184075946
 20
4.5214274926930917
 30
0.0
 11
339.646335224149027
 21
4.577871970991608
 31
0.0
  0
ARC
  5
6647
  8
0
 10
339.7185013242120135
 20
4.5821573804817604
 30
0.0
 40
0.0840839568314539
 50
201.8952121124314942
 51
223.2146108567818885
  0
ARC
  5
6648
  8
0
 10
339.7421508121801139
 20
4.5750718948425506
 30
0.0
 40
0.0809110226635799
 50
293.5563739305275135
 51
316.6710157746217078
  0
ARC
  5
6649
  8
0
 10
339.7157888511708279
 20
4.5120037778093973
 30
0.0
 40
0.0234511803253728
 50
46.4487091698999706
 51
121.4785206614383952
  0
ARC
  5
664A
  8
0
 10
339.7231850431351177
 20
4.5188715589986543
 30
0.0
 40
0.013392455328228
 50
290.3677455710410982
 51
49.1386484547987834
  0
ARC
  5
664B
  8
0
 10
339.7184333106786198
 20
4.5284299040194886
 30
0.0
 40
0.0240334895564653
 50
234.5882875662474873
 51
293.0576848559227869
  0
ARC
  5
664C
  8
0
 10
339.7111028216222053
 20
4.5207176717936326
 30
0.0
 40
0.0135840056816439
 50
123.8150198281786061
 51
240.9517310708671971
  0
ARC
  5
664D
  8
0
 10
339.7029546147552992
 20
4.8250163595106548
 30
0.0
 40
0.0604752025503912
 50
111.1994072293437057
 51
185.7067501380886938
  0
ARC
  5
664E
  8
0
 10
339.7013846520263769
 20
4.8244861260793641
 30
0.0
 40
0.058861468279651
 50
185.3451361189665931
 51
235.312993021514302
  0
ARC
  5
664F
  8
0
 10
339.7199356203364005
 20
4.7869870002589323
 30
0.0
 40
0.1020927948783499
 50
57.2301128990872101
 51
112.3667405671694013
  0
ARC
  5
6650
  8
0
 10
339.7355628117290962
 20
4.8108741570139841
 30
0.0
 40
0.073549079808641
 50
7.44475820065355
 51
57.3943512462904195
  0
ARC
  5
6651
  8
0
 10
339.7509717112995986
 20
4.8173577792484821
 30
0.0
 40
0.0576007820761902
 50
324.8954811804023279
 51
3.0314332927963501
  0
ARC
  5
6652
  8
0
 10
339.7290748177017008
 20
4.838219133843765
 30
0.0
 40
0.0876257789598294
 50
288.524737529465483
 51
321.9684559929110037
  0
ARC
  5
6653
  8
0
 10
339.722025550430601
 20
4.8105585582295731
 30
0.0
 40
0.0641821267531741
 50
194.4461049897026044
 51
268.3088581514481916
  0
ARC
  5
6654
  8
0
 10
339.7249633545324059
 20
4.8079076145483119
 30
0.0
 40
0.0616927429416583
 50
265.5078519908643102
 51
323.4663743980735262
  0
LINE
  5
6655
  8
0
 10
339.7745339444554133
 20
4.7711822670842841
 30
0.0
 11
339.8084918910006991
 21
4.8204039281175994
 31
0.0
  0
LINE
  5
6656
  8
0
 10
339.6598726872553016
 20
4.7945470937842876
 30
0.0
 11
339.6483419929967909
 21
4.8509915720828038
 31
0.0
  0
ARC
  5
6657
  8
0
 10
339.7205080930597774
 20
4.8552769815729562
 30
0.0
 40
0.0840839568314539
 50
201.8952121124314942
 51
223.2146108567818885
  0
ARC
  5
6658
  8
0
 10
339.7441575810278778
 20
4.8481914959337473
 30
0.0
 40
0.0809110226635799
 50
293.5563739305275135
 51
316.6710157746217078
  0
ARC
  5
6659
  8
0
 10
339.7177956200185918
 20
4.7851233789005931
 30
0.0
 40
0.0234511803253728
 50
46.4487091698999706
 51
121.4785206614383952
  0
ARC
  5
665A
  8
0
 10
339.7251918119829952
 20
4.7919911600898502
 30
0.0
 40
0.013392455328228
 50
290.3677455710410982
 51
49.1386484547987834
  0
ARC
  5
665B
  8
0
 10
339.7204400795263837
 20
4.8015495051106853
 30
0.0
 40
0.0240334895564653
 50
234.5882875662474873
 51
293.0576848559227869
  0
ARC
  5
665C
  8
0
 10
339.713109590470026
 20
4.7938372728848293
 30
0.0
 40
0.0135840056816439
 50
123.8150198281786061
 51
240.9517310708671971
  0
ARC
  5
665D
  8
0
 10
339.7041309964936886
 20
5.0977352059228158
 30
0.0
 40
0.0604752025503912
 50
111.1994072293437057
 51
185.7067501380886938
  0
ARC
  5
665E
  8
0
 10
339.7025610337648232
 20
5.0972049724915101
 30
0.0
 40
0.058861468279651
 50
185.3451361189665931
 51
235.312993021514302
  0
ARC
  5
665F
  8
0
 10
339.7211120020746762
 20
5.0597058466710934
 30
0.0
 40
0.1020927948783499
 50
57.2301128990872101
 51
112.3667405671694013
  0
ARC
  5
6660
  8
0
 10
339.7367391934673719
 20
5.0835930034261452
 30
0.0
 40
0.073549079808641
 50
7.44475820065355
 51
57.3943512462904195
  0
ARC
  5
6661
  8
0
 10
339.7521480930378743
 20
5.0900766256606431
 30
0.0
 40
0.0576007820761902
 50
324.8954811804023279
 51
3.0314332927963501
  0
ARC
  5
6662
  8
0
 10
339.7302511994399765
 20
5.110937980255926
 30
0.0
 40
0.0876257789598294
 50
288.524737529465483
 51
321.9684559929110037
  0
ARC
  5
6663
  8
0
 10
339.7232019321688767
 20
5.0832774046417342
 30
0.0
 40
0.0641821267531741
 50
194.4461049897026044
 51
268.3088581514481916
  0
ARC
  5
6664
  8
0
 10
339.7261397362706816
 20
5.080626460960473
 30
0.0
 40
0.0616927429416583
 50
265.5078519908643102
 51
323.4663743980735262
  0
LINE
  5
6665
  8
0
 10
339.7757103261936891
 20
5.0439011134964451
 30
0.0
 11
339.8096682727392022
 21
5.0931227745297463
 31
0.0
  0
LINE
  5
6666
  8
0
 10
339.661049068993691
 20
5.0672659401964486
 30
0.0
 11
339.6495183747351234
 21
5.1237104184949649
 31
0.0
  0
ARC
  5
6667
  8
0
 10
339.7216844747982236
 20
5.127995827985103
 30
0.0
 40
0.0840839568314539
 50
201.8952121124314942
 51
223.2146108567818885
  0
ARC
  5
6668
  8
0
 10
339.745333962766324
 20
5.1209103423459217
 30
0.0
 40
0.0809110226635799
 50
293.5563739305275135
 51
316.6710157746217078
  0
ARC
  5
6669
  8
0
 10
339.7189720017569812
 20
5.0578422253127542
 30
0.0
 40
0.0234511803253728
 50
46.4487091698999706
 51
121.4785206614383952
  0
ARC
  5
666A
  8
0
 10
339.7263681937213278
 20
5.0647100065020254
 30
0.0
 40
0.013392455328228
 50
290.3677455710410982
 51
49.1386484547987834
  0
ARC
  5
666B
  8
0
 10
339.7216164612647731
 20
5.0742683515228464
 30
0.0
 40
0.0240334895564653
 50
234.5882875662474873
 51
293.0576848559227869
  0
ARC
  5
666C
  8
0
 10
339.7142859722084154
 20
5.0665561192969903
 30
0.0
 40
0.0135840056816439
 50
123.8150198281786061
 51
240.9517310708671971
  0
ARC
  5
666D
  8
0
 10
339.7073546398578969
 20
5.3689068212014339
 30
0.0
 40
0.0604752025503912
 50
111.1994072293437057
 51
185.7067501380886938
  0
ARC
  5
666E
  8
0
 10
339.7057846771289746
 20
5.3683765877701433
 30
0.0
 40
0.058861468279651
 50
185.3451361189665931
 51
235.312993021514302
  0
ARC
  5
666F
  8
0
 10
339.7243356454389982
 20
5.3308774619497106
 30
0.0
 40
0.1020927948783499
 50
57.2301128990872101
 51
112.3667405671694013
  0
ARC
  5
6670
  8
0
 10
339.7399628368315803
 20
5.3547646187047633
 30
0.0
 40
0.073549079808641
 50
7.44475820065355
 51
57.3943512462904195
  0
ARC
  5
6671
  8
0
 10
339.7553717364020827
 20
5.3612482409392612
 30
0.0
 40
0.0576007820761902
 50
324.8954811804023279
 51
3.0314332927963501
  0
ARC
  5
6672
  8
0
 10
339.7334748428041848
 20
5.3821095955345442
 30
0.0
 40
0.0876257789598294
 50
288.524737529465483
 51
321.9684559929110037
  0
ARC
  5
6673
  8
0
 10
339.7264255755330851
 20
5.3544490199203523
 30
0.0
 40
0.0641821267531741
 50
194.4461049897026044
 51
268.3088581514481916
  0
ARC
  5
6674
  8
0
 10
339.72936337963489
 20
5.3517980762390911
 30
0.0
 40
0.0616927429416583
 50
265.5078519908643102
 51
323.4663743980735262
  0
LINE
  5
6675
  8
0
 10
339.7789339695578974
 20
5.3150727287750641
 30
0.0
 11
339.8128919161034105
 21
5.3642943898083777
 31
0.0
  0
LINE
  5
6676
  8
0
 10
339.6642727123578993
 20
5.3384375554750667
 30
0.0
 11
339.6527420180992749
 21
5.394882033773583
 31
0.0
  0
ARC
  5
6677
  8
0
 10
339.7249081181623751
 20
5.3991674432637353
 30
0.0
 40
0.0840839568314539
 50
201.8952121124314942
 51
223.2146108567818885
  0
ARC
  5
6678
  8
0
 10
339.7485576061304755
 20
5.3920819576245256
 30
0.0
 40
0.0809110226635799
 50
293.5563739305275135
 51
316.6710157746217078
  0
ARC
  5
6679
  8
0
 10
339.7221956451211895
 20
5.3290138405913723
 30
0.0
 40
0.0234511803253728
 50
46.4487091698999706
 51
121.4785206614383952
  0
ARC
  5
667A
  8
0
 10
339.7295918370854793
 20
5.3358816217806293
 30
0.0
 40
0.013392455328228
 50
290.3677455710410982
 51
49.1386484547987834
  0
ARC
  5
667B
  8
0
 10
339.7248401046290951
 20
5.3454399668014636
 30
0.0
 40
0.0240334895564653
 50
234.5882875662474873
 51
293.0576848559227869
  0
ARC
  5
667C
  8
0
 10
339.7175096155726237
 20
5.3377277345756076
 30
0.0
 40
0.0135840056816439
 50
123.8150198281786061
 51
240.9517310708671971
  0
ARC
  5
667D
  8
0
 10
340.1127790305602048
 20
3.6910205574793622
 30
0.0
 40
0.0939094896840666
 50
53.8987687236481321
 51
126.9699142236611067
  0
ARC
  5
667E
  8
0
 10
340.1270932118328005
 20
3.7106493135856189
 30
0.0
 40
0.0696157898467636
 50
14.6081178507577008
 51
53.8987687236458584
  0
ARC
  5
667F
  8
0
 10
340.1334377645570157
 20
3.7136296394877202
 30
0.0
 40
0.0627378146437836
 50
335.4539199402713052
 51
13.4355549055234995
  0
ARC
  5
6680
  8
0
 10
340.118575128535781
 20
3.7222135129079978
 30
0.0
 40
0.0798399503175153
 50
297.3021501190398794
 51
334.2813569950315014
  0
ARC
  5
6681
  8
0
 10
340.0985468461125265
 20
3.7115587331388431
 30
0.0
 40
0.068948288025959
 50
127.7849366342839943
 51
163.3803832524660038
  0
ARC
  5
6682
  8
0
 10
340.0963147335530721
 20
3.714473441713749
 30
0.0
 40
0.0660109380401369
 50
165.2507870344821015
 51
237.767739109129991
  0
ARC
  5
6683
  8
0
 10
340.1122786239100719
 20
3.7089253351355178
 30
0.0
 40
0.0722833920194031
 50
236.9696989674858116
 51
296.7866006589009089
  0
ARC
  5
6684
  8
0
 10
340.1201112921004892
 20
3.6928704291404841
 30
0.0
 40
0.0544219228686947
 50
297.042739690849487
 51
334.5646661305751763
  0
ARC
  5
6685
  8
0
 10
340.1041047877761798
 20
3.6958448531245121
 30
0.0
 40
0.0568622063128283
 50
196.5919664470972918
 51
236.690443425526297
  0
LINE
  5
6686
  8
0
 10
340.1692581306435272
 20
3.669496641472235
 30
0.0
 11
340.1945906447435277
 21
3.725050114172233
 31
0.0
  0
LINE
  5
6687
  8
0
 10
340.0496101746434192
 20
3.6796076228722252
 30
0.0
 11
340.0344198837285035
 21
3.736888540029212
 31
0.0
  0
ARC
  5
6688
  8
0
 10
340.0988058960920171
 20
3.74181244290051
 30
0.0
 40
0.075352044853058
 50
204.8819786981354127
 51
227.4291071954799008
  0
ARC
  5
6689
  8
0
 10
340.1217813923452127
 20
3.749511345155383
 30
0.0
 40
0.0886757288296703
 50
304.9742985456568931
 51
324.8966643591299999
  0
ARC
  5
668A
  8
0
 10
340.109116290270606
 20
3.6702461350772628
 30
0.0
 40
0.023461805976579
 50
49.3626509782991505
 51
124.5748895072734967
  0
ARC
  5
668B
  8
0
 10
340.1154883030158089
 20
3.6776706895411162
 30
0.0
 40
0.0136778111169557
 50
293.8505480421897005
 51
49.3626509783014527
  0
ARC
  5
668C
  8
0
 10
340.1105499681157767
 20
3.6888406936871831
 30
0.0
 40
0.0258907609739088
 50
239.9464938194956005
 51
293.8505480421900984
  0
ARC
  5
668D
  8
0
 10
340.1037597499254161
 20
3.6785417145671171
 30
0.0
 40
0.0135948505811909
 50
125.8271404334866048
 51
242.9803085222006018
  0
ARC
  5
668E
  8
0
 10
340.1087683444686149
 20
3.9708989490975588
 30
0.0
 40
0.0939094896840666
 50
53.8987687236481321
 51
126.9699142236611067
  0
ARC
  5
668F
  8
0
 10
340.1230825257413244
 20
3.9905277052038168
 30
0.0
 40
0.0696157898467636
 50
14.6081178507577008
 51
53.8987687236458584
  0
ARC
  5
6690
  8
0
 10
340.1294270784654259
 20
3.993508031105903
 30
0.0
 40
0.0627378146437836
 50
335.4539199402713052
 51
13.4355549055234995
  0
ARC
  5
6691
  8
0
 10
340.1145644424441912
 20
4.0020919045261962
 30
0.0
 40
0.0798399503175153
 50
297.3021501190398794
 51
334.2813569950315014
  0
ARC
  5
6692
  8
0
 10
340.0945361600209935
 20
3.991437124757041
 30
0.0
 40
0.068948288025959
 50
127.7849366342839943
 51
163.3803832524660038
  0
ARC
  5
6693
  8
0
 10
340.0923040474614822
 20
3.9943518333319612
 30
0.0
 40
0.0660109380401369
 50
165.2507870344821015
 51
237.767739109129991
  0
ARC
  5
6694
  8
0
 10
340.1082679378185958
 20
3.9888037267537149
 30
0.0
 40
0.0722833920194031
 50
236.9696989674858116
 51
296.7866006589009089
  0
ARC
  5
6695
  8
0
 10
340.1161006060088994
 20
3.9727488207586812
 30
0.0
 40
0.0544219228686947
 50
297.042739690849487
 51
334.5646661305751763
  0
ARC
  5
6696
  8
0
 10
340.1000941016847037
 20
3.9757232447427091
 30
0.0
 40
0.0568622063128283
 50
196.5919664470972918
 51
236.690443425526297
  0
LINE
  5
6697
  8
0
 10
340.1652474445518806
 20
3.9493750330904329
 30
0.0
 11
340.190579958651881
 21
4.0049285057904314
 31
0.0
  0
LINE
  5
6698
  8
0
 10
340.0455994885518862
 20
3.9594860144904369
 30
0.0
 11
340.0304091976369136
 21
4.0167669316474104
 31
0.0
  0
ARC
  5
6699
  8
0
 10
340.0947952100004841
 20
4.021690834518707
 30
0.0
 40
0.075352044853058
 50
204.8819786981354127
 51
227.4291071954799008
  0
ARC
  5
669A
  8
0
 10
340.1177707062536797
 20
4.02938973677358
 30
0.0
 40
0.0886757288296703
 50
304.9742985456568931
 51
324.8966643591299999
  0
ARC
  5
669B
  8
0
 10
340.1051056041790162
 20
3.950124526695447
 30
0.0
 40
0.023461805976579
 50
49.3626509782991505
 51
124.5748895072734967
  0
ARC
  5
669C
  8
0
 10
340.1114776169242759
 20
3.9575490811593141
 30
0.0
 40
0.0136778111169557
 50
293.8505480421897005
 51
49.3626509783014527
  0
ARC
  5
669D
  8
0
 10
340.1065392820241868
 20
3.968719085305394
 30
0.0
 40
0.0258907609739088
 50
239.9464938194956005
 51
293.8505480421900984
  0
ARC
  5
669E
  8
0
 10
340.0997490638338263
 20
3.958420106185315
 30
0.0
 40
0.0135948505811909
 50
125.8271404334866048
 51
242.9803085222006018
  0
ARC
  5
669F
  8
0
 10
340.1063433403550107
 20
4.2478454950886109
 30
0.0
 40
0.0939094896840666
 50
53.8987687236481321
 51
126.9699142236611067
  0
ARC
  5
66A0
  8
0
 10
340.1206575216277201
 20
4.2674742511948693
 30
0.0
 40
0.0696157898467636
 50
14.6081178507577008
 51
53.8987687236458584
  0
ARC
  5
66A1
  8
0
 10
340.1270020743518216
 20
4.2704545770969551
 30
0.0
 40
0.0627378146437836
 50
335.4539199402713052
 51
13.4355549055234995
  0
ARC
  5
66A2
  8
0
 10
340.1121394383305869
 20
4.2790384505172483
 30
0.0
 40
0.0798399503175153
 50
297.3021501190398794
 51
334.2813569950315014
  0
ARC
  5
66A3
  8
0
 10
340.092111155907503
 20
4.2683836707480927
 30
0.0
 40
0.068948288025959
 50
127.7849366342839943
 51
163.3803832524660038
  0
ARC
  5
66A4
  8
0
 10
340.089879043347878
 20
4.2712983793230128
 30
0.0
 40
0.0660109380401369
 50
165.2507870344821015
 51
237.767739109129991
  0
ARC
  5
66A5
  8
0
 10
340.1058429337051052
 20
4.2657502727447669
 30
0.0
 40
0.0722833920194031
 50
236.9696989674858116
 51
296.7866006589009089
  0
ARC
  5
66A6
  8
0
 10
340.1136756018952951
 20
4.2496953667497328
 30
0.0
 40
0.0544219228686947
 50
297.042739690849487
 51
334.5646661305751763
  0
ARC
  5
66A7
  8
0
 10
340.0976690975712131
 20
4.2526697907337621
 30
0.0
 40
0.0568622063128283
 50
196.5919664470972918
 51
236.690443425526297
  0
LINE
  5
66A8
  8
0
 10
340.1628224404382763
 20
4.2263215790814854
 30
0.0
 11
340.1881549545382768
 21
4.2818750517814834
 31
0.0
  0
LINE
  5
66A9
  8
0
 10
340.043174484438282
 20
4.2364325604814894
 30
0.0
 11
340.0279841935234231
 21
4.2937134776384616
 31
0.0
  0
ARC
  5
66AA
  8
0
 10
340.0923702058868798
 20
4.2986373805097591
 30
0.0
 40
0.075352044853058
 50
204.8819786981354127
 51
227.4291071954799008
  0
ARC
  5
66AB
  8
0
 10
340.1153457021400754
 20
4.3063362827646321
 30
0.0
 40
0.0886757288296703
 50
304.9742985456568931
 51
324.8966643591299999
  0
ARC
  5
66AC
  8
0
 10
340.1026806000654119
 20
4.2270710726864991
 30
0.0
 40
0.023461805976579
 50
49.3626509782991505
 51
124.5748895072734967
  0
ARC
  5
66AD
  8
0
 10
340.1090526128106717
 20
4.2344956271503662
 30
0.0
 40
0.0136778111169557
 50
293.8505480421897005
 51
49.3626509783014527
  0
ARC
  5
66AE
  8
0
 10
340.1041142779105826
 20
4.245665631296446
 30
0.0
 40
0.0258907609739088
 50
239.9464938194956005
 51
293.8505480421900984
  0
ARC
  5
66AF
  8
0
 10
340.0973240597202221
 20
4.2353666521763671
 30
0.0
 40
0.0135948505811909
 50
125.8271404334866048
 51
242.9803085222006018
  0
ARC
  5
66B0
  8
0
 10
340.1053469585871767
 20
4.5103080704778469
 30
0.0
 40
0.0967311344766071
 50
57.2538609222553916
 51
126.4190869216930935
  0
ARC
  5
66B1
  8
0
 10
340.1233696943036762
 20
4.5350096406830707
 30
0.0
 40
0.0662308132494765
 50
10.2981010225371499
 51
58.8085899736129107
  0
ARC
  5
66B2
  8
0
 10
340.1315656293322718
 20
4.5382909358667973
 30
0.0
 40
0.0576073022593587
 50
333.3614353773256198
 51
8.5441096028994767
  0
ARC
  5
66B3
  8
0
 10
340.1142402237894089
 20
4.549785310079514
 30
0.0
 40
0.0782874160564846
 50
292.791748017577504
 51
331.5268910739704893
  0
ARC
  5
66B4
  8
0
 10
340.087734973830095
 20
4.5354710860804337
 30
0.0
 40
0.0660309994481644
 50
127.0843407150083948
 51
158.583416773113612
  0
ARC
  5
66B5
  8
0
 10
340.0844465383009947
 20
4.539788034357997
 30
0.0
 40
0.0614579572845386
 50
161.211588944363001
 51
241.4849047495648904
  0
ARC
  5
66B6
  8
0
 10
340.1045571677884141
 20
4.5332517032641837
 30
0.0
 40
0.0687959108962553
 50
236.261671565239709
 51
296.5000669486709057
  0
ARC
  5
66B7
  8
0
 10
340.1082158215892264
 20
4.5244541813727031
 30
0.0
 40
0.059293799639237
 50
297.1293275769622824
 51
329.5723672521293111
  0
ARC
  5
66B8
  8
0
 10
340.0991102887962825
 20
4.5251959492736091
 30
0.0
 40
0.0590717094321289
 50
198.7374232352835008
 51
236.3153654266639876
  0
LINE
  5
66B9
  8
0
 10
340.1593430576074866
 20
4.4944248554930928
 30
0.0
 11
340.1885335929657117
 21
4.5468496970537871
 31
0.0
  0
LINE
  5
66BA
  8
0
 10
340.0431693407074931
 20
4.5062202494930972
 30
0.0
 11
340.0262634036764098
 21
4.5595820576692736
 31
0.0
  0
ARC
  5
66BB
  8
0
 10
340.0913192352863916
 20
4.5660601294949847
 30
0.0
 40
0.0762694309758015
 50
207.4447369168566127
 51
230.5661579460015105
  0
ARC
  5
66BC
  8
0
 10
340.1194337129310838
 20
4.5704681946909878
 30
0.0
 40
0.0842840031104914
 50
299.388038993951227
 51
321.6784172468646261
  0
ARC
  5
66BD
  8
0
 10
340.1016410953230888
 20
4.5030082797581201
 30
0.0
 40
0.023461805976579
 50
49.3626509782991505
 51
124.5748895072734967
  0
ARC
  5
66BE
  8
0
 10
340.1080131080684055
 20
4.5104328342219873
 30
0.0
 40
0.0136778111169557
 50
293.8505480421897005
 51
49.3626509783014527
  0
ARC
  5
66BF
  8
0
 10
340.1030747731683164
 20
4.5216028383680671
 30
0.0
 40
0.0258907609739088
 50
239.9464938194956005
 51
293.8505480421900984
  0
ARC
  5
66C0
  8
0
 10
340.0962845549780127
 20
4.5113038592479882
 30
0.0
 40
0.0135948505811909
 50
125.8271404334866048
 51
242.9803085222006018
  0
ARC
  5
66C1
  8
0
 10
340.104750346250114
 20
4.7845292204663963
 30
0.0
 40
0.0967311344766071
 50
57.2538609222553916
 51
126.4190869216930935
  0
ARC
  5
66C2
  8
0
 10
340.1227730819667272
 20
4.8092307906716201
 30
0.0
 40
0.0662308132494765
 50
10.2981010225371499
 51
58.8085899736129107
  0
ARC
  5
66C3
  8
0
 10
340.1309690169952091
 20
4.812512085855345
 30
0.0
 40
0.0576073022593587
 50
333.3614353773256198
 51
8.5441096028994767
  0
ARC
  5
66C4
  8
0
 10
340.1136436114522894
 20
4.8240064600680617
 30
0.0
 40
0.0782874160564846
 50
292.791748017577504
 51
331.5268910739704893
  0
ARC
  5
66C5
  8
0
 10
340.0871383614930892
 20
4.809692236068968
 30
0.0
 40
0.0660309994481644
 50
127.0843407150083948
 51
158.583416773113612
  0
ARC
  5
66C6
  8
0
 10
340.0838499259638752
 20
4.8140091843465314
 30
0.0
 40
0.0614579572845386
 50
161.211588944363001
 51
241.4849047495648904
  0
ARC
  5
66C7
  8
0
 10
340.1039605554514083
 20
4.8074728532527331
 30
0.0
 40
0.0687959108962553
 50
236.261671565239709
 51
296.5000669486709057
  0
ARC
  5
66C8
  8
0
 10
340.1076192092521069
 20
4.7986753313612382
 30
0.0
 40
0.059293799639237
 50
297.1293275769622824
 51
329.5723672521293111
  0
ARC
  5
66C9
  8
0
 10
340.0985136764592767
 20
4.7994170992621434
 30
0.0
 40
0.0590717094321289
 50
198.7374232352835008
 51
236.3153654266639876
  0
LINE
  5
66CA
  8
0
 10
340.1587464452704808
 20
4.7686460054816422
 30
0.0
 11
340.1879369806287059
 21
4.8210708470423347
 31
0.0
  0
LINE
  5
66CB
  8
0
 10
340.0425727283704873
 20
4.7804413994816448
 30
0.0
 11
340.025666791339404
 21
4.8338032076578079
 31
0.0
  0
ARC
  5
66CC
  8
0
 10
340.0907226229492721
 20
4.8402812794835341
 30
0.0
 40
0.0762694309758015
 50
207.4447369168566127
 51
230.5661579460015105
  0
ARC
  5
66CD
  8
0
 10
340.118837100594078
 20
4.8446893446795372
 30
0.0
 40
0.0842840031104914
 50
299.388038993951227
 51
321.6784172468646261
  0
ARC
  5
66CE
  8
0
 10
340.1010444829860262
 20
4.7772294297466678
 30
0.0
 40
0.023461805976579
 50
49.3626509782991505
 51
124.5748895072734967
  0
ARC
  5
66CF
  8
0
 10
340.107416495731286
 20
4.7846539842105349
 30
0.0
 40
0.0136778111169557
 50
293.8505480421897005
 51
49.3626509783014527
  0
ARC
  5
66D0
  8
0
 10
340.1024781608313106
 20
4.7958239883566023
 30
0.0
 40
0.0258907609739088
 50
239.9464938194956005
 51
293.8505480421900984
  0
ARC
  5
66D1
  8
0
 10
340.0956879426408932
 20
4.7855250092365216
 30
0.0
 40
0.0135948505811909
 50
125.8271404334866048
 51
242.9803085222006018
  0
ARC
  5
66D2
  8
0
 10
340.105612246469093
 20
5.0569663891744616
 30
0.0
 40
0.0967311344766071
 50
57.2538609222553916
 51
126.4190869216930935
  0
ARC
  5
66D3
  8
0
 10
340.1236349821858198
 20
5.0816679593796863
 30
0.0
 40
0.0662308132494765
 50
10.2981010225371499
 51
58.8085899736129107
  0
ARC
  5
66D4
  8
0
 10
340.131830917214188
 20
5.0849492545634121
 30
0.0
 40
0.0576073022593587
 50
333.3614353773256198
 51
8.5441096028994767
  0
ARC
  5
66D5
  8
0
 10
340.114505511671382
 20
5.0964436287761279
 30
0.0
 40
0.0782874160564846
 50
292.791748017577504
 51
331.5268910739704893
  0
ARC
  5
66D6
  8
0
 10
340.0880002617121249
 20
5.0821294047770493
 30
0.0
 40
0.0660309994481644
 50
127.0843407150083948
 51
158.583416773113612
  0
ARC
  5
66D7
  8
0
 10
340.0847118261830246
 20
5.0864463530546109
 30
0.0
 40
0.0614579572845386
 50
161.211588944363001
 51
241.4849047495648904
  0
ARC
  5
66D8
  8
0
 10
340.1048224556703872
 20
5.0799100219607993
 30
0.0
 40
0.0687959108962553
 50
236.261671565239709
 51
296.5000669486709057
  0
ARC
  5
66D9
  8
0
 10
340.1084811094711995
 20
5.0711125000693178
 30
0.0
 40
0.059293799639237
 50
297.1293275769622824
 51
329.5723672521293111
  0
ARC
  5
66DA
  8
0
 10
340.0993755766783124
 20
5.071854267970223
 30
0.0
 40
0.0590717094321289
 50
198.7374232352835008
 51
236.3153654266639876
  0
LINE
  5
66DB
  8
0
 10
340.1596083454895165
 20
5.0410831741897084
 30
0.0
 11
340.1887988808476848
 21
5.0935080157504009
 31
0.0
  0
LINE
  5
66DC
  8
0
 10
340.0434346285895231
 20
5.052878568189711
 30
0.0
 11
340.0265286915583829
 21
5.1062403763658892
 31
0.0
  0
ARC
  5
66DD
  8
0
 10
340.0915845231684216
 20
5.1127184481916004
 30
0.0
 40
0.0762694309758015
 50
207.4447369168566127
 51
230.5661579460015105
  0
ARC
  5
66DE
  8
0
 10
340.1196990008131138
 20
5.1171265133876034
 30
0.0
 40
0.0842840031104914
 50
299.388038993951227
 51
321.6784172468646261
  0
ARC
  5
66DF
  8
0
 10
340.1019063832050051
 20
5.049666598454734
 30
0.0
 40
0.023461805976579
 50
49.3626509782991505
 51
124.5748895072734967
  0
ARC
  5
66E0
  8
0
 10
340.1082783959503786
 20
5.057091152918602
 30
0.0
 40
0.0136778111169557
 50
293.8505480421897005
 51
49.3626509783014527
  0
ARC
  5
66E1
  8
0
 10
340.1033400610502895
 20
5.0682611570646818
 30
0.0
 40
0.0258907609739088
 50
239.9464938194956005
 51
293.8505480421900984
  0
ARC
  5
66E2
  8
0
 10
340.0965498428598721
 20
5.057962177944602
 30
0.0
 40
0.0135948505811909
 50
125.8271404334866048
 51
242.9803085222006018
  0
ARC
  5
66E3
  8
0
 10
340.1068842408320734
 20
5.3288563979813679
 30
0.0
 40
0.0967311344766071
 50
57.2538609222553916
 51
126.4190869216930935
  0
ARC
  5
66E4
  8
0
 10
340.1249069765486865
 20
5.3535579681865917
 30
0.0
 40
0.0662308132494765
 50
10.2981010225371499
 51
58.8085899736129107
  0
ARC
  5
66E5
  8
0
 10
340.1331029115772253
 20
5.3568392633703183
 30
0.0
 40
0.0576073022593587
 50
333.3614353773256198
 51
8.5441096028994767
  0
ARC
  5
66E6
  8
0
 10
340.1157775060344193
 20
5.3683336375830351
 30
0.0
 40
0.0782874160564846
 50
292.791748017577504
 51
331.5268910739704893
  0
ARC
  5
66E7
  8
0
 10
340.0892722560751054
 20
5.3540194135839414
 30
0.0
 40
0.0660309994481644
 50
127.0843407150083948
 51
158.583416773113612
  0
ARC
  5
66E8
  8
0
 10
340.0859838205458914
 20
5.358336361861503
 30
0.0
 40
0.0614579572845386
 50
161.211588944363001
 51
241.4849047495648904
  0
ARC
  5
66E9
  8
0
 10
340.1060944500334244
 20
5.3518000307677047
 30
0.0
 40
0.0687959108962553
 50
236.261671565239709
 51
296.5000669486709057
  0
ARC
  5
66EA
  8
0
 10
340.1097531038341231
 20
5.3430025088762241
 30
0.0
 40
0.059293799639237
 50
297.1293275769622824
 51
329.5723672521293111
  0
ARC
  5
66EB
  8
0
 10
340.1006475710412928
 20
5.3437442767771151
 30
0.0
 40
0.0590717094321289
 50
198.7374232352835008
 51
236.3153654266639876
  0
LINE
  5
66EC
  8
0
 10
340.1608803398524969
 20
5.3129731829966138
 30
0.0
 11
340.1900708752107221
 21
5.365398024557293
 31
0.0
  0
LINE
  5
66ED
  8
0
 10
340.0447066229525035
 20
5.3247685769966031
 30
0.0
 11
340.0278006859214202
 21
5.3781303851727813
 31
0.0
  0
ARC
  5
66EE
  8
0
 10
340.092856517531402
 20
5.3846084569985058
 30
0.0
 40
0.0762694309758015
 50
207.4447369168566127
 51
230.5661579460015105
  0
ARC
  5
66EF
  8
0
 10
340.1209709951760942
 20
5.3890165221945088
 30
0.0
 40
0.0842840031104914
 50
299.388038993951227
 51
321.6784172468646261
  0
ARC
  5
66F0
  8
0
 10
340.1031783775679855
 20
5.3215566072616411
 30
0.0
 40
0.023461805976579
 50
49.3626509782991505
 51
124.5748895072734967
  0
ARC
  5
66F1
  8
0
 10
340.1095503903134158
 20
5.3289811617254941
 30
0.0
 40
0.0136778111169557
 50
293.8505480421897005
 51
49.3626509783014527
  0
ARC
  5
66F2
  8
0
 10
340.1046120554133267
 20
5.3401511658715739
 30
0.0
 40
0.0258907609739088
 50
239.9464938194956005
 51
293.8505480421900984
  0
ARC
  5
66F3
  8
0
 10
340.0978218372229094
 20
5.3298521867514941
 30
0.0
 40
0.0135948505811909
 50
125.8271404334866048
 51
242.9803085222006018
  0
ARC
  5
66F4
  8
0
 10
339.6807452805151115
 20
5.5333835804933207
 30
0.0
 40
0.1940555987378331
 50
140.8674644043786088
 51
177.4682994193146044
  0
ARC
  5
66F5
  8
0
 10
339.7416638766414962
 20
5.4740448191504214
 30
0.0
 40
0.27886217977884
 50
112.3469712543599996
 51
139.3095261073424922
  0
LINE
  5
66F6
  8
0
 10
339.4868790926636848
 20
5.5419554303205976
 30
0.0
 11
339.4832952917032003
 21
5.4769876566812172
 31
0.0
  0
LINE
  5
66F7
  8
0
 10
340.3945546485986142
 20
3.4469791030708441
 30
0.0
 11
340.4149460997074925
 21
3.3901356918930921
 31
0.0
  0
ARC
  5
66F8
  8
0
 10
340.4537137531708026
 20
3.4296254339015908
 30
0.0
 40
0.0616518409085742
 50
161.7670673113038049
 51
199.9326827740862882
  0
ARC
  5
66F9
  8
0
 10
340.4644258815865783
 20
3.433510082829542
 30
0.0
 40
0.0730465849816502
 50
199.9326827740862882
 51
243.7315124027325908
  0
ARC
  5
66FA
  8
0
 10
340.4748004728717206
 20
3.418688512546793
 30
0.0
 40
0.0663178863120252
 50
205.5198524642690074
 51
334.4978609407252179
  0
ARC
  5
66FB
  8
0
 10
340.4623828419391884
 20
3.4260528243353709
 30
0.0
 40
0.071006740753563
 50
122.3574508903055005
 51
161.2176808004007
  0
ARC
  5
66FC
  8
0
 10
340.4634676108223061
 20
3.4601937170818782
 30
0.0
 40
0.0813162086046349
 50
209.6985296027559116
 51
231.242342585961012
  0
ARC
  5
66FD
  8
0
 10
340.468930976481488
 20
3.393772848353009
 30
0.0
 40
0.0135809355931726
 50
127.7311859212959035
 51
245.1472120769888932
  0
LINE
  5
66FF
  8
0
 10
340.5550484063164163
 20
3.4469791030708441
 30
0.0
 11
340.5346569552074811
 21
3.3901356918930921
 31
0.0
  0
ARC
  5
6700
  8
0
 10
340.4958893017442279
 20
3.4296254339015908
 30
0.0
 40
0.0616518409085742
 50
340.0673172259137118
 51
18.2329326886961915
  0
ARC
  5
6701
  8
0
 10
340.4851771733283954
 20
3.433510082829542
 30
0.0
 40
0.0730465849816502
 50
296.4089847468043786
 51
340.0673172259137118
  0
ARC
  5
6702
  8
0
 10
340.4872202129757852
 20
3.4260528243353709
 30
0.0
 40
0.071006740753563
 50
18.7823191995992609
 51
57.6425491096944782
  0
ARC
  5
6703
  8
0
 10
340.4861354440927244
 20
3.4601937170818782
 30
0.0
 40
0.0813162086046349
 50
308.757657414038988
 51
330.3014703972439747
  0
ARC
  5
6704
  8
0
 10
340.4806720784334857
 20
3.393772848353009
 30
0.0
 40
0.0135809355931726
 50
294.8527879230110784
 51
52.2688140787040609
  0
ARC
  5
6705
  8
0
 10
340.4748015274574868
 20
3.4075636758315961
 30
0.0
 40
0.0932733716723145
 50
57.2770535343331986
 51
122.7229464656667943
  0
ARC
  5
6706
  8
0
 10
340.4748015274574868
 20
3.3863999252230168
 30
0.0
 40
0.0230050125217172
 50
51.9424296536382002
 51
128.057570346361814
  0
ARC
  5
6707
  8
0
 10
340.4748015274574868
 20
3.4018138286352828
 30
0.0
 40
0.0234256507095982
 50
240.3787623264121009
 51
299.6212376735879275
  0
LINE
  5
6708
  8
0
 10
340.3945546485986142
 20
4.0090635584298857
 30
0.0
 11
340.4149460997074925
 21
3.9522201472521341
 31
0.0
  0
ARC
  5
6709
  8
0
 10
340.4537137531708026
 20
3.9917098892606329
 30
0.0
 40
0.0616518409085742
 50
161.7670673113038049
 51
199.9326827740862882
  0
ARC
  5
670A
  8
0
 10
340.4644258815865783
 20
3.995594538188584
 30
0.0
 40
0.0730465849816502
 50
199.9326827740862882
 51
243.7315124027325908
  0
ARC
  5
670B
  8
0
 10
340.4748004728717206
 20
3.980772967905835
 30
0.0
 40
0.0663178863120252
 50
205.5198524642690074
 51
334.4978609407252179
  0
ARC
  5
670C
  8
0
 10
340.4623828419391884
 20
3.988137279694413
 30
0.0
 40
0.071006740753563
 50
122.3574508903055005
 51
161.2176808004007
  0
ARC
  5
670D
  8
0
 10
340.4634676108223061
 20
4.0222781724409202
 30
0.0
 40
0.0813162086046349
 50
209.6985296027559116
 51
231.242342585961012
  0
ARC
  5
670E
  8
0
 10
340.468930976481488
 20
3.955857303712051
 30
0.0
 40
0.0135809355931726
 50
127.7311859212959035
 51
245.1472120769888932
  0
LINE
  5
670F
  8
0
 10
340.5550484063164163
 20
4.0090635584298857
 30
0.0
 11
340.5346569552074811
 21
3.9522201472521341
 31
0.0
  0
ARC
  5
6710
  8
0
 10
340.4958893017442279
 20
3.9917098892606329
 30
0.0
 40
0.0616518409085742
 50
340.0673172259137118
 51
18.2329326886961915
  0
ARC
  5
6711
  8
0
 10
340.4851771733283954
 20
3.995594538188584
 30
0.0
 40
0.0730465849816502
 50
296.4089847468043786
 51
340.0673172259137118
  0
ARC
  5
6712
  8
0
 10
340.4872202129757852
 20
3.988137279694413
 30
0.0
 40
0.071006740753563
 50
18.7823191995992609
 51
57.6425491096944782
  0
ARC
  5
6713
  8
0
 10
340.4861354440927244
 20
4.0222781724409202
 30
0.0
 40
0.0813162086046349
 50
308.757657414038988
 51
330.3014703972439747
  0
ARC
  5
6714
  8
0
 10
340.4806720784334857
 20
3.955857303712051
 30
0.0
 40
0.0135809355931726
 50
294.8527879230110784
 51
52.2688140787040609
  0
ARC
  5
6715
  8
0
 10
340.4748015274574868
 20
3.9696481311906382
 30
0.0
 40
0.0932733716723145
 50
57.2770535343331986
 51
122.7229464656667943
  0
ARC
  5
6716
  8
0
 10
340.4748015274574868
 20
3.948484380582058
 30
0.0
 40
0.0230050125217172
 50
51.9424296536382002
 51
128.057570346361814
  0
ARC
  5
6717
  8
0
 10
340.4748015274574868
 20
3.9638982839943249
 30
0.0
 40
0.0234256507095982
 50
240.3787623264121009
 51
299.6212376735879275
  0
LINE
  5
6718
  8
0
 10
340.3945546485986142
 20
4.2876139918238323
 30
0.0
 11
340.4149460997074925
 21
4.2307705806460802
 31
0.0
  0
ARC
  5
6719
  8
0
 10
340.4537137531708026
 20
4.2702603226545781
 30
0.0
 40
0.0616518409085742
 50
161.7670673113038049
 51
199.9326827740862882
  0
ARC
  5
671A
  8
0
 10
340.4644258815865783
 20
4.2741449715825288
 30
0.0
 40
0.0730465849816502
 50
199.9326827740862882
 51
243.7315124027325908
  0
ARC
  5
671B
  8
0
 10
340.4748004728717206
 20
4.2593234012997812
 30
0.0
 40
0.0663178863120252
 50
205.5198524642690074
 51
334.4978609407252179
  0
ARC
  5
671C
  8
0
 10
340.4623828419391884
 20
4.2666877130883591
 30
0.0
 40
0.071006740753563
 50
122.3574508903055005
 51
161.2176808004007
  0
ARC
  5
671D
  8
0
 10
340.4634676108223061
 20
4.300828605834865
 30
0.0
 40
0.0813162086046349
 50
209.6985296027559116
 51
231.242342585961012
  0
ARC
  5
671E
  8
0
 10
340.468930976481488
 20
4.2344077371059958
 30
0.0
 40
0.0135809355931726
 50
127.7311859212959035
 51
245.1472120769888932
  0
LINE
  5
671F
  8
0
 10
340.5550484063164163
 20
4.2876139918238323
 30
0.0
 11
340.5346569552074811
 21
4.2307705806460802
 31
0.0
  0
ARC
  5
6720
  8
0
 10
340.4958893017442279
 20
4.2702603226545781
 30
0.0
 40
0.0616518409085742
 50
340.0673172259137118
 51
18.2329326886961915
  0
ARC
  5
6721
  8
0
 10
340.4851771733283954
 20
4.2741449715825288
 30
0.0
 40
0.0730465849816502
 50
296.4089847468043786
 51
340.0673172259137118
  0
ARC
  5
6722
  8
0
 10
340.4872202129757852
 20
4.2666877130883591
 30
0.0
 40
0.071006740753563
 50
18.7823191995992609
 51
57.6425491096944782
  0
ARC
  5
6723
  8
0
 10
340.4861354440927244
 20
4.300828605834865
 30
0.0
 40
0.0813162086046349
 50
308.757657414038988
 51
330.3014703972439747
  0
ARC
  5
6724
  8
0
 10
340.4806720784334857
 20
4.2344077371059958
 30
0.0
 40
0.0135809355931726
 50
294.8527879230110784
 51
52.2688140787040609
  0
ARC
  5
6725
  8
0
 10
340.4748015274574868
 20
4.248198564584583
 30
0.0
 40
0.0932733716723145
 50
57.2770535343331986
 51
122.7229464656667943
  0
ARC
  5
6726
  8
0
 10
340.4748015274574868
 20
4.2270348139760037
 30
0.0
 40
0.0230050125217172
 50
51.9424296536382002
 51
128.057570346361814
  0
ARC
  5
6727
  8
0
 10
340.4748015274574868
 20
4.242448717388271
 30
0.0
 40
0.0234256507095982
 50
240.3787623264121009
 51
299.6212376735879275
  0
LINE
  5
6728
  8
0
 10
340.3945546485986142
 20
4.5628324784943004
 30
0.0
 11
340.4149460997074925
 21
4.5059890673165484
 31
0.0
  0
ARC
  5
6729
  8
0
 10
340.4537137531708026
 20
4.5454788093250471
 30
0.0
 40
0.0616518409085742
 50
161.7670673113038049
 51
199.9326827740862882
  0
ARC
  5
672A
  8
0
 10
340.4644258815865783
 20
4.5493634582529969
 30
0.0
 40
0.0730465849816502
 50
199.9326827740862882
 51
243.7315124027325908
  0
ARC
  5
672B
  8
0
 10
340.4748004728717206
 20
4.5345418879702493
 30
0.0
 40
0.0663178863120252
 50
205.5198524642690074
 51
334.4978609407252179
  0
ARC
  5
672C
  8
0
 10
340.4623828419391884
 20
4.5419061997588273
 30
0.0
 40
0.071006740753563
 50
122.3574508903055005
 51
161.2176808004007
  0
ARC
  5
672D
  8
0
 10
340.4634676108223061
 20
4.576047092505334
 30
0.0
 40
0.0813162086046349
 50
209.6985296027559116
 51
231.242342585961012
  0
ARC
  5
672E
  8
0
 10
340.468930976481488
 20
4.5096262237764639
 30
0.0
 40
0.0135809355931726
 50
127.7311859212959035
 51
245.1472120769888932
  0
LINE
  5
672F
  8
0
 10
340.5550484063164163
 20
4.5628324784943004
 30
0.0
 11
340.5346569552074811
 21
4.5059890673165484
 31
0.0
  0
ARC
  5
6730
  8
0
 10
340.4958893017442279
 20
4.5454788093250471
 30
0.0
 40
0.0616518409085742
 50
340.0673172259137118
 51
18.2329326886961915
  0
ARC
  5
6731
  8
0
 10
340.4851771733283954
 20
4.5493634582529969
 30
0.0
 40
0.0730465849816502
 50
296.4089847468043786
 51
340.0673172259137118
  0
ARC
  5
6732
  8
0
 10
340.4872202129757852
 20
4.5419061997588273
 30
0.0
 40
0.071006740753563
 50
18.7823191995992609
 51
57.6425491096944782
  0
ARC
  5
6733
  8
0
 10
340.4861354440927244
 20
4.576047092505334
 30
0.0
 40
0.0813162086046349
 50
308.757657414038988
 51
330.3014703972439747
  0
ARC
  5
6734
  8
0
 10
340.4806720784334857
 20
4.5096262237764639
 30
0.0
 40
0.0135809355931726
 50
294.8527879230110784
 51
52.2688140787040609
  0
ARC
  5
6735
  8
0
 10
340.4748015274574868
 20
4.523417051255052
 30
0.0
 40
0.0932733716723145
 50
57.2770535343331986
 51
122.7229464656667943
  0
ARC
  5
6736
  8
0
 10
340.4748015274574868
 20
4.5022533006464718
 30
0.0
 40
0.0230050125217172
 50
51.9424296536382002
 51
128.057570346361814
  0
ARC
  5
6737
  8
0
 10
340.4748015274574868
 20
4.5176672040587391
 30
0.0
 40
0.0234256507095982
 50
240.3787623264121009
 51
299.6212376735879275
  0
LINE
  5
6738
  8
0
 10
340.3945546485986142
 20
4.8303325328588747
 30
0.0
 11
340.4149460997074925
 21
4.7734891216811226
 31
0.0
  0
ARC
  5
6739
  8
0
 10
340.4537137531708026
 20
4.8129788636896222
 30
0.0
 40
0.0616518409085742
 50
161.7670673113038049
 51
199.9326827740862882
  0
ARC
  5
673A
  8
0
 10
340.4644258815865783
 20
4.8168635126175721
 30
0.0
 40
0.0730465849816502
 50
199.9326827740862882
 51
243.7315124027325908
  0
ARC
  5
673B
  8
0
 10
340.4748004728717206
 20
4.8020419423348244
 30
0.0
 40
0.0663178863120252
 50
205.5198524642690074
 51
334.4978609407252179
  0
ARC
  5
673C
  8
0
 10
340.4689750528123113
 20
4.791002541920121
 30
0.0
 40
0.0845691612921051
 50
121.8245420076492991
 51
150.7936954793007942
  0
ARC
  5
673D
  8
0
 10
340.4634676108223061
 20
4.8435471468699092
 30
0.0
 40
0.0813162086046349
 50
209.6985296027559116
 51
231.242342585961012
  0
ARC
  5
673E
  8
0
 10
340.468930976481488
 20
4.7840878762201413
 30
0.0
 40
0.0135809355931726
 50
127.7311859212959035
 51
245.1472120769888932
  0
LINE
  5
673F
  8
0
 10
340.5550484063164163
 20
4.8303325328588747
 30
0.0
 11
340.5346569552074811
 21
4.7734891216811226
 31
0.0
  0
ARC
  5
6740
  8
0
 10
340.4958893017442279
 20
4.8129788636896222
 30
0.0
 40
0.0616518409085742
 50
340.0673172259137118
 51
18.2329326886961915
  0
ARC
  5
6741
  8
0
 10
340.4851771733283954
 20
4.8168635126175721
 30
0.0
 40
0.0730465849816502
 50
296.4089847468043786
 51
340.0673172259137118
  0
ARC
  5
6742
  8
0
 10
340.4869463970844095
 20
4.797038607708628
 30
0.0
 40
0.0761400763864458
 50
27.5614083115011184
 51
59.8203542015557517
  0
ARC
  5
6743
  8
0
 10
340.4861354440927244
 20
4.8435471468699092
 30
0.0
 40
0.0813162086046349
 50
308.757657414038988
 51
330.3014703972439747
  0
ARC
  5
6744
  8
0
 10
340.4806720784334857
 20
4.7840878762201413
 30
0.0
 40
0.0135809355931726
 50
294.8527879230110784
 51
52.2688140787040609
  0
ARC
  5
6745
  8
0
 10
340.4748015274574868
 20
4.7843877981180176
 30
0.0
 40
0.0932733716723145
 50
57.2770535343331986
 51
122.7229464656667943
  0
ARC
  5
6746
  8
0
 10
340.4748015274574868
 20
4.7767149530901492
 30
0.0
 40
0.0230050125217172
 50
51.9424296536382002
 51
128.057570346361814
  0
ARC
  5
6747
  8
0
 10
340.4748015274574868
 20
4.7921288565024147
 30
0.0
 40
0.0234256507095982
 50
240.3787623264121009
 51
299.6212376735879275
  0
LINE
  5
6748
  8
0
 10
340.3945546485986142
 20
5.3745165363458511
 30
0.0
 11
340.4149460997074925
 21
5.3176731251680991
 31
0.0
  0
ARC
  5
6749
  8
0
 10
340.4537137531708026
 20
5.357162867176597
 30
0.0
 40
0.0616518409085742
 50
161.7670673113038049
 51
199.9326827740862882
  0
ARC
  5
674A
  8
0
 10
340.4644258815865783
 20
5.3610475161045477
 30
0.0
 40
0.0730465849816502
 50
199.9326827740862882
 51
243.7315124027325908
  0
ARC
  5
674B
  8
0
 10
340.4748004728717206
 20
5.3462259458217991
 30
0.0
 40
0.0663178863120252
 50
205.5198524642690074
 51
334.4978609407252179
  0
ARC
  5
674C
  8
0
 10
340.4689750528123113
 20
5.3351865454070966
 30
0.0
 40
0.0845691612921051
 50
121.8245420076492991
 51
150.7936954793007942
  0
ARC
  5
674D
  8
0
 10
340.4634676108223061
 20
5.3877311503568839
 30
0.0
 40
0.0813162086046349
 50
209.6985296027559116
 51
231.242342585961012
  0
ARC
  5
674E
  8
0
 10
340.468930976481488
 20
5.328271879707116
 30
0.0
 40
0.0135809355931726
 50
127.7311859212959035
 51
245.1472120769888932
  0
LINE
  5
674F
  8
0
 10
340.5550484063164163
 20
5.3745165363458511
 30
0.0
 11
340.5346569552074811
 21
5.3176731251680991
 31
0.0
  0
ARC
  5
6750
  8
0
 10
340.4958893017442279
 20
5.357162867176597
 30
0.0
 40
0.0616518409085742
 50
340.0673172259137118
 51
18.2329326886961915
  0
ARC
  5
6751
  8
0
 10
340.4851771733283954
 20
5.3610475161045477
 30
0.0
 40
0.0730465849816502
 50
296.4089847468043786
 51
340.0673172259137118
  0
ARC
  5
6752
  8
0
 10
340.4869463970844095
 20
5.3412226111956036
 30
0.0
 40
0.0761400763864458
 50
27.5614083115011184
 51
59.8203542015557517
  0
ARC
  5
6753
  8
0
 10
340.4861354440927244
 20
5.3877311503568839
 30
0.0
 40
0.0813162086046349
 50
308.757657414038988
 51
330.3014703972439747
  0
ARC
  5
6754
  8
0
 10
340.4806720784334857
 20
5.328271879707116
 30
0.0
 40
0.0135809355931726
 50
294.8527879230110784
 51
52.2688140787040609
  0
ARC
  5
6755
  8
0
 10
340.4748015274574868
 20
5.3285718016049941
 30
0.0
 40
0.0932733716723145
 50
57.2770535343331986
 51
122.7229464656667943
  0
ARC
  5
6756
  8
0
 10
340.4748015274574868
 20
5.3208989565771239
 30
0.0
 40
0.0230050125217172
 50
51.9424296536382002
 51
128.057570346361814
  0
ARC
  5
6757
  8
0
 10
340.4748015274574868
 20
5.3363128599893912
 30
0.0
 40
0.0234256507095982
 50
240.3787623264121009
 51
299.6212376735879275
  0
LINE
  5
6758
  8
0
 10
340.2833527375075278
 20
-3.9418365385069052
 30
0.0
 11
340.2833527375075278
 21
-37.4436728779569066
 31
0.0
  0
LINE
  5
6759
  8
0
 10
340.666250317507604
 20
-3.9418365385069052
 30
0.0
 11
340.666250317507604
 21
-37.4436728779569066
 31
0.0
  0
LINE
  5
675A
  8
0
 10
334.3895369560074755
 20
-23.6583719715068987
 30
0.0
 11
334.3895369560074755
 21
-37.4436728779569066
 31
0.0
  0
LINE
  5
675B
  8
0
 10
334.7724345360074949
 20
-23.6583719715068987
 30
0.0
 11
334.7724345360074949
 21
-37.4436728779569066
 31
0.0
  0
ARC
  5
675C
  8
0
 10
337.5278936367574829
 20
-37.4436728779569066
 30
0.0
 40
3.1383566807500021
 50
180.0
 51
0.0
  0
ARC
  5
675D
  8
0
 10
337.5278936367574829
 20
-37.4436728779569066
 30
0.0
 40
2.7554591007500031
 50
180.0
 51
0.0
  0
LINE
  5
675E
  8
0
 10
335.0298860043398008
 20
-22.4339625227069099
 30
0.0
 11
334.1321678241317841
 21
-22.4339625227069099
 31
0.0
  0
LINE
  5
675F
  8
0
 10
335.0298860043398008
 20
-22.985143625106911
 30
0.0
 11
334.1321678241317841
 21
-22.985143625106911
 31
0.0
  0
LINE
  5
6760
  8
0
 10
334.2384660609075127
 20
-22.996954648706911
 30
0.0
 11
334.9235054311075146
 21
-22.996954648706911
 31
0.0
  0
LINE
  5
6761
  8
0
 10
334.2817731476075096
 20
-23.6583719715068987
 30
0.0
 11
334.8801983444075177
 21
-23.6583719715068987
 31
0.0
  0
LINE
  5
6762
  8
0
 10
334.2817731476075096
 20
-23.6583719715068987
 30
0.0
 11
334.2817731476075096
 21
-23.0048286645776194
 31
0.0
  0
ARC
  5
6763
  8
0
 10
334.2738991317368118
 20
-23.0048286645776194
 30
0.0
 40
0.0078740158707102
 50
0.0000012421852231
 51
89.9999994854735803
  0
LINE
  5
6764
  8
0
 10
334.2384660609075127
 20
-22.996954648706911
 30
0.0
 11
334.2384660609075127
 21
-22.985143625106911
 31
0.0
  0
LINE
  5
6765
  8
0
 10
340.8488172755074856
 20
-3.7449861448069011
 30
0.0
 11
340.8488172755074856
 21
-3.9418365385069052
 31
0.0
  0
LINE
  5
6766
  8
0
 10
340.9010606126075231
 20
-3.7449861448069011
 30
0.0
 11
340.9103998838074858
 21
-3.4775444085069012
 31
0.0
  0
ARC
  5
6767
  8
0
 10
340.8704708188781751
 20
-3.398529451977609
 30
0.0
 40
0.0078740158707067
 50
90.0000005145101341
 51
179.9999987578586911
  0
LINE
  5
6768
  8
0
 10
340.8625968030074773
 20
-3.3985294518069078
 30
0.0
 11
340.8625968030074773
 21
-3.4615215778069048
 31
0.0
  0
ARC
  5
6769
  8
0
 10
340.8704708187074743
 20
-3.4615215778069048
 30
0.0
 40
0.0078740157000006
 50
180.0
 51
270.0000007276424867
  0
LINE
  5
676A
  8
0
 10
340.9136994841074966
 20
-3.3830562195068969
 30
0.0
 11
340.9351468858075123
 21
-2.7688829912069082
 31
0.0
  0
ARC
  5
676B
  8
0
 10
340.905830264982626
 20
-3.3827814203452098
 30
0.0
 40
0.007874015761697
 50
270.000000000050477
 51
358.0000001850319222
  0
ARC
  5
676C
  8
0
 10
340.9272776666809932
 20
-2.7686081920693222
 30
0.0
 40
0.007874015762421
 50
358.0000003608025168
 51
89.9999998071857163
  0
ARC
  5
676D
  8
0
 10
340.9865637968276815
 20
-2.6819171218237439
 30
0.0
 40
0.0788171112315527
 50
270.068754985588896
 51
359.921724847313385
  0
LINE
  5
676E
  8
0
 10
341.0653808345074935
 20
-2.6820247985069008
 30
0.0
 11
341.0656075679074775
 21
-2.4300932148069019
 31
0.0
  0
ARC
  5
676F
  8
0
 10
390.3133251866997853
 20
-2.2667372079139478
 30
0.0
 40
49.2479885461862992
 50
178.1130717398822867
 51
180.1900509481237975
  0
ARC
  5
6770
  8
0
 10
369.3343503418960267
 20
-1.6275984429392589
 30
0.0
 40
28.2593922574746692
 50
175.1857034921519869
 51
178.0076706726071052
  0
ARC
  5
6771
  8
0
 10
361.8368852209353008
 20
-1.07342542544471
 30
0.0
 40
20.7420117725962605
 50
171.0652456926559921
 51
174.9729556231960999
  0
ARC
  5
6772
  8
0
 10
328.4101272332680992
 20
4.8587395407618308
 30
0.0
 40
13.1945242313899698
 50
356.8849299652761147
 51
3.1150700347238982
  0
ARC
  5
6773
  8
0
 10
326.8254285019485792
 20
5.0166770802659073
 30
0.0
 40
14.7856372975568195
 50
352.3913045814703082
 51
356.6075132050615935
  0
ARC
  5
6774
  8
0
 10
289.4329694280640979
 20
10.2683447060397004
 30
0.0
 40
52.5448453812816183
 50
351.1098199810443816
 51
352.1138878212580039
  0
ARC
  5
6775
  8
0
 10
325.5994605997876761
 20
4.7311698630138599
 30
0.0
 40
16.0079902573463393
 50
3.0243211569568551
 51
4.5570715878836232
  0
ARC
  5
6776
  8
0
 10
341.4135218682250752
 20
5.9970616440469646
 30
0.0
 40
0.1434472661179218
 50
2.3877206444510288
 51
66.7871063216405503
  0
ARC
  5
6777
  8
0
 10
341.2934524509803964
 20
5.7001332253881278
 30
0.0
 40
0.4637117309355588
 50
67.6130733395443997
 51
79.0643359495868339
  0
ARC
  5
6778
  8
0
 10
340.9927899132692914
 20
4.0106209340578403
 30
0.0
 40
2.1797284766888958
 50
79.7296149832005057
 51
85.3141375490178433
  0
ARC
  5
6779
  8
0
 10
340.6567751810355844
 20
-0.0454657818497708
 30
0.0
 40
6.2497089407738846
 50
85.281689182228078
 51
88.3989857509015451
  0
ARC
  5
677A
  8
0
 10
340.7714298373783208
 20
16.1297487283677903
 30
0.0
 40
10.3776384501907604
 50
270.5619641433702895
 51
272.0829022650553952
  0
ARC
  5
677B
  8
0
 10
341.1640714461470907
 20
5.3338529392491969
 30
0.0
 40
0.4253950738914926
 50
69.3678405879273328
 51
92.0829022650555089
  0
ARC
  5
677C
  8
0
 10
319.4839225761091939
 20
4.578018616126954
 30
0.0
 40
22.0007591653111483
 50
1.6068724674691479
 51
2.3418044396953919
  0
ARC
  5
677D
  8
0
 10
326.8000985196657098
 20
4.736361022188035
 30
0.0
 40
14.6830949079160806
 50
354.4997131539624888
 51
1.789793116355159
  0
ARC
  5
677E
  8
0
 10
341.0826984910744955
 20
3.386838438920023
 30
0.0
 40
0.342805692800178
 50
276.2725968411094186
 51
330.0794278005112119
  0
ARC
  5
677F
  8
0
 10
341.0949086701421038
 20
3.3681622687859232
 30
0.0
 40
0.3230650688391461
 50
331.870347182950411
 51
353.0330603252023138
  0
ARC
  5
6780
  8
0
 10
341.0949086701421038
 20
3.3681622687859232
 30
0.0
 40
0.3230650688391461
 50
271.4319238178838987
 51
274.4816774586694237
  0
ARC
  5
6781
  8
0
 10
341.2077752946419764
 20
3.448856163209939
 30
0.0
 40
0.062283951652395
 50
352.6890151294360862
 51
73.5343614495383235
  0
ARC
  5
6782
  8
0
 10
341.1930797254020149
 20
3.4533248774056631
 30
0.0
 40
0.0774710968390817
 50
312.3753670983766142
 51
350.7936515254637015
  0
ARC
  5
6783
  8
0
 10
341.1930004163239118
 20
3.4144226094747832
 30
0.0
 40
0.0995908253188182
 50
70.9969228690219722
 51
119.528761926165302
  0
ARC
  5
6784
  8
0
 10
341.1811624455619949
 20
3.4333301642866871
 30
0.0
 40
0.0773109670294286
 50
118.8013207146521069
 51
170.0888359718796892
  0
ARC
  5
6785
  8
0
 10
341.1639245246020096
 20
3.4387571868948461
 30
0.0
 40
0.0594438281415719
 50
172.3825005451091101
 51
209.6102147359891035
  0
ARC
  5
6786
  8
0
 10
341.1771530622575028
 20
3.446681113946922
 30
0.0
 40
0.0748608290241592
 50
209.8803413062072991
 51
249.482823270674686
  0
ARC
  5
6787
  8
0
 10
341.1909567132329926
 20
3.429650013762199
 30
0.0
 40
0.0638638352402513
 50
270.6348165639424792
 51
345.8892917633867228
  0
ARC
  5
6788
  8
0
 10
341.1858542507183074
 20
3.426240205109309
 30
0.0
 40
0.0607286746412532
 50
212.0992518785579932
 51
275.4900011507772888
  0
LINE
  5
6789
  8
0
 10
341.1344092378075175
 20
3.3939697453930928
 30
0.0
 11
341.1050052823075021
 21
3.4466370086931022
 31
0.0
  0
LINE
  5
678A
  8
0
 10
341.252893551007503
 20
3.4140802488931001
 30
0.0
 11
341.2637557567497879
 21
3.4761596152926151
 31
0.0
  0
ARC
  5
678B
  8
0
 10
341.1856379746786843
 20
3.4833378218380342
 30
0.0
 40
0.090513748985565
 50
319.8214362702848916
 51
338.8139843209197011
  0
ARC
  5
678C
  8
0
 10
341.1685982017937135
 20
3.4697693477212961
 30
0.0
 40
0.0786726542491053
 50
218.9496629141926007
 51
241.0593663134285123
  0
ARC
  5
678D
  8
0
 10
341.1943354561548745
 20
3.3994563318346991
 30
0.0
 40
0.0234511803253728
 50
58.5214793385615479
 51
133.5512908300999868
  0
ARC
  5
678E
  8
0
 10
341.1869392641905279
 20
3.4063241130239699
 30
0.0
 40
0.013392455328228
 50
130.8613515452011882
 51
249.6322544289589018
  0
ARC
  5
678F
  8
0
 10
341.1916909966470826
 20
3.4158824580447908
 30
0.0
 40
0.0240334895564653
 50
246.9423151440772131
 51
305.4117124337524274
  0
ARC
  5
6790
  8
0
 10
341.1990214857034971
 20
3.4081702258189348
 30
0.0
 40
0.0135840056816439
 50
299.048268929132405
 51
56.1849801718213797
  0
ARC
  5
6791
  8
0
 10
340.8318086230908079
 20
3.4083750185002231
 30
0.0
 40
0.0939094896840666
 50
53.0300857763388791
 51
126.1012312763518963
  0
ARC
  5
6792
  8
0
 10
340.8174944418180985
 20
3.4280037746064802
 30
0.0
 40
0.0696157898467636
 50
126.101231276354099
 51
165.3918821492422921
  0
ARC
  5
6793
  8
0
 10
340.811149889093997
 20
3.4309841005085668
 30
0.0
 40
0.0627378146437836
 50
166.5644450944764969
 51
204.5460800597286948
  0
ARC
  5
6794
  8
0
 10
340.8260125251151749
 20
3.4395679739288592
 30
0.0
 40
0.0798399503175153
 50
205.7186430049684986
 51
242.6978498809600922
  0
ARC
  5
6795
  8
0
 10
340.8460408075383725
 20
3.428913194159704
 30
0.0
 40
0.068948288025959
 50
16.6196167475340317
 51
52.2150633657159986
  0
ARC
  5
6796
  8
0
 10
340.8482729200978838
 20
3.431827902734625
 30
0.0
 40
0.0660109380401369
 50
302.232260890870009
 51
14.7492129655178399
  0
ARC
  5
6797
  8
0
 10
340.8323090297408271
 20
3.4262797961563791
 30
0.0
 40
0.0722833920194031
 50
243.2133993410990911
 51
303.0303010325142168
  0
ARC
  5
6798
  8
0
 10
340.8244763615505235
 20
3.410224890161345
 30
0.0
 40
0.0544219228686947
 50
205.4353338694247952
 51
242.9572603091503993
  0
ARC
  5
6799
  8
0
 10
340.8404828658746055
 20
3.4131993141453729
 30
0.0
 40
0.0568622063128283
 50
303.3095565744737883
 51
343.4080335529026797
  0
LINE
  5
679A
  8
0
 10
340.7753295230074855
 20
3.3868511024930958
 30
0.0
 11
340.749997008907485
 21
3.4424045751930938
 31
0.0
  0
LINE
  5
679B
  8
0
 10
340.8949774790074798
 20
3.3969620838930998
 30
0.0
 11
340.9101677699223956
 21
3.4542430010500729
 31
0.0
  0
ARC
  5
679C
  8
0
 10
340.845781757558882
 20
3.4591669039213708
 30
0.0
 40
0.075352044853058
 50
312.5708928045200992
 51
335.1180213018645873
  0
ARC
  5
679D
  8
0
 10
340.8228062613058
 20
3.4668658061762438
 30
0.0
 40
0.0886757288296703
 50
215.1033356408701138
 51
235.0257014543431069
  0
ARC
  5
679E
  8
0
 10
340.8354713633804067
 20
3.3876005960981099
 30
0.0
 40
0.023461805976579
 50
55.425110492726489
 51
130.6373490217007998
  0
ARC
  5
679F
  8
0
 10
340.8290993506350901
 20
3.3950251505619771
 30
0.0
 40
0.0136778111169557
 50
130.6373490216984976
 51
246.1494519578101858
  0
ARC
  5
67A0
  8
0
 10
340.8340376855351792
 20
3.4061951547080578
 30
0.0
 40
0.0258907609739088
 50
246.1494519578099016
 51
300.0535061805044279
  0
ARC
  5
67A1
  8
0
 10
340.8408279037255966
 20
3.395896175587978
 30
0.0
 40
0.0135948505811909
 50
297.0196914777993129
 51
54.1728595665134023
  0
ARC
  5
67A2
  8
0
 10
341.2240585242860789
 20
3.7305066015929782
 30
0.0
 40
0.062283951652395
 50
352.6890151294360862
 51
73.5343614495383235
  0
ARC
  5
67A3
  8
0
 10
341.2093629550460037
 20
3.7349753157887018
 30
0.0
 40
0.0774710968390817
 50
312.3753670983766142
 51
350.7936515254637015
  0
ARC
  5
67A4
  8
0
 10
341.2092836459680143
 20
3.6960730478578219
 30
0.0
 40
0.0995908253188182
 50
70.9969228690219722
 51
119.528761926165302
  0
ARC
  5
67A5
  8
0
 10
341.1974456752059837
 20
3.7149806026697259
 30
0.0
 40
0.0773109670294286
 50
118.8013207146521069
 51
170.0888359718796892
  0
ARC
  5
67A6
  8
0
 10
341.180207754246112
 20
3.7204076252778862
 30
0.0
 40
0.0594438281415719
 50
172.3825005451091101
 51
209.6102147359891035
  0
ARC
  5
67A7
  8
0
 10
341.1934362919016053
 20
3.7283315523299621
 30
0.0
 40
0.0748608290241592
 50
209.8803413062072991
 51
249.482823270674686
  0
ARC
  5
67A8
  8
0
 10
341.2072399428769813
 20
3.7113004521452231
 30
0.0
 40
0.0638638352402513
 50
270.6348165639424792
 51
345.8892917633867228
  0
ARC
  5
67A9
  8
0
 10
341.2021374803622962
 20
3.7078906434923482
 30
0.0
 40
0.0607286746412532
 50
212.0992518785579932
 51
275.4900011507772888
  0
LINE
  5
67AA
  8
0
 10
341.1506924674516199
 20
3.675620183776132
 30
0.0
 11
341.1212885119516045
 21
3.7282874470761271
 31
0.0
  0
LINE
  5
67AB
  8
0
 10
341.2691767806516054
 20
3.6957306872761251
 30
0.0
 11
341.2800389863938904
 21
3.7578100536756551
 31
0.0
  0
ARC
  5
67AC
  8
0
 10
341.201921204322673
 20
3.7649882602210591
 30
0.0
 40
0.090513748985565
 50
319.8214362702848916
 51
338.8139843209197011
  0
ARC
  5
67AD
  8
0
 10
341.184881431437816
 20
3.7514197861043348
 30
0.0
 40
0.0786726542491053
 50
218.9496629141926007
 51
241.0593663134285123
  0
ARC
  5
67AE
  8
0
 10
341.2106186857989769
 20
3.6811067702177378
 30
0.0
 40
0.0234511803253728
 50
58.5214793385615479
 51
133.5512908300999868
  0
ARC
  5
67AF
  8
0
 10
341.2032224938346872
 20
3.6879745514069948
 30
0.0
 40
0.013392455328228
 50
130.8613515452011882
 51
249.6322544289589018
  0
ARC
  5
67B0
  8
0
 10
341.207974226291185
 20
3.69753289642783
 30
0.0
 40
0.0240334895564653
 50
246.9423151440772131
 51
305.4117124337524274
  0
ARC
  5
67B1
  8
0
 10
341.2153047153475995
 20
3.689820664201974
 30
0.0
 40
0.0135840056816439
 50
299.048268929132405
 51
56.1849801718213797
  0
ARC
  5
67B2
  8
0
 10
341.234819907780718
 20
4.0092024629905856
 30
0.0
 40
0.062283951652395
 50
352.6890151294360862
 51
73.5343614495383235
  0
ARC
  5
67B3
  8
0
 10
341.220124338540586
 20
4.0136711771863096
 30
0.0
 40
0.0774710968390817
 50
312.3753670983766142
 51
350.7936515254637015
  0
ARC
  5
67B4
  8
0
 10
341.2200450294624829
 20
3.974768909255431
 30
0.0
 40
0.0995908253188182
 50
70.9969228690219722
 51
119.528761926165302
  0
ARC
  5
67B5
  8
0
 10
341.2082070587006228
 20
3.9936764640673341
 30
0.0
 40
0.0773109670294286
 50
118.8013207146521069
 51
170.0888359718796892
  0
ARC
  5
67B6
  8
0
 10
341.1909691377405807
 20
3.999103486675494
 30
0.0
 40
0.0594438281415719
 50
172.3825005451091101
 51
209.6102147359891035
  0
ARC
  5
67B7
  8
0
 10
341.2041976753961876
 20
4.0070274137275703
 30
0.0
 40
0.0748608290241592
 50
209.8803413062072991
 51
249.482823270674686
  0
ARC
  5
67B8
  8
0
 10
341.2180013263716205
 20
3.9899963135428318
 30
0.0
 40
0.0638638352402513
 50
270.6348165639424792
 51
345.8892917633867228
  0
ARC
  5
67B9
  8
0
 10
341.2128988638568785
 20
3.986586504889956
 30
0.0
 40
0.0607286746412532
 50
212.0992518785579932
 51
275.4900011507772888
  0
LINE
  5
67BA
  8
0
 10
341.1614538509462022
 20
3.9543160451737398
 30
0.0
 11
341.1320498954461868
 21
4.0069833084737354
 31
0.0
  0
LINE
  5
67BB
  8
0
 10
341.2799381641461878
 20
3.9744265486737329
 30
0.0
 11
341.2908003698884727
 21
4.0365059150732634
 31
0.0
  0
ARC
  5
67BC
  8
0
 10
341.2126825878173122
 20
4.043684121618667
 30
0.0
 40
0.090513748985565
 50
319.8214362702848916
 51
338.8139843209197011
  0
ARC
  5
67BD
  8
0
 10
341.1956428149322846
 20
4.0301156475019431
 30
0.0
 40
0.0786726542491053
 50
218.9496629141926007
 51
241.0593663134285123
  0
ARC
  5
67BE
  8
0
 10
341.2213800692935024
 20
3.9598026316153461
 30
0.0
 40
0.0234511803253728
 50
58.5214793385615479
 51
133.5512908300999868
  0
ARC
  5
67BF
  8
0
 10
341.2139838773292126
 20
3.9666704128046031
 30
0.0
 40
0.013392455328228
 50
130.8613515452011882
 51
249.6322544289589018
  0
ARC
  5
67C0
  8
0
 10
341.2187356097858242
 20
3.9762287578254378
 30
0.0
 40
0.0240334895564653
 50
246.9423151440772131
 51
305.4117124337524274
  0
ARC
  5
67C1
  8
0
 10
341.2260660988421819
 20
3.9685165255995818
 30
0.0
 40
0.0135840056816439
 50
299.048268929132405
 51
56.1849801718213797
  0
ARC
  5
67C2
  8
0
 10
341.2449830993817272
 20
4.2808693999583047
 30
0.0
 40
0.0589188362462415
 50
357.3726209641034188
 51
72.7116445720761675
  0
ARC
  5
67C3
  8
0
 10
341.2273668425947903
 20
4.290563184570515
 30
0.0
 40
0.0774710968390817
 50
312.3753670983766142
 51
350.7936515254637015
  0
ARC
  5
67C4
  8
0
 10
341.2267851929004223
 20
4.2419760493767731
 30
0.0
 40
0.1016297347029586
 50
69.4301823649649066
 51
121.671405453640304
  0
ARC
  5
67C5
  8
0
 10
341.2119508494615729
 20
4.2636233836454229
 30
0.0
 40
0.0754280525342253
 50
120.7148275501177039
 51
164.4253666035430115
  0
ARC
  5
67C6
  8
0
 10
341.198211641794785
 20
4.2759954940596989
 30
0.0
 40
0.0594438281415719
 50
172.3825005451091101
 51
209.6102147359891035
  0
ARC
  5
67C7
  8
0
 10
341.211440179450392
 20
4.2839194211117748
 30
0.0
 40
0.0748608290241592
 50
209.8803413062072991
 51
249.482823270674686
  0
ARC
  5
67C8
  8
0
 10
341.2252438304258249
 20
4.2668883209270509
 30
0.0
 40
0.0638638352402513
 50
270.6348165639424792
 51
345.8892917633867228
  0
ARC
  5
67C9
  8
0
 10
341.2201413679110829
 20
4.263478512274161
 30
0.0
 40
0.0607286746412532
 50
212.0992518785579932
 51
275.4900011507772888
  0
LINE
  5
67CA
  8
0
 10
341.1686963550004066
 20
4.2312080525579461
 30
0.0
 11
341.1392923995002775
 21
4.283875315857955
 31
0.0
  0
LINE
  5
67CB
  8
0
 10
341.2871806682002784
 20
4.2513185560579521
 30
0.0
 11
341.2986889819075031
 21
4.3055624897430951
 31
0.0
  0
ARC
  5
67CC
  8
0
 10
341.2199250918714029
 20
4.3205761290028866
 30
0.0
 40
0.090513748985565
 50
319.8214362702848916
 51
337.6839864408353833
  0
ARC
  5
67CD
  8
0
 10
341.202885318986489
 20
4.3070076548861493
 30
0.0
 40
0.0786726542491053
 50
218.9496629141926007
 51
241.0593663134285123
  0
ARC
  5
67CE
  8
0
 10
341.2286225733477067
 20
4.236694638999551
 30
0.0
 40
0.0234511803253728
 50
58.5214793385615479
 51
133.5512908300999868
  0
ARC
  5
67CF
  8
0
 10
341.221226381383417
 20
4.2435624201888231
 30
0.0
 40
0.013392455328228
 50
130.8613515452011882
 51
249.6322544289589018
  0
ARC
  5
67D0
  8
0
 10
341.2259781138399148
 20
4.2531207652096441
 30
0.0
 40
0.0240334895564653
 50
246.9423151440772131
 51
305.4117124337524274
  0
ARC
  5
67D1
  8
0
 10
341.2333086028963862
 20
4.2454085329837881
 30
0.0
 40
0.0135840056816439
 50
299.048268929132405
 51
56.1849801718213797
  0
ARC
  5
67D2
  8
0
 10
341.2486552090074952
 20
4.551896758419459
 30
0.0
 40
0.0604752025503912
 50
354.2932498619113062
 51
68.8005927706562943
  0
ARC
  5
67D3
  8
0
 10
341.2502251717364175
 20
4.5513665249881683
 30
0.0
 40
0.058861468279651
 50
304.6870069784852149
 51
354.6548638810326111
  0
ARC
  5
67D4
  8
0
 10
341.2316742034263939
 20
4.5138673991677356
 30
0.0
 40
0.1020927948783499
 50
67.6332594328305845
 51
122.769887100912797
  0
ARC
  5
67D5
  8
0
 10
341.2160470120336981
 20
4.5377545559227883
 30
0.0
 40
0.073549079808641
 50
122.6056487537096018
 51
172.5552417993463905
  0
ARC
  5
67D6
  8
0
 10
341.2006381124633094
 20
4.5442381781572863
 30
0.0
 40
0.0576007820761902
 50
176.9685667072035926
 51
215.1045188195975868
  0
ARC
  5
67D7
  8
0
 10
341.2225350060612072
 20
4.5650995327525692
 30
0.0
 40
0.0876257789598294
 50
218.03154400708911
 51
251.4752624705344886
  0
ARC
  5
67D8
  8
0
 10
341.229584273332307
 20
4.5374389571383773
 30
0.0
 40
0.0641821267531741
 50
271.6911418485518084
 51
345.5538950102974241
  0
ARC
  5
67D9
  8
0
 10
341.2266464692305021
 20
4.534788013457117
 30
0.0
 40
0.0616927429416583
 50
216.5336256019265022
 51
274.4921480091356898
  0
LINE
  5
67DA
  8
0
 10
341.1770758793074947
 20
4.4980626659930891
 30
0.0
 11
341.1431179327620953
 21
4.5472843270264027
 31
0.0
  0
LINE
  5
67DB
  8
0
 10
341.2917371365074928
 20
4.5214274926930917
 30
0.0
 11
341.3032678307660035
 21
4.577871970991608
 31
0.0
  0
ARC
  5
67DC
  8
0
 10
341.231101730703017
 20
4.5821573804817604
 30
0.0
 40
0.0840839568314539
 50
316.7853891432180831
 51
338.1047878875684773
  0
ARC
  5
67DD
  8
0
 10
341.2074522427349734
 20
4.5750718948425506
 30
0.0
 40
0.0809110226635799
 50
223.3289842253782922
 51
246.4436260694720886
  0
ARC
  5
67DE
  8
0
 10
341.2338142037443163
 20
4.5120037778093973
 30
0.0
 40
0.0234511803253728
 50
58.5214793385615479
 51
133.5512908300999868
  0
ARC
  5
67DF
  8
0
 10
341.2264180117797991
 20
4.5188715589986543
 30
0.0
 40
0.013392455328228
 50
130.8613515452011882
 51
249.6322544289589018
  0
ARC
  5
67E0
  8
0
 10
341.2311697442364107
 20
4.5284299040194886
 30
0.0
 40
0.0240334895564653
 50
246.9423151440772131
 51
305.4117124337524274
  0
ARC
  5
67E1
  8
0
 10
341.2385002332928252
 20
4.5207176717936326
 30
0.0
 40
0.0135840056816439
 50
299.048268929132405
 51
56.1849801718213797
  0
ARC
  5
67E2
  8
0
 10
341.2466484401596745
 20
4.8250163595106548
 30
0.0
 40
0.0604752025503912
 50
354.2932498619113062
 51
68.8005927706562943
  0
ARC
  5
67E3
  8
0
 10
341.2482184028885968
 20
4.8244861260793641
 30
0.0
 40
0.058861468279651
 50
304.6870069784852149
 51
354.6548638810326111
  0
ARC
  5
67E4
  8
0
 10
341.2296674345786869
 20
4.7869870002589323
 30
0.0
 40
0.1020927948783499
 50
67.6332594328305845
 51
122.769887100912797
  0
ARC
  5
67E5
  8
0
 10
341.2140402431858774
 20
4.8108741570139841
 30
0.0
 40
0.073549079808641
 50
122.6056487537096018
 51
172.5552417993463905
  0
ARC
  5
67E6
  8
0
 10
341.198631343615375
 20
4.8173577792484821
 30
0.0
 40
0.0576007820761902
 50
176.9685667072035926
 51
215.1045188195975868
  0
ARC
  5
67E7
  8
0
 10
341.2205282372132729
 20
4.838219133843765
 30
0.0
 40
0.0876257789598294
 50
218.03154400708911
 51
251.4752624705344886
  0
ARC
  5
67E8
  8
0
 10
341.2275775044844863
 20
4.8105585582295731
 30
0.0
 40
0.0641821267531741
 50
271.6911418485518084
 51
345.5538950102974241
  0
ARC
  5
67E9
  8
0
 10
341.2246397003826814
 20
4.8079076145483119
 30
0.0
 40
0.0616927429416583
 50
216.5336256019265022
 51
274.4921480091356898
  0
LINE
  5
67EA
  8
0
 10
341.175069110459674
 20
4.7711822670842841
 30
0.0
 11
341.1411111639142746
 21
4.8204039281175994
 31
0.0
  0
LINE
  5
67EB
  8
0
 10
341.2897303676596721
 20
4.7945470937842876
 30
0.0
 11
341.3012610619181828
 21
4.8509915720828038
 31
0.0
  0
ARC
  5
67EC
  8
0
 10
341.2290949618551963
 20
4.8552769815729562
 30
0.0
 40
0.0840839568314539
 50
316.7853891432180831
 51
338.1047878875684773
  0
ARC
  5
67ED
  8
0
 10
341.2054454738872096
 20
4.8481914959337473
 30
0.0
 40
0.0809110226635799
 50
223.3289842253782922
 51
246.4436260694720886
  0
ARC
  5
67EE
  8
0
 10
341.2318074348963819
 20
4.7851233789005931
 30
0.0
 40
0.0234511803253728
 50
58.5214793385615479
 51
133.5512908300999868
  0
ARC
  5
67EF
  8
0
 10
341.2244112429319784
 20
4.7919911600898502
 30
0.0
 40
0.013392455328228
 50
130.8613515452011882
 51
249.6322544289589018
  0
ARC
  5
67F0
  8
0
 10
341.22916297538859
 20
4.8015495051106853
 30
0.0
 40
0.0240334895564653
 50
246.9423151440772131
 51
305.4117124337524274
  0
ARC
  5
67F1
  8
0
 10
341.2364934644451182
 20
4.7938372728848293
 30
0.0
 40
0.0135840056816439
 50
299.048268929132405
 51
56.1849801718213797
  0
ARC
  5
67F2
  8
0
 10
341.2454720584212851
 20
5.0977352059228158
 30
0.0
 40
0.0604752025503912
 50
354.2932498619113062
 51
68.8005927706562943
  0
ARC
  5
67F3
  8
0
 10
341.2470420211502073
 20
5.0972049724915101
 30
0.0
 40
0.058861468279651
 50
304.6870069784852149
 51
354.6548638810326111
  0
ARC
  5
67F4
  8
0
 10
341.2284910528402975
 20
5.0597058466710934
 30
0.0
 40
0.1020927948783499
 50
67.6332594328305845
 51
122.769887100912797
  0
ARC
  5
67F5
  8
0
 10
341.2128638614476017
 20
5.0835930034261452
 30
0.0
 40
0.073549079808641
 50
122.6056487537096018
 51
172.5552417993463905
  0
ARC
  5
67F6
  8
0
 10
341.1974549618770993
 20
5.0900766256606431
 30
0.0
 40
0.0576007820761902
 50
176.9685667072035926
 51
215.1045188195975868
  0
ARC
  5
67F7
  8
0
 10
341.2193518554749971
 20
5.110937980255926
 30
0.0
 40
0.0876257789598294
 50
218.03154400708911
 51
251.4752624705344886
  0
ARC
  5
67F8
  8
0
 10
341.2264011227460969
 20
5.0832774046417342
 30
0.0
 40
0.0641821267531741
 50
271.6911418485518084
 51
345.5538950102974241
  0
ARC
  5
67F9
  8
0
 10
341.223463318644292
 20
5.080626460960473
 30
0.0
 40
0.0616927429416583
 50
216.5336256019265022
 51
274.4921480091356898
  0
LINE
  5
67FA
  8
0
 10
341.1738927287212846
 20
5.0439011134964451
 30
0.0
 11
341.1399347821759989
 21
5.0931227745297463
 31
0.0
  0
LINE
  5
67FB
  8
0
 10
341.2885539859212827
 20
5.0672659401964486
 30
0.0
 11
341.3000846801799071
 21
5.1237104184949649
 31
0.0
  0
ARC
  5
67FC
  8
0
 10
341.2279185801168069
 20
5.127995827985103
 30
0.0
 40
0.0840839568314539
 50
316.7853891432180831
 51
338.1047878875684773
  0
ARC
  5
67FD
  8
0
 10
341.2042690921488202
 20
5.1209103423459217
 30
0.0
 40
0.0809110226635799
 50
223.3289842253782922
 51
246.4436260694720886
  0
ARC
  5
67FE
  8
0
 10
341.2306310531579925
 20
5.0578422253127542
 30
0.0
 40
0.0234511803253728
 50
58.5214793385615479
 51
133.5512908300999868
  0
ARC
  5
67FF
  8
0
 10
341.2232348611937027
 20
5.0647100065020254
 30
0.0
 40
0.013392455328228
 50
130.8613515452011882
 51
249.6322544289589018
  0
ARC
  5
6800
  8
0
 10
341.2279865936503143
 20
5.0742683515228464
 30
0.0
 40
0.0240334895564653
 50
246.9423151440772131
 51
305.4117124337524274
  0
ARC
  5
6801
  8
0
 10
341.235317082706672
 20
5.0665561192969903
 30
0.0
 40
0.0135840056816439
 50
299.048268929132405
 51
56.1849801718213797
  0
ARC
  5
6802
  8
0
 10
341.2422484150570767
 20
5.3689068212014339
 30
0.0
 40
0.0604752025503912
 50
354.2932498619113062
 51
68.8005927706562943
  0
ARC
  5
6803
  8
0
 10
341.243818377785999
 20
5.3683765877701433
 30
0.0
 40
0.058861468279651
 50
304.6870069784852149
 51
354.6548638810326111
  0
ARC
  5
6804
  8
0
 10
341.2252674094760891
 20
5.3308774619497106
 30
0.0
 40
0.1020927948783499
 50
67.6332594328305845
 51
122.769887100912797
  0
ARC
  5
6805
  8
0
 10
341.2096402180832797
 20
5.3547646187047633
 30
0.0
 40
0.073549079808641
 50
122.6056487537096018
 51
172.5552417993463905
  0
ARC
  5
6806
  8
0
 10
341.194231318512891
 20
5.3612482409392612
 30
0.0
 40
0.0576007820761902
 50
176.9685667072035926
 51
215.1045188195975868
  0
ARC
  5
6807
  8
0
 10
341.2161282121107888
 20
5.3821095955345442
 30
0.0
 40
0.0876257789598294
 50
218.03154400708911
 51
251.4752624705344886
  0
ARC
  5
6808
  8
0
 10
341.2231774793818886
 20
5.3544490199203523
 30
0.0
 40
0.0641821267531741
 50
271.6911418485518084
 51
345.5538950102974241
  0
ARC
  5
6809
  8
0
 10
341.2202396752800837
 20
5.3517980762390911
 30
0.0
 40
0.0616927429416583
 50
216.5336256019265022
 51
274.4921480091356898
  0
LINE
  5
680A
  8
0
 10
341.1706690853570763
 20
5.3150727287750641
 30
0.0
 11
341.1367111388116768
 21
5.3642943898083777
 31
0.0
  0
LINE
  5
680B
  8
0
 10
341.2853303425570743
 20
5.3384375554750667
 30
0.0
 11
341.2968610368156988
 21
5.394882033773583
 31
0.0
  0
ARC
  5
680C
  8
0
 10
341.2246949367525986
 20
5.3991674432637353
 30
0.0
 40
0.0840839568314539
 50
316.7853891432180831
 51
338.1047878875684773
  0
ARC
  5
680D
  8
0
 10
341.2010454487846118
 20
5.3920819576245256
 30
0.0
 40
0.0809110226635799
 50
223.3289842253782922
 51
246.4436260694720886
  0
ARC
  5
680E
  8
0
 10
341.2274074097937842
 20
5.3290138405913723
 30
0.0
 40
0.0234511803253728
 50
58.5214793385615479
 51
133.5512908300999868
  0
ARC
  5
680F
  8
0
 10
341.2200112178294944
 20
5.3358816217806293
 30
0.0
 40
0.013392455328228
 50
130.8613515452011882
 51
249.6322544289589018
  0
ARC
  5
6810
  8
0
 10
341.2247629502861059
 20
5.3454399668014636
 30
0.0
 40
0.0240334895564653
 50
246.9423151440772131
 51
305.4117124337524274
  0
ARC
  5
6811
  8
0
 10
341.2320934393425205
 20
5.3377277345756076
 30
0.0
 40
0.0135840056816439
 50
299.048268929132405
 51
56.1849801718213797
  0
ARC
  5
6812
  8
0
 10
340.8368240243548257
 20
3.6910205574793622
 30
0.0
 40
0.0939094896840666
 50
53.0300857763388791
 51
126.1012312763518963
  0
ARC
  5
6813
  8
0
 10
340.8225098430821731
 20
3.7106493135856189
 30
0.0
 40
0.0696157898467636
 50
126.101231276354099
 51
165.3918821492422921
  0
ARC
  5
6814
  8
0
 10
340.8161652903580148
 20
3.7136296394877202
 30
0.0
 40
0.0627378146437836
 50
166.5644450944764969
 51
204.5460800597286948
  0
ARC
  5
6815
  8
0
 10
340.8310279263793063
 20
3.7222135129079978
 30
0.0
 40
0.0798399503175153
 50
205.7186430049684986
 51
242.6978498809600922
  0
ARC
  5
6816
  8
0
 10
340.851056208802504
 20
3.7115587331388431
 30
0.0
 40
0.068948288025959
 50
16.6196167475340317
 51
52.2150633657159986
  0
ARC
  5
6817
  8
0
 10
340.8532883213620153
 20
3.714473441713749
 30
0.0
 40
0.0660109380401369
 50
302.232260890870009
 51
14.7492129655178399
  0
ARC
  5
6818
  8
0
 10
340.8373244310049017
 20
3.7089253351355178
 30
0.0
 40
0.0722833920194031
 50
243.2133993410990911
 51
303.0303010325142168
  0
ARC
  5
6819
  8
0
 10
340.8294917628145981
 20
3.6928704291404841
 30
0.0
 40
0.0544219228686947
 50
205.4353338694247952
 51
242.9572603091503993
  0
ARC
  5
681A
  8
0
 10
340.8454982671386801
 20
3.6958448531245121
 30
0.0
 40
0.0568622063128283
 50
303.3095565744737883
 51
343.4080335529026797
  0
LINE
  5
681B
  8
0
 10
340.7803449242716169
 20
3.669496641472235
 30
0.0
 11
340.7550124101716165
 21
3.725050114172233
 31
0.0
  0
LINE
  5
681C
  8
0
 10
340.8999928802716113
 20
3.6796076228722252
 30
0.0
 11
340.915183171186527
 21
3.736888540029212
 31
0.0
  0
ARC
  5
681D
  8
0
 10
340.8507971588230134
 20
3.74181244290051
 30
0.0
 40
0.075352044853058
 50
312.5708928045200992
 51
335.1180213018645873
  0
ARC
  5
681E
  8
0
 10
340.8278216625698178
 20
3.749511345155383
 30
0.0
 40
0.0886757288296703
 50
215.1033356408701138
 51
235.0257014543431069
  0
ARC
  5
681F
  8
0
 10
340.8404867646444814
 20
3.6702461350772628
 30
0.0
 40
0.023461805976579
 50
55.425110492726489
 51
130.6373490217007998
  0
ARC
  5
6820
  8
0
 10
340.8341147518992216
 20
3.6776706895411162
 30
0.0
 40
0.0136778111169557
 50
130.6373490216984976
 51
246.1494519578101858
  0
ARC
  5
6821
  8
0
 10
340.839053086799197
 20
3.6888406936871831
 30
0.0
 40
0.0258907609739088
 50
246.1494519578099016
 51
300.0535061805044279
  0
ARC
  5
6822
  8
0
 10
340.845843304989728
 20
3.6785417145671171
 30
0.0
 40
0.0135948505811909
 50
297.0196914777993129
 51
54.1728595665134023
  0
ARC
  5
6823
  8
0
 10
340.8408347104464156
 20
3.9708989490975588
 30
0.0
 40
0.0939094896840666
 50
53.0300857763388791
 51
126.1012312763518963
  0
ARC
  5
6824
  8
0
 10
340.8265205291737061
 20
3.9905277052038168
 30
0.0
 40
0.0696157898467636
 50
126.101231276354099
 51
165.3918821492422921
  0
ARC
  5
6825
  8
0
 10
340.8201759764496046
 20
3.993508031105903
 30
0.0
 40
0.0627378146437836
 50
166.5644450944764969
 51
204.5460800597286948
  0
ARC
  5
6826
  8
0
 10
340.8350386124708962
 20
4.0020919045261962
 30
0.0
 40
0.0798399503175153
 50
205.7186430049684986
 51
242.6978498809600922
  0
ARC
  5
6827
  8
0
 10
340.8550668948940938
 20
3.991437124757041
 30
0.0
 40
0.068948288025959
 50
16.6196167475340317
 51
52.2150633657159986
  0
ARC
  5
6828
  8
0
 10
340.8572990074536051
 20
3.9943518333319612
 30
0.0
 40
0.0660109380401369
 50
302.232260890870009
 51
14.7492129655178399
  0
ARC
  5
6829
  8
0
 10
340.8413351170963779
 20
3.9888037267537149
 30
0.0
 40
0.0722833920194031
 50
243.2133993410990911
 51
303.0303010325142168
  0
ARC
  5
682A
  8
0
 10
340.8335024489060743
 20
3.9727488207586812
 30
0.0
 40
0.0544219228686947
 50
205.4353338694247952
 51
242.9572603091503993
  0
ARC
  5
682B
  8
0
 10
340.8495089532303268
 20
3.9757232447427091
 30
0.0
 40
0.0568622063128283
 50
303.3095565744737883
 51
343.4080335529026797
  0
LINE
  5
682C
  8
0
 10
340.7843556103632068
 20
3.9493750330904329
 30
0.0
 11
340.7590230962632063
 21
4.0049285057904314
 31
0.0
  0
LINE
  5
682D
  8
0
 10
340.9040035663632011
 20
3.9594860144904369
 30
0.0
 11
340.9191938572781169
 21
4.0167669316474104
 31
0.0
  0
ARC
  5
682E
  8
0
 10
340.8548078449146033
 20
4.021690834518707
 30
0.0
 40
0.075352044853058
 50
312.5708928045200992
 51
335.1180213018645873
  0
ARC
  5
682F
  8
0
 10
340.831832348661294
 20
4.02938973677358
 30
0.0
 40
0.0886757288296703
 50
215.1033356408701138
 51
235.0257014543431069
  0
ARC
  5
6830
  8
0
 10
340.844497450736128
 20
3.950124526695447
 30
0.0
 40
0.023461805976579
 50
55.425110492726489
 51
130.6373490217007998
  0
ARC
  5
6831
  8
0
 10
340.8381254379908114
 20
3.9575490811593141
 30
0.0
 40
0.0136778111169557
 50
130.6373490216984976
 51
246.1494519578101858
  0
ARC
  5
6832
  8
0
 10
340.8430637728907868
 20
3.968719085305394
 30
0.0
 40
0.0258907609739088
 50
246.1494519578099016
 51
300.0535061805044279
  0
ARC
  5
6833
  8
0
 10
340.8498539910812042
 20
3.958420106185315
 30
0.0
 40
0.0135948505811909
 50
297.0196914777993129
 51
54.1728595665134023
  0
ARC
  5
6834
  8
0
 10
340.8432597145599061
 20
4.2478454950886109
 30
0.0
 40
0.0939094896840666
 50
53.0300857763388791
 51
126.1012312763518963
  0
ARC
  5
6835
  8
0
 10
340.8289455332873104
 20
4.2674742511948693
 30
0.0
 40
0.0696157898467636
 50
126.101231276354099
 51
165.3918821492422921
  0
ARC
  5
6836
  8
0
 10
340.8226009805630952
 20
4.2704545770969551
 30
0.0
 40
0.0627378146437836
 50
166.5644450944764969
 51
204.5460800597286948
  0
ARC
  5
6837
  8
0
 10
340.8374636165843867
 20
4.2790384505172483
 30
0.0
 40
0.0798399503175153
 50
205.7186430049684986
 51
242.6978498809600922
  0
ARC
  5
6838
  8
0
 10
340.8574918990075844
 20
4.2683836707480927
 30
0.0
 40
0.068948288025959
 50
16.6196167475340317
 51
52.2150633657159986
  0
ARC
  5
6839
  8
0
 10
340.8597240115670957
 20
4.2712983793230128
 30
0.0
 40
0.0660109380401369
 50
302.232260890870009
 51
14.7492129655178399
  0
ARC
  5
683A
  8
0
 10
340.8437601212099821
 20
4.2657502727447669
 30
0.0
 40
0.0722833920194031
 50
243.2133993410990911
 51
303.0303010325142168
  0
ARC
  5
683B
  8
0
 10
340.8359274530196785
 20
4.2496953667497328
 30
0.0
 40
0.0544219228686947
 50
205.4353338694247952
 51
242.9572603091503993
  0
ARC
  5
683C
  8
0
 10
340.8519339573438742
 20
4.2526697907337621
 30
0.0
 40
0.0568622063128283
 50
303.3095565744737883
 51
343.4080335529026797
  0
LINE
  5
683D
  8
0
 10
340.7867806144766973
 20
4.2263215790814854
 30
0.0
 11
340.7614481003766969
 21
4.2818750517814834
 31
0.0
  0
LINE
  5
683E
  8
0
 10
340.9064285704766917
 20
4.2364325604814894
 30
0.0
 11
340.9216188613917211
 21
4.2937134776384616
 31
0.0
  0
ARC
  5
683F
  8
0
 10
340.8572328490282075
 20
4.2986373805097591
 30
0.0
 40
0.075352044853058
 50
312.5708928045200992
 51
335.1180213018645873
  0
ARC
  5
6840
  8
0
 10
340.8342573527748982
 20
4.3063362827646321
 30
0.0
 40
0.0886757288296703
 50
215.1033356408701138
 51
235.0257014543431069
  0
ARC
  5
6841
  8
0
 10
340.8469224548496186
 20
4.2270710726864991
 30
0.0
 40
0.023461805976579
 50
55.425110492726489
 51
130.6373490217007998
  0
ARC
  5
6842
  8
0
 10
340.8405504421044157
 20
4.2344956271503662
 30
0.0
 40
0.0136778111169557
 50
130.6373490216984976
 51
246.1494519578101858
  0
ARC
  5
6843
  8
0
 10
340.8454887770043911
 20
4.245665631296446
 30
0.0
 40
0.0258907609739088
 50
246.1494519578099016
 51
300.0535061805044279
  0
ARC
  5
6844
  8
0
 10
340.8522789951948084
 20
4.2353666521763671
 30
0.0
 40
0.0135948505811909
 50
297.0196914777993129
 51
54.1728595665134023
  0
ARC
  5
6845
  8
0
 10
340.844256096327797
 20
4.5103080704778469
 30
0.0
 40
0.0967311344766071
 50
53.580913078306871
 51
122.7461390777446013
  0
ARC
  5
6846
  8
0
 10
340.8262333606112975
 20
4.5350096406830707
 30
0.0
 40
0.0662308132494765
 50
121.1914100263871035
 51
169.7018989774628039
  0
ARC
  5
6847
  8
0
 10
340.8180374255828156
 20
4.5382909358667973
 30
0.0
 40
0.0576073022593587
 50
171.4558903971004895
 51
206.6385646226744086
  0
ARC
  5
6848
  8
0
 10
340.8353628311256216
 20
4.549785310079514
 30
0.0
 40
0.0782874160564846
 50
208.473108926029397
 51
247.2082519824224107
  0
ARC
  5
6849
  8
0
 10
340.8618680810849924
 20
4.5354710860804337
 30
0.0
 40
0.0660309994481644
 50
21.4165832268863809
 51
52.9156592849915626
  0
ARC
  5
684A
  8
0
 10
340.8651565166140927
 20
4.539788034357997
 30
0.0
 40
0.0614579572845386
 50
298.5150952504350812
 51
18.7884110556369812
  0
ARC
  5
684B
  8
0
 10
340.8450458871266164
 20
4.5332517032641837
 30
0.0
 40
0.0687959108962553
 50
243.4999330513275879
 51
303.7383284347598078
  0
ARC
  5
684C
  8
0
 10
340.8413872333259178
 20
4.5244541813727031
 30
0.0
 40
0.059293799639237
 50
210.4276327478706889
 51
242.8706724230376892
  0
ARC
  5
684D
  8
0
 10
340.8504927661186912
 20
4.5251959492736091
 30
0.0
 40
0.0590717094321289
 50
303.6846345733359271
 51
341.2625767647164139
  0
LINE
  5
684E
  8
0
 10
340.7902599973076008
 20
4.4944248554930928
 30
0.0
 11
340.7610694619493188
 21
4.5468496970537871
 31
0.0
  0
LINE
  5
684F
  8
0
 10
340.9064337142074805
 20
4.5062202494930972
 30
0.0
 11
340.9233396512386207
 21
4.5595820576692736
 31
0.0
  0
ARC
  5
6850
  8
0
 10
340.8582838196286957
 20
4.5660601294949847
 30
0.0
 40
0.0762694309758015
 50
309.4338420539979779
 51
332.5552630831434158
  0
ARC
  5
6851
  8
0
 10
340.8301693419840035
 20
4.5704681946909878
 30
0.0
 40
0.0842840031104914
 50
218.3215827531354023
 51
240.6119610060488014
  0
ARC
  5
6852
  8
0
 10
340.8479619595918848
 20
4.5030082797581201
 30
0.0
 40
0.023461805976579
 50
55.425110492726489
 51
130.6373490217007998
  0
ARC
  5
6853
  8
0
 10
340.841589946846625
 20
4.5104328342219873
 30
0.0
 40
0.0136778111169557
 50
130.6373490216984976
 51
246.1494519578101858
  0
ARC
  5
6854
  8
0
 10
340.8465282817467141
 20
4.5216028383680671
 30
0.0
 40
0.0258907609739088
 50
246.1494519578099016
 51
300.0535061805044279
  0
ARC
  5
6855
  8
0
 10
340.8533184999370746
 20
4.5113038592479882
 30
0.0
 40
0.0135948505811909
 50
297.0196914777993129
 51
54.1728595665134023
  0
ARC
  5
6856
  8
0
 10
340.8448527086649165
 20
4.7845292204663963
 30
0.0
 40
0.0967311344766071
 50
53.580913078306871
 51
122.7461390777446013
  0
ARC
  5
6857
  8
0
 10
340.8268299729483033
 20
4.8092307906716201
 30
0.0
 40
0.0662308132494765
 50
121.1914100263871035
 51
169.7018989774628039
  0
ARC
  5
6858
  8
0
 10
340.8186340379198214
 20
4.812512085855345
 30
0.0
 40
0.0576073022593587
 50
171.4558903971004895
 51
206.6385646226744086
  0
ARC
  5
6859
  8
0
 10
340.8359594434626842
 20
4.8240064600680617
 30
0.0
 40
0.0782874160564846
 50
208.473108926029397
 51
247.2082519824224107
  0
ARC
  5
685A
  8
0
 10
340.8624646934219982
 20
4.809692236068968
 30
0.0
 40
0.0660309994481644
 50
21.4165832268863809
 51
52.9156592849915626
  0
ARC
  5
685B
  8
0
 10
340.8657531289510985
 20
4.8140091843465314
 30
0.0
 40
0.0614579572845386
 50
298.5150952504350812
 51
18.7884110556369812
  0
ARC
  5
685C
  8
0
 10
340.8456424994636222
 20
4.8074728532527331
 30
0.0
 40
0.0687959108962553
 50
243.4999330513275879
 51
303.7383284347598078
  0
ARC
  5
685D
  8
0
 10
340.8419838456629236
 20
4.7986753313612382
 30
0.0
 40
0.059293799639237
 50
210.4276327478706889
 51
242.8706724230376892
  0
ARC
  5
685E
  8
0
 10
340.8510893784558107
 20
4.7994170992621434
 30
0.0
 40
0.0590717094321289
 50
303.6846345733359271
 51
341.2625767647164139
  0
LINE
  5
685F
  8
0
 10
340.7908566096446066
 20
4.7686460054816422
 30
0.0
 11
340.7616660742863246
 21
4.8210708470423347
 31
0.0
  0
LINE
  5
6860
  8
0
 10
340.9070303265444863
 20
4.7804413994816448
 30
0.0
 11
340.9239362635756834
 21
4.8338032076578079
 31
0.0
  0
ARC
  5
6861
  8
0
 10
340.8588804319657015
 20
4.8402812794835341
 30
0.0
 40
0.0762694309758015
 50
309.4338420539979779
 51
332.5552630831434158
  0
ARC
  5
6862
  8
0
 10
340.8307659543210093
 20
4.8446893446795372
 30
0.0
 40
0.0842840031104914
 50
218.3215827531354023
 51
240.6119610060488014
  0
ARC
  5
6863
  8
0
 10
340.8485585719290043
 20
4.7772294297466678
 30
0.0
 40
0.023461805976579
 50
55.425110492726489
 51
130.6373490217007998
  0
ARC
  5
6864
  8
0
 10
340.8421865591836877
 20
4.7846539842105349
 30
0.0
 40
0.0136778111169557
 50
130.6373490216984976
 51
246.1494519578101858
  0
ARC
  5
6865
  8
0
 10
340.8471248940837199
 20
4.7958239883566023
 30
0.0
 40
0.0258907609739088
 50
246.1494519578099016
 51
300.0535061805044279
  0
ARC
  5
6866
  8
0
 10
340.8539151122741941
 20
4.7855250092365216
 30
0.0
 40
0.0135948505811909
 50
297.0196914777993129
 51
54.1728595665134023
  0
ARC
  5
6867
  8
0
 10
340.8439908084458807
 20
5.0569663891744616
 30
0.0
 40
0.0967311344766071
 50
53.580913078306871
 51
122.7461390777446013
  0
ARC
  5
6868
  8
0
 10
340.8259680727293244
 20
5.0816679593796863
 30
0.0
 40
0.0662308132494765
 50
121.1914100263871035
 51
169.7018989774628039
  0
ARC
  5
6869
  8
0
 10
340.8177721377007856
 20
5.0849492545634121
 30
0.0
 40
0.0576073022593587
 50
171.4558903971004895
 51
206.6385646226744086
  0
ARC
  5
686A
  8
0
 10
340.8350975432437053
 20
5.0964436287761279
 30
0.0
 40
0.0782874160564846
 50
208.473108926029397
 51
247.2082519824224107
  0
ARC
  5
686B
  8
0
 10
340.8616027932029056
 20
5.0821294047770493
 30
0.0
 40
0.0660309994481644
 50
21.4165832268863809
 51
52.9156592849915626
  0
ARC
  5
686C
  8
0
 10
340.8648912287321195
 20
5.0864463530546109
 30
0.0
 40
0.0614579572845386
 50
298.5150952504350812
 51
18.7884110556369812
  0
ARC
  5
686D
  8
0
 10
340.8447805992445865
 20
5.0799100219607993
 30
0.0
 40
0.0687959108962553
 50
243.4999330513275879
 51
303.7383284347598078
  0
ARC
  5
686E
  8
0
 10
340.8411219454438879
 20
5.0711125000693178
 30
0.0
 40
0.059293799639237
 50
210.4276327478706889
 51
242.8706724230376892
  0
ARC
  5
686F
  8
0
 10
340.8502274782367181
 20
5.071854267970223
 30
0.0
 40
0.0590717094321289
 50
303.6846345733359271
 51
341.2625767647164139
  0
LINE
  5
6870
  8
0
 10
340.789994709425514
 20
5.0410831741897084
 30
0.0
 11
340.7608041740672888
 21
5.0935080157504009
 31
0.0
  0
LINE
  5
6871
  8
0
 10
340.9061684263255074
 20
5.052878568189711
 30
0.0
 11
340.9230743633567045
 21
5.1062403763658892
 31
0.0
  0
ARC
  5
6872
  8
0
 10
340.8580185317467226
 20
5.1127184481916004
 30
0.0
 40
0.0762694309758015
 50
309.4338420539979779
 51
332.5552630831434158
  0
ARC
  5
6873
  8
0
 10
340.8299040541019167
 20
5.1171265133876034
 30
0.0
 40
0.0842840031104914
 50
218.3215827531354023
 51
240.6119610060488014
  0
ARC
  5
6874
  8
0
 10
340.8476966717099117
 20
5.049666598454734
 30
0.0
 40
0.023461805976579
 50
55.425110492726489
 51
130.6373490217007998
  0
ARC
  5
6875
  8
0
 10
340.8413246589645951
 20
5.057091152918602
 30
0.0
 40
0.0136778111169557
 50
130.6373490216984976
 51
246.1494519578101858
  0
ARC
  5
6876
  8
0
 10
340.8462629938646842
 20
5.0682611570646818
 30
0.0
 40
0.0258907609739088
 50
246.1494519578099016
 51
300.0535061805044279
  0
ARC
  5
6877
  8
0
 10
340.8530532120551015
 20
5.057962177944602
 30
0.0
 40
0.0135948505811909
 50
297.0196914777993129
 51
54.1728595665134023
  0
ARC
  5
6878
  8
0
 10
340.8427188140829003
 20
5.3288563979813679
 30
0.0
 40
0.0967311344766071
 50
53.580913078306871
 51
122.7461390777446013
  0
ARC
  5
6879
  8
0
 10
340.8246960783662871
 20
5.3535579681865917
 30
0.0
 40
0.0662308132494765
 50
121.1914100263871035
 51
169.7018989774628039
  0
ARC
  5
687A
  8
0
 10
340.8165001433379189
 20
5.3568392633703183
 30
0.0
 40
0.0576073022593587
 50
171.4558903971004895
 51
206.6385646226744086
  0
ARC
  5
687B
  8
0
 10
340.8338255488807249
 20
5.3683336375830351
 30
0.0
 40
0.0782874160564846
 50
208.473108926029397
 51
247.2082519824224107
  0
ARC
  5
687C
  8
0
 10
340.860330798839982
 20
5.3540194135839414
 30
0.0
 40
0.0660309994481644
 50
21.4165832268863809
 51
52.9156592849915626
  0
ARC
  5
687D
  8
0
 10
340.863619234369196
 20
5.358336361861503
 30
0.0
 40
0.0614579572845386
 50
298.5150952504350812
 51
18.7884110556369812
  0
ARC
  5
687E
  8
0
 10
340.8435086048817197
 20
5.3518000307677047
 30
0.0
 40
0.0687959108962553
 50
243.4999330513275879
 51
303.7383284347598078
  0
ARC
  5
687F
  8
0
 10
340.8398499510809074
 20
5.3430025088762241
 30
0.0
 40
0.059293799639237
 50
210.4276327478706889
 51
242.8706724230376892
  0
ARC
  5
6880
  8
0
 10
340.8489554838736808
 20
5.3437442767771151
 30
0.0
 40
0.0590717094321289
 50
303.6846345733359271
 51
341.2625767647164139
  0
LINE
  5
6881
  8
0
 10
340.7887227150625904
 20
5.3129731829966138
 30
0.0
 11
340.7595321797044221
 21
5.365398024557293
 31
0.0
  0
LINE
  5
6882
  8
0
 10
340.9048964319625838
 20
5.3247685769966031
 30
0.0
 11
340.921802368993724
 21
5.3781303851727813
 31
0.0
  0
ARC
  5
6883
  8
0
 10
340.8567465373836853
 20
5.3846084569985058
 30
0.0
 40
0.0762694309758015
 50
309.4338420539979779
 51
332.5552630831434158
  0
ARC
  5
6884
  8
0
 10
340.8286320597389931
 20
5.3890165221945088
 30
0.0
 40
0.0842840031104914
 50
218.3215827531354023
 51
240.6119610060488014
  0
ARC
  5
6885
  8
0
 10
340.8464246773469881
 20
5.3215566072616411
 30
0.0
 40
0.023461805976579
 50
55.425110492726489
 51
130.6373490217007998
  0
ARC
  5
6886
  8
0
 10
340.8400526646017283
 20
5.3289811617254941
 30
0.0
 40
0.0136778111169557
 50
130.6373490216984976
 51
246.1494519578101858
  0
ARC
  5
6887
  8
0
 10
340.8449909995018174
 20
5.3401511658715739
 30
0.0
 40
0.0258907609739088
 50
246.1494519578099016
 51
300.0535061805044279
  0
ARC
  5
6888
  8
0
 10
340.8517812176921211
 20
5.3298521867514941
 30
0.0
 40
0.0135948505811909
 50
297.0196914777993129
 51
54.1728595665134023
  0
ARC
  5
6889
  8
0
 10
341.268857774399919
 20
5.5333835804933207
 30
0.0
 40
0.1940555987378331
 50
2.5317005806853561
 51
39.1325355956214267
  0
ARC
  5
688A
  8
0
 10
341.2079391782734774
 20
5.4740448191504214
 30
0.0
 40
0.27886217977884
 50
40.6904738926574865
 51
67.6530287456399435
  0
LINE
  5
688B
  8
0
 10
341.4627239622512889
 20
5.5419554303205976
 30
0.0
 11
341.4663077632117734
 21
5.4769876566812172
 31
0.0
  0
ARC
  5
688C
  8
0
 10
340.4748015274574868
 20
-6.6473624539556084
 30
0.0
 40
12.8541128441002801
 50
88.4103520036416057
 51
91.5896479963584085
  0
ARC
  5
688D
  8
0
 10
340.4748015274574868
 20
61.2073338889770966
 30
0.0
 40
55.4561556210716518
 50
269.5883682603422926
 51
270.4116317396560021
  0
ARC
  5
688E
  8
0
 10
340.1886503226064065
 20
10.3141319242800407
 30
0.0
 40
7.2769762283071016
 50
267.3060177566633229
 51
268.78374372944171
  0
ARC
  5
688F
  8
0
 10
340.760952732308624
 20
10.3141319242800407
 30
0.0
 40
7.2769762283071016
 50
271.2162562705584037
 51
272.6939822433366771
  0
ARC
  5
6890
  8
0
 10
340.4748015274574868
 20
31.9312993886944412
 30
0.0
 40
28.8958636946216885
 50
269.1263027024905909
 51
270.8736972975094091
  0
LINE
  5
6891
  8
0
 10
334.0581882581075206
 20
-22.6457460094069098
 30
0.0
 11
334.0581882581075206
 21
-22.7733601384069004
 31
0.0
  0
LINE
  5
6892
  8
0
 10
334.3195870021074825
 20
-22.7733601339727194
 30
0.0
 11
334.3195870021074825
 21
-22.6457460138410909
 31
0.0
  0
ARC
  5
6893
  8
0
 10
334.5810185985361045
 20
-22.7095666178304612
 30
0.0
 40
0.5267111494285075
 50
148.4513499790392075
 51
173.0404761632642874
  0
ARC
  5
6894
  8
0
 10
334.1888876298369269
 20
-22.514766795958181
 30
0.0
 40
0.0742865888788814
 50
48.4114228078779973
 51
131.5885771921219884
  0
ARC
  5
6895
  8
0
 10
334.2313443365732155
 20
-22.5734301439880696
 30
0.0
 40
0.1465207423024604
 50
128.7779202553925018
 51
149.2812967032039921
  0
ARC
  5
6896
  8
0
 10
334.385090850807785
 20
-22.6647860387132098
 30
0.0
 40
0.3253611464071048
 50
149.281296703204589
 51
161.9210847838699863
  0
ARC
  5
6897
  8
0
 10
334.5074918917965192
 20
-22.6994357534710609
 30
0.0
 40
0.4525001037168986
 50
162.5599291172815981
 51
171.1240894144893048
  0
ARC
  5
6898
  8
0
 10
334.5810185985361045
 20
-22.7095395299833385
 30
0.0
 40
0.5267111494285075
 50
186.9595238367355989
 51
211.5486500209607073
  0
ARC
  5
6899
  8
0
 10
334.1888876298369269
 20
-22.9043393518556186
 30
0.0
 40
0.0742865888788814
 50
228.4114228078780116
 51
311.5885771921219884
  0
ARC
  5
689A
  8
0
 10
334.2313443365732155
 20
-22.8456760038257407
 30
0.0
 40
0.1465207423024604
 50
210.7187032967952973
 51
231.2220797446069867
  0
ARC
  5
689B
  8
0
 10
334.385090850807785
 20
-22.7543201091006004
 30
0.0
 40
0.3253611464071048
 50
198.0789152161299
 51
210.7187032967952973
  0
ARC
  5
689C
  8
0
 10
334.5074918917965192
 20
-22.7196703943427387
 30
0.0
 40
0.4525001037168986
 50
188.8759105855106952
 51
197.4400708827184019
  0
ARC
  5
689D
  8
0
 10
333.7967566611375787
 20
-22.7095666178304612
 30
0.0
 40
0.5267111494285075
 50
6.9595233508036669
 51
31.5486500209607499
  0
ARC
  5
689E
  8
0
 10
334.1464309231005245
 20
-22.5734301439880696
 30
0.0
 40
0.1465207423024604
 50
30.7187032967960292
 51
51.2220797446074911
  0
ARC
  5
689F
  8
0
 10
333.9926844088660118
 20
-22.6647860387132098
 30
0.0
 40
0.3253611464071048
 50
18.0789152161299391
 51
30.7187032967953293
  0
ARC
  5
68A0
  8
0
 10
333.8702833678772777
 20
-22.6994357534710609
 30
0.0
 40
0.4525001037168986
 50
8.8759105855106952
 51
17.4400708827184197
  0
ARC
  5
68A1
  8
0
 10
333.7967566611375787
 20
-22.7095395299833385
 30
0.0
 40
0.5267111494285075
 50
328.4513499790393212
 51
353.0404766491963073
  0
ARC
  5
68A2
  8
0
 10
334.1464309231005245
 20
-22.8456760038257407
 30
0.0
 40
0.1465207423024604
 50
308.7779202553924733
 51
329.2812967032040206
  0
ARC
  5
68A3
  8
0
 10
333.9926844088660118
 20
-22.7543201091006004
 30
0.0
 40
0.3253611464071048
 50
329.281296703204589
 51
341.9210847838701284
  0
ARC
  5
68A4
  8
0
 10
333.8702833678772777
 20
-22.7196703943427387
 30
0.0
 40
0.4525001037168986
 50
342.5599291172816265
 51
351.1240894144892764
  0
LINE
  5
68A5
  8
0
 10
334.8801983444075177
 20
-23.6583719715068987
 30
0.0
 11
334.8801983444075177
 21
-23.0048286645776194
 31
0.0
  0
ARC
  5
68A6
  8
0
 10
334.8880723602782155
 20
-23.0048286645776194
 30
0.0
 40
0.0078740158707102
 50
90.0000005145264339
 51
179.9999987578138985
  0
LINE
  5
68A7
  8
0
 10
334.9235054311075146
 20
-22.996954648706911
 30
0.0
 11
334.9235054311075146
 21
-22.985143625106911
 31
0.0
  0
LINE
  5
68A8
  8
0
 10
335.1037832339075067
 20
-22.6457460094069098
 30
0.0
 11
335.1037832339075067
 21
-22.7733601384069004
 31
0.0
  0
LINE
  5
68A9
  8
0
 10
334.8423844899074879
 20
-22.7733601339727194
 30
0.0
 11
334.8423844899074879
 21
-22.6457460138410909
 31
0.0
  0
ARC
  5
68AA
  8
0
 10
334.5809528934789228
 20
-22.7095666178304612
 30
0.0
 40
0.5267111494285075
 50
6.959523836735662
 51
31.5486500209607499
  0
ARC
  5
68AB
  8
0
 10
334.9730838621781004
 20
-22.514766795958181
 30
0.0
 40
0.0742865888788814
 50
48.4114228078779973
 51
131.5885771921219884
  0
ARC
  5
68AC
  8
0
 10
334.9306271554418117
 20
-22.5734301439880696
 30
0.0
 40
0.1465207423024604
 50
30.7187032967960292
 51
51.2220797446074911
  0
ARC
  5
68AD
  8
0
 10
334.7768806412071854
 20
-22.6647860387132098
 30
0.0
 40
0.3253611464071048
 50
18.0789152161299391
 51
30.7187032967953293
  0
ARC
  5
68AE
  8
0
 10
334.654479600218508
 20
-22.6994357534710609
 30
0.0
 40
0.4525001037168986
 50
8.8759105855106952
 51
17.4400708827184197
  0
ARC
  5
68AF
  8
0
 10
334.5809528934789228
 20
-22.7095395299833385
 30
0.0
 40
0.5267111494285075
 50
328.4513499790393212
 51
353.0404761632643726
  0
ARC
  5
68B0
  8
0
 10
334.9730838621781004
 20
-22.9043393518556186
 30
0.0
 40
0.0742865888788814
 50
228.4114228078780116
 51
311.5885771921219884
  0
ARC
  5
68B1
  8
0
 10
334.9306271554418117
 20
-22.8456760038257407
 30
0.0
 40
0.1465207423024604
 50
308.7779202553924733
 51
329.2812967032040206
  0
ARC
  5
68B2
  8
0
 10
334.7768806412071854
 20
-22.7543201091006004
 30
0.0
 40
0.3253611464071048
 50
329.281296703204589
 51
341.9210847838701284
  0
ARC
  5
68B3
  8
0
 10
334.654479600218508
 20
-22.7196703943427387
 30
0.0
 40
0.4525001037168986
 50
342.5599291172816265
 51
351.1240894144892764
  0
ARC
  5
68B4
  8
0
 10
335.3652148308773917
 20
-22.7095666178304612
 30
0.0
 40
0.5267111494285075
 50
148.4513499790392075
 51
173.0404766491963073
  0
ARC
  5
68B5
  8
0
 10
335.0155405689145027
 20
-22.5734301439880696
 30
0.0
 40
0.1465207423024604
 50
128.7779202553925018
 51
149.2812967032039921
  0
ARC
  5
68B6
  8
0
 10
335.1692870831490154
 20
-22.6647860387132098
 30
0.0
 40
0.3253611464071048
 50
149.281296703204589
 51
161.9210847838699863
  0
ARC
  5
68B7
  8
0
 10
335.2916881241378064
 20
-22.6994357534710609
 30
0.0
 40
0.4525001037168986
 50
162.5599291172815981
 51
171.1240894144893048
  0
ARC
  5
68B8
  8
0
 10
335.3652148308773917
 20
-22.7095395299833385
 30
0.0
 40
0.5267111494285075
 50
186.9595233508036074
 51
211.5486500209607073
  0
ARC
  5
68B9
  8
0
 10
335.0155405689145027
 20
-22.8456760038257407
 30
0.0
 40
0.1465207423024604
 50
210.7187032967952973
 51
231.2220797446069867
  0
ARC
  5
68BA
  8
0
 10
335.1692870831490154
 20
-22.7543201091006004
 30
0.0
 40
0.3253611464071048
 50
198.0789152161299
 51
210.7187032967952973
  0
ARC
  5
68BB
  8
0
 10
335.2916881241378064
 20
-22.7196703943427387
 30
0.0
 40
0.4525001037168986
 50
188.8759105855106952
 51
197.4400708827184019
  0
ARC
  5
68BC
  8
0
 10
334.5809857460075136
 20
-22.7095530725484984
 30
0.0
 40
0.2690736777415967
 50
13.7175668560510005
 51
166.2824331439489924
  0
ARC
  5
68BD
  8
0
 10
334.5809857460075136
 20
-22.7095530752653083
 30
0.0
 40
0.2690736777415967
 50
193.7175668560510076
 51
346.2824331439489924
  0
ARC
  5
68BE
  8
0
 10
340.0470723961049089
 20
-3.4772696116229151
 30
0.0
 40
0.0078740215510319
 50
90.054291882221591
 51
181.9999817598468042
  0
ARC
  5
68BF
  8
0
 10
340.9025306646810236
 20
-3.4772696093693152
 30
0.0
 40
0.0078740157624158
 50
358.0000003607764256
 51
89.9999998072247962
  0
ARC
  5
68C0
  8
0
 10
340.4748015274574868
 20
-33.0516795128665208
 30
0.0
 40
38.8980197472025822
 50
88.9937609075110885
 51
91.0062390924888831
  0
ARC
  5
68C1
  8
0
 10
341.1112751599036983
 20
10.7040746562517501
 30
0.0
 40
4.8639564117632501
 50
270.5492409612164124
 51
272.4790099378623722
  0
ARC
  5
68C2
  8
0
 10
341.2754049271829899
 20
6.6862942954887643
 30
0.0
 40
0.8428940326506451
 50
273.1456188616268719
 51
281.976796170504997
  0
ARC
  5
68C3
  8
0
 10
341.3963274055561214
 20
6.0826529270248813
 30
0.0
 40
0.2274065904998969
 50
283.7343838799126843
 51
302.6729870486316258
  0
ARC
  5
68C4
  8
0
 10
341.4677547168694787
 20
5.9636831451633583
 30
0.0
 40
0.0887970801016547
 50
305.3194454713618029
 51
355.6223257891638241
  0
ARC
  5
68C5
  8
0
 10
341.141908666800191
 20
5.9849318376779763
 30
0.0
 40
0.4153307713801573
 50
356.1307268804025057
 51
2.4985590313492358
  0
ARC
  5
68C6
  8
0
 10
339.838327895011389
 20
10.7040746562517501
 30
0.0
 40
4.8639564117632501
 50
267.5209900621375141
 51
269.4507590387818823
  0
ARC
  5
68C7
  8
0
 10
339.6741981277320974
 20
6.6862942954887643
 30
0.0
 40
0.8428940326506451
 50
258.0232038294951167
 51
266.8543811383731281
  0
ARC
  5
68C8
  8
0
 10
339.5532756493587954
 20
6.0826529270248813
 30
0.0
 40
0.2274065904998969
 50
237.3270129513684026
 51
256.2656161200873157
  0
ARC
  5
68C9
  8
0
 10
339.481848338045495
 20
5.9636831451633583
 30
0.0
 40
0.0887970801016547
 50
184.3776742108360907
 51
234.6805545286381971
  0
ARC
  5
68CA
  8
0
 10
339.8076943881147827
 20
5.9849318376779763
 30
0.0
 40
0.4153307713801573
 50
177.5014409686507122
 51
183.8692731195966985
  0
ENDSEC
  0
EOF
