  0
SECTION
  2
HEADER
  9
$ACADVER
  1
AC1009
  9
$INSBASE
 10
367.8062289476857245
 20
67.5085608038142766
 30
0.0
  9
$EXTMIN
 10
360.2269702633196857
 20
29.7877931116518901
 30
-0.0015258207003583
  9
$EXTMAX
 10
375.3765148318997262
 20
91.0641092139560442
 30
0.0000000349246037
  9
$LIMMIN
 10
0.0
 20
0.0
  9
$LIMMAX
 10
11.6929133858000007
 20
8.2677165353999982
  9
$ORTHOMODE
 70
     0
  9
$REGENMODE
 70
     1
  9
$FILLMODE
 70
     1
  9
$QTEXTMODE
 70
     0
  9
$MIRRTEXT
 70
     0
  9
$DRAGMODE
 70
     2
  9
$LTSCALE
 40
0.6431102362
  9
$OSMODE
 70
  4095
  9
$ATTMODE
 70
     1
  9
$TEXTSIZE
 40
0.2
  9
$TRACEWID
 40
0.05
  9
$TEXTSTYLE
  7
STANDARD
  9
$CLAYER
  8
0
  9
$CELTYPE
  6
BYLAYER
  9
$CECOLOR
 62
   256
  9
$DIMSCALE
 40
1.0
  9
$DIMASZ
 40
0.1875
  9
$DIMEXO
 40
0.0625
  9
$DIMDLI
 40
0.4443307087
  9
$DIMRND
 40
0.0
  9
$DIMDLE
 40
0.0
  9
$DIMEXE
 40
0.125
  9
$DIMTP
 40
0.01
  9
$DIMTM
 40
0.01
  9
$DIMTXT
 40
1.0
  9
$DIMCEN
 40
0.1052362205
  9
$DIMTSZ
 40
0.0
  9
$DIMTOL
 70
     1
  9
$DIMLIM
 70
     0
  9
$DIMTIH
 70
     0
  9
$DIMTOH
 70
     1
  9
$DIMSE1
 70
     0
  9
$DIMSE2
 70
     0
  9
$DIMTAD
 70
     0
  9
$DIMZIN
 70
     0
  9
$DIMBLK
  1

  9
$DIMASO
 70
     1
  9
$DIMSHO
 70
     1
  9
$DIMPOST
  1
\X
  9
$DIMAPOST
  1

  9
$DIMALT
 70
     1
  9
$DIMALTD
 70
     2
  9
$DIMALTF
 40
25.3999999999999986
  9
$DIMLFAC
 40
1.0
  9
$DIMTOFL
 70
     0
  9
$DIMTVP
 40
0.0
  9
$DIMTIX
 70
     0
  9
$DIMSOXD
 70
     0
  9
$DIMSAH
 70
     0
  9
$DIMBLK1
  1

  9
$DIMBLK2
  1

  9
$DIMSTYLE
  2
STANDARD
  9
$DIMCLRD
 70
     0
  9
$DIMCLRE
 70
     0
  9
$DIMCLRT
 70
     0
  9
$DIMTFAC
 40
1.0
  9
$DIMGAP
 40
0.09
  9
$LUNITS
 70
     2
  9
$LUPREC
 70
     4
  9
$SKETCHINC
 40
0.1
  9
$FILLETRAD
 40
0.0
  9
$AUNITS
 70
     0
  9
$AUPREC
 70
     0
  9
$MENU
  1
.
  9
$ELEVATION
 40
0.0
  9
$PELEVATION
 40
0.0
  9
$THICKNESS
 40
0.0
  9
$LIMCHECK
 70
     0
  9
$BLIPMODE
 70
     0
  9
$CHAMFERA
 40
0.0
  9
$CHAMFERB
 40
0.0
  9
$SKPOLY
 70
     0
  9
$TDCREATE
 40
2458172.5207638889551163
  9
$TDUPDATE
 40
2459081.7227314817719162
  9
$TDINDWG
 40
0.2743490509
  9
$TDUSRTIMER
 40
0.2743490509
  9
$USRTIMER
 70
     1
  9
$ANGBASE
 50
0.0
  9
$ANGDIR
 70
     0
  9
$PDMODE
 70
     0
  9
$PDSIZE
 40
0.3125
  9
$PLINEWID
 40
0.0
  9
$COORDS
 70
     1
  9
$SPLFRAME
 70
     0
  9
$SPLINETYPE
 70
     6
  9
$SPLINESEGS
 70
     8
  9
$ATTDIA
 70
     1
  9
$ATTREQ
 70
     1
  9
$HANDLING
 70
     1
  9
$HANDSEED
  5
F3DD
  9
$SURFTAB1
 70
     6
  9
$SURFTAB2
 70
     6
  9
$SURFTYPE
 70
     6
  9
$SURFU
 70
     6
  9
$SURFV
 70
     6
  9
$UCSNAME
  2

  9
$UCSORG
 10
0.0
 20
0.0
 30
0.0
  9
$UCSXDIR
 10
1.0
 20
0.0
 30
0.0
  9
$UCSYDIR
 10
0.0
 20
1.0
 30
0.0
  9
$PUCSNAME
  2

  9
$PUCSORG
 10
0.0
 20
0.0
 30
0.0
  9
$PUCSXDIR
 10
1.0
 20
0.0
 30
0.0
  9
$PUCSYDIR
 10
0.0
 20
1.0
 30
0.0
  9
$USERI1
 70
     0
  9
$USERI2
 70
     0
  9
$USERI3
 70
     0
  9
$USERI4
 70
     0
  9
$USERI5
 70
     0
  9
$USERR1
 40
0.0
  9
$USERR2
 40
0.0
  9
$USERR3
 40
0.0
  9
$USERR4
 40
0.0
  9
$USERR5
 40
0.0
  9
$WORLDVIEW
 70
     1
  9
$SHADEDGE
 70
     3
  9
$SHADEDIF
 70
    70
  9
$TILEMODE
 70
     1
  9
$MAXACTVP
 70
    64
  9
$PLIMCHECK
 70
     0
  9
$PEXTMIN
 10
1.0000000000000000E+20
 20
1.0000000000000000E+20
 30
1.0000000000000000E+20
  9
$PEXTMAX
 10
-1.0000000000000000E+20
 20
-1.0000000000000000E+20
 30
-1.0000000000000000E+20
  9
$PLIMMIN
 10
0.0
 20
0.0
  9
$PLIMMAX
 10
12.0
 20
9.0
  9
$UNITMODE
 70
     0
  9
$VISRETAIN
 70
     1
  9
$PLINEGEN
 70
     0
  9
$PSLTSCALE
 70
     1
  0
ENDSEC
  0
SECTION
  2
TABLES
  0
TABLE
  2
VPORT
 70
     1
  0
VPORT
  2
*ACTIVE
 70
     0
 10
0.0
 20
0.0
 11
1.0
 21
1.0
 12
-61.8275465604440271
 22
-9.2765903494147182
 13
0.0
 23
0.0
 14
1.0
 24
1.0
 15
0.0
 25
0.0
 16
0.0
 26
0.0
 36
14.6338572656650907
 17
429.6292891080536833
 27
69.7025415122186871
 37
0.0
 40
61.7862438368586808
 41
2.6486111111111108
 42
50.0
 43
0.0
 44
0.0
 50
0.0
 51
0.0
 71
     0
 72
   100
 73
     1
 74
     1
 75
     0
 76
     0
 77
     0
 78
     0
  0
ENDTAB
  0
TABLE
  2
LTYPE
 70
     2
  0
LTYPE
  2
CONTINUOUS
 70
     0
  3
Solid line
 72
    65
 73
     0
 40
0.0
  0
LTYPE
  2
PHANTOM2
 70
     0
  3
___ _ _ ___ _ _ ___ _ _ ___ _ _
 72
    65
 73
     6
 40
1.25
 49
0.625
 49
-0.125
 49
0.125
 49
-0.125
 49
0.125
 49
-0.125
  0
ENDTAB
  0
TABLE
  2
LAYER
 70
     2
  0
LAYER
  2
0
 70
     0
 62
   255
  6
CONTINUOUS
  0
LAYER
  2
DEFPOINTS
 70
     0
 62
     7
  6
CONTINUOUS
  0
ENDTAB
  0
TABLE
  2
STYLE
 70
     1
  0
STYLE
  2
STANDARD
 70
     0
 40
0.0
 41
0.8
 50
0.0
 71
     0
 42
0.2
  3
txt
  4

  0
ENDTAB
  0
TABLE
  2
VIEW
 70
     0
  0
ENDTAB
  0
TABLE
  2
UCS
 70
     0
  0
ENDTAB
  0
TABLE
  2
APPID
 70
    10
  0
APPID
  2
ACAD
 70
     0
  0
APPID
  2
ACAD_MLEADERVER
 70
     0
  0
APPID
  2
ACAD_EXEMPT_FROM_CAD_STANDARDS
 70
     0
  0
APPID
  2
ACAD_DSTYLE_DIMJAG
 70
     0
  0
APPID
  2
ACAD_DSTYLE_DIMTALN
 70
     0
  0
APPID
  2
ACAD_NAV_VCDISPLAY
 70
     0
  0
APPID
  2
ACAECLAYERSTANDARD
 70
     0
  0
APPID
  2
ACCMTRANSPARENCY
 70
     0
  0
APPID
  2
DCO15
 70
     0
  0
APPID
  2
ACDBATTR
 70
     0
  0
ENDTAB
  0
TABLE
  2
DIMSTYLE
 70
     1
  0
DIMSTYLE
  2
STANDARD
 70
     0
  3

  4

  5

  6

  7

 40
1.0
 41
0.1875
 42
0.0625
 43
0.38
 44
0.125
 45
0.0
 46
0.0
 47
0.01
 48
0.01
140
0.15625
141
0.09
142
0.0
143
25.3999999999999986
144
1.0
145
0.0
146
1.0
147
0.09
 71
     1
 72
     0
 73
     1
 74
     1
 75
     0
 76
     0
 77
     0
 78
     4
170
     0
171
     2
172
     0
173
     0
174
     0
175
     0
176
     0
177
     0
178
     0
  0
ENDTAB
  0
ENDSEC
  0
SECTION
  2
BLOCKS
  0
BLOCK
  8
0
  2
$MODEL_SPACE
 70
     0
 10
0.0
 20
0.0
 30
0.0
  3
$MODEL_SPACE
  1

  0
ENDBLK
  5
21
  8
0
  0
BLOCK
 67
     1
  8
0
  2
$PAPER_SPACE
 70
     0
 10
0.0
 20
0.0
 30
0.0
  3
$PAPER_SPACE
  1

  0
ENDBLK
  5
1D
 67
     1
  8
0
  0
BLOCK
  8
0
  2
_FILLED
 70
     0
 10
0.0
 20
0.0
 30
0.0
  3
_FILLED
  1

  0
SOLID
  5
87E2
  8
0
  6
BYBLOCK
 62
     0
 10
0.0
 20
0.0
 30
0.0
 11
-1.0
 21
0.1666666667
 31
0.0
 12
-1.0
 22
-0.1666666667
 32
0.0
 13
-1.0
 23
-0.1666666667
 33
0.0
  0
ENDBLK
  5
87E3
  8
0
  6
BYBLOCK
 62
     0
  0
ENDSEC
  0
SECTION
  2
ENTITIES
  0
ATTDEF
  5
C848
  8
DEFPOINTS
 10
367.806605249779011
 20
67.5124507452077438
 30
0.0
 40
0.001
  1
K-98337T-D
  3

  2
MODELNUMBER
 70
     0
1001
ACDBATTR
1070
     0
1070
     1
  0
ATTDEF
  5
C849
  8
DEFPOINTS
 10
367.806605249779011
 20
67.5107840785410787
 30
0.0
 40
0.001
  1
LOURE
  3

  2
TRADENAME
 70
     0
1001
ACDBATTR
1070
     0
1070
     1
  0
ATTDEF
  5
C84A
  8
DEFPOINTS
 10
367.806605249779011
 20
67.5091174118744135
 30
0.0
 40
0.001
  1
SHOWER COLUMN KIT
  3

  2
PRODUCT
 70
     0
1001
ACDBATTR
1070
     0
1070
     1
  0
LINE
  5
EDB9
  8
0
 10
366.920402176546304
 20
91.061710409950166
 30
0.0
 11
368.6920557198452002
 21
91.0617104100501535
 31
0.0
  0
ARC
  5
EDBA
  8
0
 10
368.6920557198462802
 20
91.0420253706501512
 30
0.0
 40
0.0196850394000023
 50
0.0
 51
90.0000000032373464
  0
LINE
  5
EDBB
  8
0
 10
368.711740759246311
 20
91.0420253706501512
 30
0.0
 11
368.711740759246311
 21
90.2939938745501536
 31
0.0
  0
ARC
  5
EDBC
  8
0
 10
368.6920557198462802
 20
90.2939938745501536
 30
0.0
 40
0.0196850393999988
 50
269.9999999999902229
 51
0.0
  0
LINE
  5
EDBD
  8
0
 10
368.711740759246311
 20
90.274308835150137
 30
0.0
 11
366.9007171371462164
 21
90.274308835150137
 31
0.0
  0
LINE
  5
EDBE
  8
0
 10
366.9007171371462164
 20
90.274308835150137
 30
0.0
 11
366.9007171371462164
 21
87.9975686777001727
 31
0.0
  0
ARC
  5
EDBF
  8
0
 10
366.9204021763754895
 20
91.0420253707208786
 30
0.0
 40
0.0196850392292802
 50
89.9999995031161433
 51
180.0000002058401947
  0
LINE
  5
EDC0
  8
0
 10
366.9007171371462164
 20
91.0420253706501512
 30
0.0
 11
366.9007171398336027
 21
90.2939938745501536
 31
0.0
  0
ARC
  5
EDC1
  8
0
 10
366.9204021793042898
 20
90.293993874620881
 30
0.0
 40
0.019685039470728
 50
180.0000002058353061
 51
269.9999919721944934
  0
LINE
  5
EDC2
  8
0
 10
368.711740759246311
 20
90.274308835150137
 30
0.0
 11
368.711740759246311
 21
87.9975686777001584
 31
0.0
  0
LINE
  5
EDC3
  8
0
 10
367.4715832789462979
 20
90.274308835150137
 30
0.0
 11
367.4715832789462979
 21
90.0774584414501618
 31
0.0
  0
LINE
  5
EDC4
  8
0
 10
367.4389376096461888
 20
90.0644978115501544
 30
0.0
 11
367.451898239546324
 21
90.0774584414501618
 31
0.0
  0
LINE
  5
EDC5
  8
0
 10
367.451898239546324
 20
90.0774584414501618
 30
0.0
 11
368.160559656846317
 21
90.0774584414501618
 31
0.0
  0
LINE
  5
EDC6
  8
0
 10
368.160559656846317
 20
90.0774584414501618
 30
0.0
 11
368.1735202867462249
 21
90.0644978115501544
 31
0.0
  0
LINE
  5
EDC7
  8
0
 10
368.2822910278462132
 20
90.0644978115501544
 30
0.0
 11
367.3301659560463008
 21
90.0644978115501544
 31
0.0
  0
ARC
  5
EDC8
  8
0
 10
367.3301659560463008
 20
90.0444978115501442
 30
0.0
 40
0.019999999999996
 50
90.0000000000097771
 51
180.0000000000098055
  0
LINE
  5
EDC9
  8
0
 10
367.310165956046319
 20
90.0444978115501442
 30
0.0
 11
367.3101659560463759
 21
89.5276461237501593
 31
0.0
  0
ARC
  5
EDCA
  8
0
 10
367.5385124127465133
 20
89.5276461237502019
 30
0.0
 40
0.2283464567001125
 50
180.0000000000104876
 51
248.0877877515679018
  0
ARC
  5
EDCB
  8
0
 10
367.4271738293841736
 20
89.250853187939228
 30
0.0
 40
0.0700000020688097
 50
309.3702652046744106
 51
68.0877877515715682
  0
ARC
  5
EDCC
  8
0
 10
367.8061880509446269
 20
88.7889451902765785
 30
0.0
 40
0.5275037874168546
 50
129.3702652046742969
 51
144.9182234370929905
  0
LINE
  5
EDCD
  8
0
 10
367.0877250111462899
 20
89.0920568666501538
 30
0.0
 11
368.5247328852462942
 21
89.0920568666501538
 31
0.0
  0
LINE
  5
EDCE
  8
0
 10
367.0877250111462899
 20
89.0920568666501538
 30
0.0
 11
367.0877250111462899
 21
87.9975686777001584
 31
0.0
  0
LINE
  5
EDCF
  8
0
 10
368.5247328852462942
 20
89.0920568666501538
 30
0.0
 11
368.5247328852462942
 21
87.9975686777001584
 31
0.0
  0
LINE
  5
EDD0
  8
0
 10
367.602367578346275
 20
89.0920568666501538
 30
0.0
 11
367.602367578346275
 21
88.6196159217501531
 31
0.0
  0
LINE
  5
EDD1
  8
0
 10
367.602367578346275
 20
88.6196159217501531
 30
0.0
 11
368.0100903180463092
 21
88.6196159217501531
 31
0.0
  0
LINE
  5
EDD2
  8
0
 10
368.0100903180463092
 20
88.6196159217501531
 30
0.0
 11
368.0100903180463092
 21
89.0920568666501538
 31
0.0
  0
LINE
  5
EDD3
  8
0
 10
368.1408746174461726
 20
90.274308835150137
 30
0.0
 11
368.1408746174461726
 21
90.0774584414501618
 31
0.0
  0
ARC
  5
EDD4
  8
0
 10
368.2822919403108131
 20
90.044497811535436
 30
0.0
 40
0.0200000000355297
 50
0.000000042156344
 51
90.0026140181560379
  0
LINE
  5
EDD5
  8
0
 10
368.302291940346322
 20
90.0444978115501442
 30
0.0
 11
368.3022919407266045
 21
89.5276461237501593
 31
0.0
  0
ARC
  5
EDD6
  8
0
 10
368.0739454844236889
 20
89.5276461235821444
 30
0.0
 40
0.2283464563029067
 50
291.9122121022793976
 51
0.000000042156344
  0
ARC
  5
EDD7
  8
0
 10
368.1852840661167079
 20
89.2508531898817665
 30
0.0
 40
0.0699999998849825
 50
111.9122121022761007
 51
230.629008970019612
  0
ARC
  5
EDD8
  8
0
 10
367.8062288627265843
 20
88.7889071810110408
 30
0.0
 40
0.5275591706820002
 50
35.0769105974791771
 51
50.6290089700196191
  0
ARC
  5
EDD9
  8
0
 10
367.8062289482066944
 20
89.4404820637399922
 30
0.0
 40
0.4960629919101586
 50
66.4435356791030642
 51
113.556464313855102
  0
LINE
  5
EDDA
  8
0
 10
368.0044818261462751
 20
89.8952064729501359
 30
0.0
 11
368.0044818261462751
 21
89.5276461237501593
 31
0.0
  0
ARC
  5
EDDB
  8
0
 10
367.8835257480773748
 20
89.5364475024855295
 30
0.0
 40
0.1212758718354032
 50
293.9482136251418751
 51
355.838202894306221
  0
ARC
  5
EDDC
  8
0
 10
367.7897884008334017
 20
89.7534686627924145
 30
0.0
 40
0.357671478451893
 50
272.6345572136336273
 51
293.5599916762459998
  0
LINE
  5
EDDD
  8
0
 10
367.6079760702463091
 20
89.8952064729501359
 30
0.0
 11
367.6079760702463091
 21
89.5276461237501593
 31
0.0
  0
ARC
  5
EDDE
  8
0
 10
367.7289321483152094
 20
89.5364475024855295
 30
0.0
 40
0.1212758718354032
 50
184.1617971056936938
 51
246.0517863748580965
  0
ARC
  5
EDDF
  8
0
 10
367.8157455863582186
 20
89.7237085224144835
 30
0.0
 40
0.3276715154422944
 50
245.4697393680729078
 51
268.3357115579261745
  0
LINE
  5
EDE0
  8
0
 10
366.9007171371462164
 20
87.6629230084001563
 30
0.0
 11
366.9007171371462164
 21
72.3412379690501552
 31
0.0
  0
LINE
  5
EDE1
  8
0
 10
366.7238983850463114
 20
72.3412379690501552
 30
0.0
 11
369.8849691056462916
 21
72.3412379690501552
 31
0.0
  0
ARC
  5
EDE2
  8
0
 10
369.8849226463523223
 20
72.3214478489110348
 30
0.0
 40
0.0197901746729631
 50
0.304227279885959
 51
89.8654926519391779
  0
ARC
  5
EDE3
  8
0
 10
369.8849276772032795
 20
71.2074796520052047
 30
0.0
 40
0.0197850334291893
 50
270.1199733463579946
 51
359.7634738504185066
  0
LINE
  5
EDE4
  8
0
 10
369.8849691056462916
 20
71.1876946619501609
 30
0.0
 11
368.9675217515463146
 21
71.1876946614593749
 31
0.0
  0
ARC
  5
EDE5
  8
0
 10
368.9675217515892882
 20
71.1072183346520461
 30
0.0
 40
0.0804763268073323
 50
90.0000000306505967
 51
177.7850801473873901
  0
LINE
  5
EDE6
  8
0
 10
368.8871055497461953
 20
71.110328585050155
 30
0.0
 11
368.8759428023282112
 21
70.4708153251739446
 31
0.0
  0
ARC
  5
EDE7
  8
0
 10
368.856260400579572
 20
70.4711601297470338
 30
0.0
 40
0.0196859403003423
 50
270.0010727104281045
 51
359.4158911514858232
  0
LINE
  5
EDE8
  8
0
 10
368.8562607691462745
 20
70.4514741894501526
 30
0.0
 11
366.7561971272463097
 21
70.4514741895501544
 31
0.0
  0
ARC
  5
EDE9
  8
0
 10
366.7561971270209256
 20
70.4711592286480055
 30
0.0
 40
0.0196850390978476
 50
180.9999994025845069
 51
270.0000017272644754
  0
LINE
  5
EDEA
  8
0
 10
366.7365150860462109
 20
70.4708156775501351
 30
0.0
 11
366.7042103673564952
 21
72.3215528776663348
 31
0.0
  0
ARC
  5
EDEB
  8
0
 10
366.7239004915525129
 20
72.321547844323419
 30
0.0
 40
0.0196901248394092
 50
90.0061296675336706
 51
179.9853536068758046
  0
LINE
  5
EDEC
  8
0
 10
368.711740759246311
 20
87.6629230084001563
 30
0.0
 11
368.711740759246311
 21
72.3412379690501552
 31
0.0
  0
ARC
  5
EDED
  8
0
 10
369.991087258925802
 20
72.302104059379019
 30
0.0
 40
0.0393701301711524
 50
90.0000625485501899
 51
180.0376301248925017
  0
LINE
  5
EDEE
  8
0
 10
369.9517171372456801
 20
72.30207820227713
 30
0.0
 11
369.9517171372457938
 21
71.2273025305325405
 31
0.0
  0
ARC
  5
EDEF
  8
0
 10
369.9910872159687187
 20
71.2273009612044063
 30
0.0
 40
0.0393700787542539
 50
179.9977161366749101
 51
269.9999999672944
  0
LINE
  5
EDF0
  8
0
 10
369.9910872159462087
 20
71.1879308824501607
 30
0.0
 11
371.2050557013462821
 21
71.1879308824501038
 31
0.0
  0
ARC
  5
EDF1
  8
0
 10
371.2050557013462821
 20
71.2272941383430549
 30
0.0
 40
0.0393632558929671
 50
270.0
 51
359.6342890001529895
  0
LINE
  5
EDF2
  8
0
 10
371.2444181553943849
 20
71.2270428898559373
 30
0.0
 11
371.2509493483104848
 21
72.3018651284934606
 31
0.0
  0
ARC
  5
EDF3
  8
0
 10
371.2115799949463053
 20
72.3021041107501503
 30
0.0
 40
0.039370078699999
 50
359.6522039266994284
 51
71.9729083382002557
  0
LINE
  5
EDF4
  8
0
 10
371.3241744862463065
 20
72.3395056855501508
 30
0.0
 11
371.2714008391462812
 21
71.0729381551501547
 31
0.0
  0
ARC
  5
EDF5
  8
0
 10
371.2517328653145796
 20
71.0737576540598042
 30
0.0
 40
0.0196850393219324
 50
269.9979763341851253
 51
357.6140559696146966
  0
LINE
  5
EDF6
  8
0
 10
371.2517321700461821
 20
71.0540726147501545
 30
0.0
 11
370.502095110316418
 21
71.0540990916548338
 31
0.0
  0
ARC
  5
EDF7
  8
0
 10
370.502095805651777
 20
71.0737860278305362
 30
0.0
 40
0.0196869361879819
 50
182.4683656663748934
 51
269.9979763341851253
  0
LINE
  5
EDF8
  8
0
 10
370.4824271359365753
 20
71.0729381551355317
 30
0.0
 11
370.4776357723462752
 21
71.1879308824501607
 31
0.0
  0
LINE
  5
EDF9
  8
0
 10
370.3629160215463116
 20
72.341474189550155
 30
0.0
 11
369.9910872159462087
 21
72.341474189550155
 31
0.0
  0
LINE
  5
EDFA
  8
0
 10
370.3629160215463116
 20
72.341474189550155
 30
0.0
 11
370.3629160215463116
 21
72.3395056855501508
 31
0.0
  0
LINE
  5
EDFB
  8
0
 10
370.3629160215463116
 20
72.3395056855501508
 30
0.0
 11
371.427875231625876
 21
72.339505685550165
 31
0.0
  0
LINE
  5
EDFC
  8
0
 10
371.427875231625876
 20
72.339505685550165
 30
0.0
 11
371.427875231625876
 21
81.7883245832501586
 31
0.0
  0
LINE
  5
EDFD
  8
0
 10
371.427875231625876
 20
81.7883245832501586
 30
0.0
 11
370.3257353063463029
 21
81.7883245832501586
 31
0.0
  0
LINE
  5
EDFE
  8
0
 10
370.3257353063463029
 20
81.7883245832501586
 30
0.0
 11
370.3257353063463029
 21
72.341474189550155
 31
0.0
  0
LINE
  5
EDFF
  8
0
 10
369.9059927277461952
 20
72.1221828509501535
 30
0.0
 11
369.925992727746177
 21
72.1221828509501535
 31
0.0
  0
LINE
  5
EE00
  8
0
 10
369.925992727746177
 20
72.1221828509501535
 30
0.0
 11
369.925992727746177
 21
71.222182850950162
 31
0.0
  0
LINE
  5
EE01
  8
0
 10
369.925992727746177
 20
71.222182850950162
 30
0.0
 11
369.9059927277461952
 21
71.222182850950162
 31
0.0
  0
LINE
  5
EE02
  8
0
 10
369.9059927277461952
 20
71.222182850950162
 30
0.0
 11
369.9059927277461952
 21
72.1221828509501535
 31
0.0
  0
LINE
  5
EE03
  8
0
 10
369.9047125420473776
 20
72.0371828509501597
 30
0.0
 11
369.9059927277461952
 21
72.0371828509501597
 31
0.0
  0
LINE
  5
EE04
  8
0
 10
369.9047125420473776
 20
71.2821828509501643
 30
0.0
 11
369.9059927277461952
 21
71.2821828509501643
 31
0.0
  0
LINE
  5
EE05
  8
0
 10
369.9047125420473776
 20
71.3221828509501563
 30
0.0
 11
369.9059927277461952
 21
71.3221828509501563
 31
0.0
  0
LINE
  5
EE06
  8
0
 10
369.9047125420473776
 20
71.9971828509501535
 30
0.0
 11
369.9059927277461952
 21
71.9971828509501535
 31
0.0
  0
LINE
  5
EE07
  8
0
 10
369.925992727746177
 20
71.3271828509501518
 30
0.0
 11
369.9517171371462041
 21
71.3271828509501518
 31
0.0
  0
LINE
  5
EE08
  8
0
 10
369.925992727746177
 20
71.463906758250161
 30
0.0
 11
369.9517171371462041
 21
71.463906758250161
 31
0.0
  0
LINE
  5
EE09
  8
0
 10
369.925992727746177
 20
72.0171828509501495
 30
0.0
 11
369.9517171371462041
 21
72.0171828509501495
 31
0.0
  0
LINE
  5
EE0A
  8
0
 10
369.925992727746177
 20
71.8804589434501509
 30
0.0
 11
369.9517318216268791
 21
71.8804583647747393
 31
0.0
  0
LINE
  5
EE0B
  8
0
 10
366.9007171371462164
 20
70.4514741895501544
 30
0.0
 11
366.9007171371462164
 21
51.6916285283960519
 31
0.0
  0
LINE
  5
EE0C
  8
0
 10
368.711740759246311
 20
51.6916285283960519
 30
0.0
 11
366.9007171371462164
 21
51.6916285283960519
 31
0.0
  0
ARC
  5
EE0D
  8
0
 10
366.9007135922612974
 20
51.6719470341955684
 30
0.0
 40
0.0196814945197094
 50
89.9896803087561352
 51
180.0011752178347137
  0
LINE
  5
EE0E
  8
0
 10
366.881032097745674
 20
51.6719466305001589
 30
0.0
 11
366.8810320977457877
 21
49.8609222588501595
 31
0.0
  0
ARC
  5
EE0F
  8
0
 10
366.9007163795894257
 20
49.8609222507991774
 30
0.0
 40
0.0196842818436503
 50
179.9999765657138084
 51
270.0000231759922258
  0
LINE
  5
EE10
  8
0
 10
366.9007163875515971
 20
49.8412379689555323
 30
0.0
 11
368.7117415088408166
 21
49.841238705145507
 31
0.0
  0
ARC
  5
EE11
  8
0
 10
368.7117415008356147
 20
49.8609230029696988
 30
0.0
 40
0.0196842978241988
 50
270.0000233009134263
 51
359.9978340067303861
  0
LINE
  5
EE12
  8
0
 10
368.7314257986457164
 20
49.8609222588301293
 30
0.0
 11
368.7314257986457164
 21
51.6719473786507422
 31
0.0
  0
ARC
  5
EE13
  8
0
 10
368.7118635979242072
 20
51.6720663515672172
 30
0.0
 40
0.019562562501448
 50
359.6515442180897253
 51
90.3597782273538854
  0
LINE
  5
EE14
  8
0
 10
368.8824473202623153
 20
70.8434588431341439
 30
0.0
 11
368.8889061135462271
 21
70.8370000498501611
 31
0.0
  0
LINE
  5
EE15
  8
0
 10
368.8889061135462271
 20
70.8370000498501611
 30
0.0
 11
368.8889061135462271
 21
70.7172222210501502
 31
0.0
  0
ARC
  5
EE16
  8
0
 10
368.8790635938461833
 20
70.7172222210501644
 30
0.0
 40
0.0098425196999994
 50
275.8940225606957029
 51
359.9999999999943157
  0
ARC
  5
EE17
  8
0
 10
371.3570163497462886
 20
71.2821828509501643
 30
0.0
 40
2.3500000000000529
 50
182.304509844200112
 51
203.4860003866006934
  0
ARC
  5
EE18
  8
0
 10
369.2200395677089091
 20
70.3536195974716634
 30
0.0
 40
0.0200001110137025
 50
203.4857288013172933
 51
293.9774985441304125
  0
LINE
  5
EE19
  8
0
 10
369.2281671696231911
 20
70.3353453935852855
 30
0.0
 11
369.2647167450408006
 21
70.3516011167335904
 31
0.0
  0
ARC
  5
EE1A
  8
0
 10
369.2565892351598222
 20
70.3698751136908669
 30
0.0
 40
0.0199998845411471
 50
293.9774985441304125
 51
23.4792198378747194
  0
ARC
  5
EE1B
  8
0
 10
371.3566339938321903
 20
71.2820950578129953
 30
0.0
 40
2.26961432201895
 50
182.3839728922258132
 51
203.4792198378746946
  0
LINE
  5
EE1C
  8
0
 10
368.711740759246311
 20
70.4514741894570307
 30
0.0
 11
368.711740759246311
 21
51.6916285283960519
 31
0.0
  0
ARC
  5
EE1D
  8
0
 10
367.5990228408957137
 20
49.7303304715062922
 30
0.0
 40
0.1184337530159008
 50
92.105072284973275
 51
93.6267303402313473
  0
ARC
  5
EE1E
  8
0
 10
367.6279138922312768
 20
48.9443287611145905
 30
0.0
 40
0.9049662581203891
 50
89.9884110303054143
 51
92.105072284973275
  0
ARC
  5
EE1F
  8
0
 10
367.6289718833871234
 20
54.1750290535723735
 30
0.0
 40
4.3257341413350403
 50
269.9884110303053717
 51
270.9981968259847918
  0
ARC
  5
EE20
  8
0
 10
367.7333533657284761
 20
48.1842132637836968
 30
0.0
 40
1.665990929213264
 50
89.3904035269270025
 51
90.9981968259848202
  0
ARC
  5
EE21
  8
0
 10
367.8110954880302756
 20
55.4908950130915102
 30
0.0
 40
5.6411043913123908
 50
269.3904035269270025
 51
270.5911783603638128
  0
ARC
  5
EE22
  8
0
 10
367.9044254160318133
 20
46.4458731215622294
 30
0.0
 40
3.404398994000378
 50
88.6113293076806769
 51
90.5911783603638128
  0
ARC
  5
EE23
  8
0
 10
367.9795225203661175
 20
48.619554575436581
 30
0.0
 40
1.2297399786674179
 50
88.3458066244830036
 51
89.6549012708129993
  0
ARC
  5
EE24
  8
0
 10
368.0140444489186962
 20
49.7571013518816372
 30
0.0
 40
0.0916859248524069
 50
85.5706932539564633
 51
89.3893785876121001
  0
ARC
  5
EE25
  8
0
 10
368.0194340110847975
 20
49.8266796827271108
 30
0.0
 40
0.0218991674869643
 50
81.5693456940377786
 51
85.5706932539531664
  0
ARC
  5
EE26
  8
0
 10
368.0226033813158892
 20
49.8480634439084014
 30
0.0
 40
0.0002818098797011
 50
56.105358594774799
 51
81.569345694222136
  0
ARC
  5
EE27
  8
0
 10
368.0227537300144149
 20
49.8482872315837895
 30
0.0
 40
0.0000122071074831
 50
330.9666660375685865
 51
56.1053585958691485
  0
ARC
  5
EE28
  8
0
 10
368.0226379993212049
 20
49.8483514702015214
 30
0.0
 40
0.0001445709747038
 50
315.6369499965069281
 51
330.9666660377100129
  0
ARC
  5
EE29
  8
0
 10
368.021104204116682
 20
49.8554050165238181
 30
0.0
 40
0.0073395509750024
 50
272.7365370358135124
 51
282.8887627916361112
  0
ARC
  5
EE2A
  8
0
 10
367.9529922704738851
 20
51.9270334087454586
 30
0.0
 40
2.0800865369258759
 50
270.2346768532544274
 51
271.8861293214843045
  0
ARC
  5
EE2B
  8
0
 10
367.8091862468701265
 20
69.7836047301026099
 30
0.0
 40
19.9372223239684807
 50
269.9039661057432795
 51
270.4377595730354074
  0
ARC
  5
EE2C
  8
0
 10
367.7772617389023253
 20
64.074318659231281
 30
0.0
 40
14.2279083254773102
 50
269.4378973787902964
 51
269.9939882541024758
  0
ARC
  5
EE2D
  8
0
 10
367.6636900619948847
 20
52.4981958173951213
 30
0.0
 40
2.6512283793495608
 50
268.5304073643624179
 51
269.4378973787902964
  0
ARC
  5
EE2E
  8
0
 10
367.5981464591034182
 20
49.9433733714816412
 30
0.0
 40
0.0955653158720347
 50
265.574572625547205
 51
268.5304073643624179
  0
ARC
  5
EE2F
  8
0
 10
367.591488327517709
 20
49.857342375020167
 30
0.0
 40
0.0092770601916414
 50
259.770713584173393
 51
265.5745726255536852
  0
ARC
  5
EE30
  8
0
 10
367.5899256982579004
 20
49.8486830450661813
 30
0.0
 40
0.0004778667368008
 50
242.1380047330193861
 51
259.7707135842032926
  0
ARC
  5
EE31
  8
0
 10
367.5897287293925046
 20
49.8482830496874527
 30
0.0
 40
0.0000346399655856
 50
104.656288359485103
 51
220.4525734938366952
  0
ARC
  5
EE32
  8
0
 10
367.5920327524806908
 20
49.83631265700825
 30
0.0
 40
0.0122246772589359
 50
92.3514745281619156
 51
100.9055220768465944
  0
LINE
  5
EE33
  8
0
 10
367.5503234363462752
 20
49.8412379690501623
 30
0.0
 11
367.5503234363462752
 21
49.5951749769501475
 31
0.0
  0
LINE
  5
EE34
  8
0
 10
367.471583293746221
 20
49.5951749820501533
 30
0.0
 11
368.1408746077461842
 21
49.5951749820501533
 31
0.0
  0
LINE
  5
EE35
  8
0
 10
368.1408746077461842
 20
49.5951749820501533
 30
0.0
 11
368.1999297356463217
 21
49.5361198472501485
 31
0.0
  0
LINE
  5
EE36
  8
0
 10
368.1999297356463217
 20
49.5361198472501485
 30
0.0
 11
368.1999297356463217
 21
49.1817891688501589
 31
0.0
  0
LINE
  5
EE37
  8
0
 10
368.1999297356463217
 20
49.1817891688501589
 30
0.0
 11
368.1408745971463077
 21
49.1227340320501469
 31
0.0
  0
LINE
  5
EE38
  8
0
 10
368.1408745971463077
 20
49.1227340320501469
 30
0.0
 11
367.4715832992462765
 21
49.1227340275501518
 31
0.0
  0
LINE
  5
EE39
  8
0
 10
367.4715832992462765
 20
49.1227340275501518
 30
0.0
 11
367.4125281608461933
 21
49.1817891687501572
 31
0.0
  0
LINE
  5
EE3A
  8
0
 10
367.4125281608461933
 20
49.1817891687501572
 30
0.0
 11
367.4125281608461933
 21
49.5361198473501503
 31
0.0
  0
LINE
  5
EE3B
  8
0
 10
367.4125281608461933
 20
49.5361198473501503
 30
0.0
 11
367.471583293746221
 21
49.5951749820501533
 31
0.0
  0
LINE
  5
EE3C
  8
0
 10
367.525376044346217
 20
49.1227340279118323
 30
0.0
 11
367.525376044346217
 21
31.6131621754501602
 31
0.0
  0
ARC
  5
EE3D
  8
0
 10
369.3438497756462766
 20
31.6131621754501602
 30
0.0
 40
1.818473731300001
 50
180.0
 51
0.0
  0
LINE
  5
EE3E
  8
0
 10
371.1623235069462226
 20
31.6131621754501602
 30
0.0
 11
371.1623235069462226
 21
71.0540757480303853
 31
0.0
  0
LINE
  5
EE3F
  8
0
 10
370.5914809167463204
 20
71.0540726147501545
 30
0.0
 11
370.5914809167463204
 21
31.6131621754501602
 31
0.0
  0
ARC
  5
EE40
  8
0
 10
369.3438379999462882
 20
31.6131621754501602
 30
0.0
 40
1.2476429168000001
 50
180.0
 51
0.0
  0
LINE
  5
EE41
  8
0
 10
368.0961950831463128
 20
31.6131621754501602
 30
0.0
 11
368.0961950831463128
 21
49.1227340317497507
 31
0.0
  0
LINE
  5
EE42
  8
0
 10
367.4125281608461933
 20
49.1817891687501572
 30
0.0
 11
368.1999297356463217
 21
49.1817891688501589
 31
0.0
  0
LINE
  5
EE43
  8
0
 10
368.1999297356463217
 20
49.5361198472501485
 30
0.0
 11
367.4125281608461933
 21
49.5361198350501581
 31
0.0
  0
ARC
  5
EE44
  8
0
 10
368.885648861848324
 20
72.3186929944034631
 30
0.0
 40
0.0227320866248594
 50
6.3484134155841527
 51
82.6435697561390725
  0
LINE
  5
EE45
  8
0
 10
368.9082415525456895
 20
72.3212065753889704
 30
0.0
 11
368.8871055784961186
 21
71.1103302321234452
 31
0.0
  0
CIRCLE
  5
EE46
  8
0
 10
370.6525049127462808
 20
81.4674584869501643
 30
0.0
 40
0.0393691804000014
  0
ARC
  5
EE47
  8
0
 10
370.651045473693614
 20
81.4668181141074683
 30
0.0
 40
0.0956429787644706
 50
0.3835966716870458
 51
55.7710262327506499
  0
ARC
  5
EE48
  8
0
 10
370.6520683981062234
 20
81.4683216656039946
 30
0.0
 40
0.0938244514876062
 50
55.7710262327470403
 51
93.3858373276964358
  0
ARC
  5
EE49
  8
0
 10
370.6521277842372797
 20
81.4673178923247008
 30
0.0
 40
0.0948299799599893
 50
93.3858373276964358
 51
135.1424521016953975
  0
ARC
  5
EE4A
  8
0
 10
370.6515878772651149
 20
81.4678551212534643
 30
0.0
 40
0.0940683275060986
 50
135.1424521016994902
 51
179.4641289362917007
  0
ARC
  5
EE4B
  8
0
 10
370.6533836096832033
 20
81.4678383257912344
 30
0.0
 40
0.0958641384664879
 50
179.4641289362932923
 51
227.59876865620069
  0
ARC
  5
EE4C
  8
0
 10
370.6508977330788071
 20
81.4651160610300451
 30
0.0
 40
0.0921776349844676
 50
227.5987686561967109
 51
270.0820448457419047
  0
LINE
  5
EE4D
  8
0
 10
370.651029727046307
 20
81.3729385205501359
 30
0.0
 11
370.7072233273934216
 21
81.3730189871824763
 31
0.0
  0
ARC
  5
EE4E
  8
0
 10
370.7071667365394205
 20
81.4125390185251945
 30
0.0
 40
0.0395200718604415
 50
270.0820448457419047
 51
359.7119440900938798
  0
LINE
  5
EE4F
  8
0
 10
370.7466863089462095
 20
81.4123403312501637
 30
0.0
 11
370.7466863089462095
 21
81.4674584414501624
 31
0.0
  0
CIRCLE
  5
EE50
  8
0
 10
371.1013230624462267
 20
81.4674584869501643
 30
0.0
 40
0.0393691804000014
  0
ARC
  5
EE51
  8
0
 10
371.1027825014990071
 20
81.4668181141074683
 30
0.0
 40
0.0956429787644706
 50
124.2289737672493004
 51
179.6164033283120887
  0
ARC
  5
EE52
  8
0
 10
371.101759577086284
 20
81.4683216656039946
 30
0.0
 40
0.0938244514876062
 50
86.6141626723035642
 51
124.2289737672528958
  0
ARC
  5
EE53
  8
0
 10
371.1017001909552846
 20
81.4673178923247008
 30
0.0
 40
0.0948299799599893
 50
44.8575478983045386
 51
86.6141626723035642
  0
ARC
  5
EE54
  8
0
 10
371.1022400979275062
 20
81.4678551212534643
 30
0.0
 40
0.0940683275060986
 50
0.5358710637090566
 51
44.8575478983005098
  0
ARC
  5
EE55
  8
0
 10
371.1004443655093041
 20
81.4678383257912344
 30
0.0
 40
0.0958641384664879
 50
312.4012313437992248
 51
0.5358710637066141
  0
ARC
  5
EE56
  8
0
 10
371.1029302421138141
 20
81.4651160610300451
 30
0.0
 40
0.0921776349844676
 50
269.9179551542580953
 51
312.4012313438033175
  0
LINE
  5
EE57
  8
0
 10
371.1027982481463141
 20
81.3729385205501359
 30
0.0
 11
371.0466046477991995
 21
81.3730189871824763
 31
0.0
  0
ARC
  5
EE58
  8
0
 10
371.0466612386530869
 20
81.4125390185251945
 30
0.0
 40
0.0395200718604415
 50
180.2880559099060065
 51
269.9179551542580953
  0
LINE
  5
EE59
  8
0
 10
371.007141666246298
 20
81.4123403312501637
 30
0.0
 11
371.007141666246298
 21
81.4674584414501624
 31
0.0
  0
CIRCLE
  5
EE5A
  8
0
 10
370.6525049127462808
 20
81.0186394983501543
 30
0.0
 40
0.0393691804000014
  0
ARC
  5
EE5B
  8
0
 10
370.651045473693614
 20
81.0192798711928361
 30
0.0
 40
0.0956429787644706
 50
304.2289737672493857
 51
359.6164033283121171
  0
ARC
  5
EE5C
  8
0
 10
370.6520683981062234
 20
81.0177763196962957
 30
0.0
 40
0.0938244514876062
 50
266.6141626723036211
 51
304.22897376725291
  0
ARC
  5
EE5D
  8
0
 10
370.6521277842372797
 20
81.0187800929756037
 30
0.0
 40
0.0948299799599893
 50
224.8575478983044889
 51
266.6141626723036211
  0
ARC
  5
EE5E
  8
0
 10
370.6515878772651149
 20
81.0182428640468686
 30
0.0
 40
0.0940683275060986
 50
180.535871063708214
 51
224.8575478983005098
  0
ARC
  5
EE5F
  8
0
 10
370.6533836096832033
 20
81.0182596595090843
 30
0.0
 40
0.0958641384664879
 50
132.4012313437991963
 51
180.535871063706594
  0
ARC
  5
EE60
  8
0
 10
370.6508977330788071
 20
81.0209819242702736
 30
0.0
 40
0.0921776349844676
 50
89.9179551542580953
 51
132.4012313438032891
  0
LINE
  5
EE61
  8
0
 10
370.651029727046307
 20
81.1131594647501544
 30
0.0
 11
370.7072233273934216
 21
81.1130789981178424
 31
0.0
  0
ARC
  5
EE62
  8
0
 10
370.7071667365394205
 20
81.0735589667751242
 30
0.0
 40
0.0395200718604415
 50
0.288055909906061
 51
89.9179551542580953
  0
LINE
  5
EE63
  8
0
 10
370.7466863089462095
 20
81.073757654050155
 30
0.0
 11
370.7466863089462095
 21
81.0186395438501563
 31
0.0
  0
CIRCLE
  5
EE64
  8
0
 10
371.1013230624462267
 20
81.0186394983501543
 30
0.0
 40
0.0393691804000014
  0
ARC
  5
EE65
  8
0
 10
371.1027825014990071
 20
81.0192798711928361
 30
0.0
 40
0.0956429787644706
 50
180.3835966716870018
 51
235.7710262327505859
  0
ARC
  5
EE66
  8
0
 10
371.101759577086284
 20
81.0177763196962957
 30
0.0
 40
0.0938244514876062
 50
235.77102623274709
 51
273.3858373276964926
  0
ARC
  5
EE67
  8
0
 10
371.1017001909552846
 20
81.0187800929756037
 30
0.0
 40
0.0948299799599893
 50
273.3858373276964926
 51
315.1424521016954827
  0
ARC
  5
EE68
  8
0
 10
371.1022400979275062
 20
81.0182428640468686
 30
0.0
 40
0.0940683275060986
 50
315.1424521016995186
 51
359.4641289362908765
  0
ARC
  5
EE69
  8
0
 10
371.1004443655093041
 20
81.0182596595090843
 30
0.0
 40
0.0958641384664879
 50
359.4641289362933776
 51
47.5987686562007468
  0
ARC
  5
EE6A
  8
0
 10
371.1029302421138141
 20
81.0209819242702736
 30
0.0
 40
0.0921776349844676
 50
47.5987686561966896
 51
90.0820448457418905
  0
LINE
  5
EE6B
  8
0
 10
371.1027982481463141
 20
81.1131594647501544
 30
0.0
 11
371.0466046477991995
 21
81.1130789981178424
 31
0.0
  0
ARC
  5
EE6C
  8
0
 10
371.0466612386530869
 20
81.0735589667751242
 30
0.0
 40
0.0395200718604415
 50
90.0820448457418905
 51
179.7119440900939082
  0
LINE
  5
EE6D
  8
0
 10
371.007141666246298
 20
81.073757654050155
 30
0.0
 11
371.007141666246298
 21
81.0186395438501563
 31
0.0
  0
ARC
  5
EE6E
  8
0
 10
370.7505586407966121
 20
80.7548600163001424
 30
0.0
 40
0.0728346832028418
 50
89.941817833885878
 51
270.0581821661140793
  0
ARC
  5
EE6F
  8
0
 10
370.7505586407966121
 20
80.7548600163001993
 30
0.0
 40
0.0728346832028808
 50
270.0581821661140793
 51
89.9418177552189633
  0
ARC
  5
EE70
  8
0
 10
370.7534257345637911
 20
80.7561331157961462
 30
0.0
 40
0.0548785222085503
 50
92.2283965624548046
 51
143.9212734935242963
  0
ARC
  5
EE71
  8
0
 10
370.753832222385995
 20
80.7558369308961659
 30
0.0
 40
0.0553814713556675
 50
143.9212734935242963
 51
186.7948127526722999
  0
ARC
  5
EE72
  8
0
 10
370.754154369004425
 20
80.7558753149749435
 30
0.0
 40
0.0557058966647677
 50
186.7948127526730957
 51
249.0774063478827998
  0
ARC
  5
EE73
  8
0
 10
370.7539489387297067
 20
80.7553379821530655
 30
0.0
 40
0.055130633108497
 50
249.0774063478827998
 51
335.6278903738090094
  0
ARC
  5
EE74
  8
0
 10
370.7535947485939118
 20
80.7554984420805084
 30
0.0
 40
0.0555194750310309
 50
335.6278903738082136
 51
92.3772187280729753
  0
ARC
  5
EE75
  8
0
 10
370.7471766182060264
 20
80.7625569105372136
 30
0.0
 40
0.0217449548892826
 50
85.1887842861532789
 51
192.7659035984063109
  0
ARC
  5
EE76
  8
0
 10
370.7467764033899016
 20
80.7624662343871762
 30
0.0
 40
0.0213345964324063
 50
192.7659035984079026
 51
287.7877673320970189
  0
ARC
  5
EE77
  8
0
 10
370.7465980870119893
 20
80.7630220325384869
 30
0.0
 40
0.0219182986815723
 50
287.7877673320970189
 51
14.4954053845797901
  0
ARC
  5
EE78
  8
0
 10
370.7474474421733817
 20
80.7632416180538826
 30
0.0
 40
0.0210410176610874
 50
14.4954053845789996
 51
85.767282760949854
  0
ARC
  5
EE79
  8
0
 10
370.8759676822256779
 20
80.6284126282273945
 30
0.0
 40
0.0728346832028418
 50
89.941817833885878
 51
270.0581821661140793
  0
ARC
  5
EE7A
  8
0
 10
370.8759676822256779
 20
80.6284126282274514
 30
0.0
 40
0.0728346832028808
 50
270.0581821661140793
 51
89.9418177552189633
  0
ARC
  5
EE7B
  8
0
 10
370.8788347759928001
 20
80.629685727723384
 30
0.0
 40
0.0548785222085503
 50
92.2283965624548046
 51
143.9212734935242963
  0
ARC
  5
EE7C
  8
0
 10
370.8792412638151177
 20
80.629389542823418
 30
0.0
 40
0.0553814713556675
 50
143.9212734935242963
 51
186.7948127526722999
  0
ARC
  5
EE7D
  8
0
 10
370.8795634104333203
 20
80.6294279269021956
 30
0.0
 40
0.0557058966647677
 50
186.7948127526730957
 51
249.0774063478827998
  0
ARC
  5
EE7E
  8
0
 10
370.8793579801587725
 20
80.6288905940803033
 30
0.0
 40
0.055130633108497
 50
249.0774063478827998
 51
335.6278903738090094
  0
ARC
  5
EE7F
  8
0
 10
370.8790037900229208
 20
80.6290510540077605
 30
0.0
 40
0.0555194750310309
 50
335.6278903738082136
 51
92.3772187280729753
  0
ARC
  5
EE80
  8
0
 10
370.8725856596349786
 20
80.6361095224644657
 30
0.0
 40
0.0217449548892826
 50
85.1887842861532789
 51
192.7659035984063109
  0
ARC
  5
EE81
  8
0
 10
370.8721854448190243
 20
80.6360188463144141
 30
0.0
 40
0.0213345964324063
 50
192.7659035984079026
 51
287.7877673320970189
  0
ARC
  5
EE82
  8
0
 10
370.8720071284408846
 20
80.6365746444657248
 30
0.0
 40
0.0219182986815723
 50
287.7877673320970189
 51
14.4954053845797901
  0
ARC
  5
EE83
  8
0
 10
370.8728564836023907
 20
80.6367942299811062
 30
0.0
 40
0.0210410176610874
 50
14.4954053845789996
 51
85.767282760949854
  0
ARC
  5
EE84
  8
0
 10
371.0042891916974099
 20
80.754645298888164
 30
0.0
 40
0.0728346832028418
 50
89.941817833885878
 51
270.0581821661140793
  0
ARC
  5
EE85
  8
0
 10
371.0042891916974099
 20
80.7546452988882351
 30
0.0
 40
0.0728346832028808
 50
270.0581821661140793
 51
89.9418177552189633
  0
ARC
  5
EE86
  8
0
 10
371.0071562854644753
 20
80.7559183983841535
 30
0.0
 40
0.0548785222085503
 50
92.2283965624548046
 51
143.9212734935242963
  0
ARC
  5
EE87
  8
0
 10
371.0075627732866792
 20
80.7556222134842159
 30
0.0
 40
0.0553814713556675
 50
143.9212734935242963
 51
186.7948127526722999
  0
ARC
  5
EE88
  8
0
 10
371.0078849199049955
 20
80.7556605975629935
 30
0.0
 40
0.0557058966647677
 50
186.7948127526730957
 51
249.0774063478827998
  0
ARC
  5
EE89
  8
0
 10
371.0076794896305046
 20
80.755123264741087
 30
0.0
 40
0.055130633108497
 50
249.0774063478827998
 51
335.6278903738090094
  0
ARC
  5
EE8A
  8
0
 10
371.007325299494596
 20
80.7552837246685442
 30
0.0
 40
0.0555194750310309
 50
335.6278903738082136
 51
92.3772187280729753
  0
ARC
  5
EE8B
  8
0
 10
371.0009071691067106
 20
80.7623421931252352
 30
0.0
 40
0.0217449548892826
 50
85.1887842861532789
 51
192.7659035984063109
  0
ARC
  5
EE8C
  8
0
 10
371.0005069542906995
 20
80.7622515169751836
 30
0.0
 40
0.0213345964324063
 50
192.7659035984079026
 51
287.7877673320970189
  0
ARC
  5
EE8D
  8
0
 10
371.0003286379126166
 20
80.7628073151265085
 30
0.0
 40
0.0219182986815723
 50
287.7877673320970189
 51
14.4954053845797901
  0
ARC
  5
EE8E
  8
0
 10
371.0011779930741227
 20
80.7630269006419041
 30
0.0
 40
0.0210410176610874
 50
14.4954053845789996
 51
85.767282760949854
  0
ARC
  5
EE8F
  8
0
 10
371.1290223431989261
 20
80.6284244935789332
 30
0.0
 40
0.0728346832028418
 50
89.941817833885878
 51
270.0581821661140793
  0
ARC
  5
EE90
  8
0
 10
371.1290223431989261
 20
80.6284244935790042
 30
0.0
 40
0.0728346832028808
 50
270.0581821661140793
 51
89.9418177552189633
  0
ARC
  5
EE91
  8
0
 10
371.1318894369659915
 20
80.6296975930749369
 30
0.0
 40
0.0548785222085503
 50
92.2283965624548046
 51
143.9212734935242963
  0
ARC
  5
EE92
  8
0
 10
371.1322959247883091
 20
80.629401408174985
 30
0.0
 40
0.0553814713556675
 50
143.9212734935242963
 51
186.7948127526722999
  0
ARC
  5
EE93
  8
0
 10
371.1326180714066254
 20
80.6294397922537627
 30
0.0
 40
0.0557058966647677
 50
186.7948127526730957
 51
249.0774063478827998
  0
ARC
  5
EE94
  8
0
 10
371.1324126411320776
 20
80.6289024594318562
 30
0.0
 40
0.055130633108497
 50
249.0774063478827998
 51
335.6278903738090094
  0
ARC
  5
EE95
  8
0
 10
371.1320584509962259
 20
80.6290629193593134
 30
0.0
 40
0.0555194750310309
 50
335.6278903738082136
 51
92.3772187280729753
  0
ARC
  5
EE96
  8
0
 10
371.1256403206082268
 20
80.6361213878160186
 30
0.0
 40
0.0217449548892826
 50
85.1887842861532789
 51
192.7659035984063109
  0
ARC
  5
EE97
  8
0
 10
371.1252401057922725
 20
80.6360307116659669
 30
0.0
 40
0.0213345964324063
 50
192.7659035984079026
 51
287.7877673320970189
  0
ARC
  5
EE98
  8
0
 10
371.1250617894141897
 20
80.6365865098172634
 30
0.0
 40
0.0219182986815723
 50
287.7877673320970189
 51
14.4954053845797901
  0
ARC
  5
EE99
  8
0
 10
371.1259111445755821
 20
80.6368060953326733
 30
0.0
 40
0.0210410176610874
 50
14.4954053845789996
 51
85.767282760949854
  0
ARC
  5
EE9A
  8
0
 10
370.9915666927386724
 20
80.512066325965435
 30
0.0
 40
0.0728346832028418
 50
89.941817833885878
 51
270.0581821661140793
  0
ARC
  5
EE9B
  8
0
 10
370.9915666927386724
 20
80.5120663259655061
 30
0.0
 40
0.0728346832028808
 50
270.0581821661140793
 51
89.9418177552189633
  0
ARC
  5
EE9C
  8
0
 10
370.9944337865059083
 20
80.5133394254614245
 30
0.0
 40
0.0548785222085503
 50
92.2283965624548046
 51
143.9212734935242963
  0
ARC
  5
EE9D
  8
0
 10
370.9948402743281122
 20
80.5130432405614869
 30
0.0
 40
0.0553814713556675
 50
143.9212734935242963
 51
186.7948127526722999
  0
ARC
  5
EE9E
  8
0
 10
370.9951624209463716
 20
80.5130816246402645
 30
0.0
 40
0.0557058966647677
 50
186.7948127526730957
 51
249.0774063478827998
  0
ARC
  5
EE9F
  8
0
 10
370.9949569906718807
 20
80.512544291818358
 30
0.0
 40
0.055130633108497
 50
249.0774063478827998
 51
335.6278903738090094
  0
ARC
  5
EEA0
  8
0
 10
370.9946028005359722
 20
80.5127047517458152
 30
0.0
 40
0.0555194750310309
 50
335.6278903738082136
 51
92.3772187280729753
  0
ARC
  5
EEA1
  8
0
 10
370.9881846701482004
 20
80.5197632202025346
 30
0.0
 40
0.0217449548892826
 50
85.1887842861532789
 51
192.7659035984063109
  0
ARC
  5
EEA2
  8
0
 10
370.9877844553320756
 20
80.5196725440524546
 30
0.0
 40
0.0213345964324063
 50
192.7659035984079026
 51
287.7877673320970189
  0
ARC
  5
EEA3
  8
0
 10
370.9876061389539927
 20
80.5202283422037937
 30
0.0
 40
0.0219182986815723
 50
287.7877673320970189
 51
14.4954053845797901
  0
ARC
  5
EEA4
  8
0
 10
370.9884554941154988
 20
80.5204479277191751
 30
0.0
 40
0.0210410176610874
 50
14.4954053845789996
 51
85.767282760949854
  0
ARC
  5
EEA5
  8
0
 10
371.1313947735002898
 20
80.374738531182814
 30
0.0
 40
0.0728346832028418
 50
89.941817833885878
 51
270.0581821661140793
  0
ARC
  5
EEA6
  8
0
 10
371.1313947735002898
 20
80.3747385311828708
 30
0.0
 40
0.0728346832028808
 50
270.0581821661140793
 51
89.9418177552189633
  0
ARC
  5
EEA7
  8
0
 10
371.1342618672674121
 20
80.3760116306788035
 30
0.0
 40
0.0548785222085503
 50
92.2283965624548046
 51
143.9212734935242963
  0
ARC
  5
EEA8
  8
0
 10
371.1346683550896159
 20
80.3757154457788374
 30
0.0
 40
0.0553814713556675
 50
143.9212734935242963
 51
186.7948127526722999
  0
ARC
  5
EEA9
  8
0
 10
371.1349905017078754
 20
80.3757538298576151
 30
0.0
 40
0.0557058966647677
 50
186.7948127526730957
 51
249.0774063478827998
  0
ARC
  5
EEAA
  8
0
 10
371.1347850714333845
 20
80.3752164970357228
 30
0.0
 40
0.055130633108497
 50
249.0774063478827998
 51
335.6278903738090094
  0
ARC
  5
EEAB
  8
0
 10
371.1344308812974759
 20
80.37537695696318
 30
0.0
 40
0.0555194750310309
 50
335.6278903738082136
 51
92.3772187280729753
  0
ARC
  5
EEAC
  8
0
 10
371.1280127509094768
 20
80.3824354254198852
 30
0.0
 40
0.0217449548892826
 50
85.1887842861532789
 51
192.7659035984063109
  0
ARC
  5
EEAD
  8
0
 10
371.1276125360935794
 20
80.3823447492698335
 30
0.0
 40
0.0213345964324063
 50
192.7659035984079026
 51
287.7877673320970189
  0
ARC
  5
EEAE
  8
0
 10
371.1274342197154965
 20
80.3829005474211442
 30
0.0
 40
0.0219182986815723
 50
287.7877673320970189
 51
14.4954053845797901
  0
ARC
  5
EEAF
  8
0
 10
371.1282835748768889
 20
80.3831201329365257
 30
0.0
 40
0.0210410176610874
 50
14.4954053845789996
 51
85.767282760949854
  0
ARC
  5
EEB0
  8
0
 10
371.0031526878752857
 20
80.2512965912078613
 30
0.0
 40
0.0728346832028418
 50
89.941817833885878
 51
270.0581821661140793
  0
ARC
  5
EEB1
  8
0
 10
371.0031526878752857
 20
80.2512965912079039
 30
0.0
 40
0.0728346832028808
 50
270.0581821661140793
 51
89.9418177552189633
  0
ARC
  5
EEB2
  8
0
 10
371.0060197816424079
 20
80.2525696907038508
 30
0.0
 40
0.0548785222085503
 50
92.2283965624548046
 51
143.9212734935242963
  0
ARC
  5
EEB3
  8
0
 10
371.0064262694647255
 20
80.252273505803899
 30
0.0
 40
0.0553814713556675
 50
143.9212734935242963
 51
186.7948127526722999
  0
ARC
  5
EEB4
  8
0
 10
371.0067484160829281
 20
80.2523118898826766
 30
0.0
 40
0.0557058966647677
 50
186.7948127526730957
 51
249.0774063478827998
  0
ARC
  5
EEB5
  8
0
 10
371.0065429858083803
 20
80.2517745570607559
 30
0.0
 40
0.055130633108497
 50
249.0774063478827998
 51
335.6278903738090094
  0
ARC
  5
EEB6
  8
0
 10
371.0061887956724718
 20
80.2519350169882131
 30
0.0
 40
0.0555194750310309
 50
335.6278903738082136
 51
92.3772187280729753
  0
ARC
  5
EEB7
  8
0
 10
370.9997706652845864
 20
80.2589934854449325
 30
0.0
 40
0.0217449548892826
 50
85.1887842861532789
 51
192.7659035984063109
  0
ARC
  5
EEB8
  8
0
 10
370.9993704504685752
 20
80.2589028092948809
 30
0.0
 40
0.0213345964324063
 50
192.7659035984079026
 51
287.7877673320970189
  0
ARC
  5
EEB9
  8
0
 10
370.9991921340904923
 20
80.2594586074461773
 30
0.0
 40
0.0219182986815723
 50
287.7877673320970189
 51
14.4954053845797901
  0
ARC
  5
EEBA
  8
0
 10
371.0000414892519984
 20
80.2596781929615872
 30
0.0
 40
0.0210410176610874
 50
14.4954053845789996
 51
85.767282760949854
  0
ARC
  5
EEBB
  8
0
 10
370.8766842110305788
 20
80.3766378503663503
 30
0.0
 40
0.0728346832028418
 50
89.941817833885878
 51
270.0581821661140793
  0
ARC
  5
EEBC
  8
0
 10
370.8766842110305788
 20
80.376637850366393
 30
0.0
 40
0.0728346832028808
 50
270.0581821661140793
 51
89.9418177552189633
  0
ARC
  5
EEBD
  8
0
 10
370.8795513047977011
 20
80.3779109498623399
 30
0.0
 40
0.0548785222085503
 50
92.2283965624548046
 51
143.9212734935242963
  0
ARC
  5
EEBE
  8
0
 10
370.8799577926200186
 20
80.377614764962388
 30
0.0
 40
0.0553814713556675
 50
143.9212734935242963
 51
186.7948127526722999
  0
ARC
  5
EEBF
  8
0
 10
370.8802799392382212
 20
80.3776531490411656
 30
0.0
 40
0.0557058966647677
 50
186.7948127526730957
 51
249.0774063478827998
  0
ARC
  5
EEC0
  8
0
 10
370.8800745089636735
 20
80.3771158162192449
 30
0.0
 40
0.055130633108497
 50
249.0774063478827998
 51
335.6278903738090094
  0
ARC
  5
EEC1
  8
0
 10
370.8797203188278218
 20
80.3772762761467163
 30
0.0
 40
0.0555194750310309
 50
335.6278903738082136
 51
92.3772187280729753
  0
ARC
  5
EEC2
  8
0
 10
370.8733021884398795
 20
80.3843347446034215
 30
0.0
 40
0.0217449548892826
 50
85.1887842861532789
 51
192.7659035984063109
  0
ARC
  5
EEC3
  8
0
 10
370.8729019736239252
 20
80.3842440684533557
 30
0.0
 40
0.0213345964324063
 50
192.7659035984079026
 51
287.7877673320970189
  0
ARC
  5
EEC4
  8
0
 10
370.8727236572458992
 20
80.3847998666046664
 30
0.0
 40
0.0219182986815723
 50
287.7877673320970189
 51
14.4954053845797901
  0
ARC
  5
EEC5
  8
0
 10
370.8735730124072916
 20
80.3850194521200763
 30
0.0
 40
0.0210410176610874
 50
14.4954053845789996
 51
85.767282760949854
  0
ARC
  5
EEC6
  8
0
 10
370.6219210802594262
 20
80.3766378503663503
 30
0.0
 40
0.0728346832028418
 50
89.941817833885878
 51
270.0581821661140793
  0
ARC
  5
EEC7
  8
0
 10
370.6219210802594262
 20
80.376637850366393
 30
0.0
 40
0.0728346832028808
 50
270.0581821661140793
 51
89.9418177552189633
  0
ARC
  5
EEC8
  8
0
 10
370.6247881740264916
 20
80.3779109498623399
 30
0.0
 40
0.0548785222085503
 50
92.2283965624548046
 51
143.9212734935242963
  0
ARC
  5
EEC9
  8
0
 10
370.6251946618488091
 20
80.377614764962388
 30
0.0
 40
0.0553814713556675
 50
143.9212734935242963
 51
186.7948127526722999
  0
ARC
  5
EECA
  8
0
 10
370.6255168084671254
 20
80.3776531490411656
 30
0.0
 40
0.0557058966647677
 50
186.7948127526730957
 51
249.0774063478827998
  0
ARC
  5
EECB
  8
0
 10
370.6253113781925776
 20
80.3771158162192449
 30
0.0
 40
0.055130633108497
 50
249.0774063478827998
 51
335.6278903738090094
  0
ARC
  5
EECC
  8
0
 10
370.624957188056726
 20
80.3772762761467163
 30
0.0
 40
0.0555194750310309
 50
335.6278903738082136
 51
92.3772187280729753
  0
ARC
  5
EECD
  8
0
 10
370.6185390576687269
 20
80.3843347446034215
 30
0.0
 40
0.0217449548892826
 50
85.1887842861532789
 51
192.7659035984063109
  0
ARC
  5
EECE
  8
0
 10
370.6181388428527725
 20
80.3842440684533557
 30
0.0
 40
0.0213345964324063
 50
192.7659035984079026
 51
287.7877673320970189
  0
ARC
  5
EECF
  8
0
 10
370.6179605264746897
 20
80.3847998666046664
 30
0.0
 40
0.0219182986815723
 50
287.7877673320970189
 51
14.4954053845797901
  0
ARC
  5
EED0
  8
0
 10
370.6188098816360821
 20
80.3850194521200763
 30
0.0
 40
0.0210410176610874
 50
14.4954053845789996
 51
85.767282760949854
  0
ARC
  5
EED1
  8
0
 10
370.7502785875897189
 20
80.2513168701723458
 30
0.0
 40
0.0728346832028418
 50
89.941817833885878
 51
270.0581821661140793
  0
ARC
  5
EED2
  8
0
 10
370.7502785875897189
 20
80.2513168701724169
 30
0.0
 40
0.0728346832028808
 50
270.0581821661140793
 51
89.9418177552189633
  0
ARC
  5
EED3
  8
0
 10
370.753145681356898
 20
80.2525899696683354
 30
0.0
 40
0.0548785222085503
 50
92.2283965624548046
 51
143.9212734935242963
  0
ARC
  5
EED4
  8
0
 10
370.7535521691791018
 20
80.2522937847683835
 30
0.0
 40
0.0553814713556675
 50
143.9212734935242963
 51
186.7948127526722999
  0
ARC
  5
EED5
  8
0
 10
370.7538743157974181
 20
80.2523321688471611
 30
0.0
 40
0.0557058966647677
 50
186.7948127526730957
 51
249.0774063478827998
  0
ARC
  5
EED6
  8
0
 10
370.7536688855229272
 20
80.2517948360252547
 30
0.0
 40
0.055130633108497
 50
249.0774063478827998
 51
335.6278903738090094
  0
ARC
  5
EED7
  8
0
 10
370.7533146953870187
 20
80.2519552959526976
 30
0.0
 40
0.0555194750310309
 50
335.6278903738082136
 51
92.3772187280729753
  0
ARC
  5
EED8
  8
0
 10
370.7468965649990196
 20
80.259013764409417
 30
0.0
 40
0.0217449548892826
 50
85.1887842861532789
 51
192.7659035984063109
  0
ARC
  5
EED9
  8
0
 10
370.7464963501831221
 20
80.2589230882593654
 30
0.0
 40
0.0213345964324063
 50
192.7659035984079026
 51
287.7877673320970189
  0
ARC
  5
EEDA
  8
0
 10
370.7463180338049824
 20
80.2594788864106761
 30
0.0
 40
0.0219182986815723
 50
287.7877673320970189
 51
14.4954053845797901
  0
ARC
  5
EEDB
  8
0
 10
370.7471673889663748
 20
80.2596984719260718
 30
0.0
 40
0.0210410176610874
 50
14.4954053845789996
 51
85.767282760949854
  0
ARC
  5
EEDC
  8
0
 10
370.7518304952723156
 20
80.5008234242833254
 30
0.0
 40
0.0728346832028418
 50
89.941817833885878
 51
270.0581821661140793
  0
ARC
  5
EEDD
  8
0
 10
370.7518304952723156
 20
80.500823424283368
 30
0.0
 40
0.0728346832028808
 50
270.0581821661140793
 51
89.9418177552189633
  0
ARC
  5
EEDE
  8
0
 10
370.754697589039381
 20
80.5020965237793149
 30
0.0
 40
0.0548785222085503
 50
92.2283965624548046
 51
143.9212734935242963
  0
ARC
  5
EEDF
  8
0
 10
370.7551040768616986
 20
80.501800338879363
 30
0.0
 40
0.0553814713556675
 50
143.9212734935242963
 51
186.7948127526722999
  0
ARC
  5
EEE0
  8
0
 10
370.7554262234800149
 20
80.5018387229581407
 30
0.0
 40
0.0557058966647677
 50
186.7948127526730957
 51
249.0774063478827998
  0
ARC
  5
EEE1
  8
0
 10
370.7552207932055239
 20
80.5013013901362342
 30
0.0
 40
0.055130633108497
 50
249.0774063478827998
 51
335.6278903738090094
  0
ARC
  5
EEE2
  8
0
 10
370.7548666030695017
 20
80.5014618500636914
 30
0.0
 40
0.0555194750310309
 50
335.6278903738082136
 51
92.3772187280729753
  0
ARC
  5
EEE3
  8
0
 10
370.7484484726816163
 20
80.5085203185203966
 30
0.0
 40
0.0217449548892826
 50
85.1887842861532789
 51
192.7659035984063109
  0
ARC
  5
EEE4
  8
0
 10
370.7480482578656051
 20
80.5084296423703449
 30
0.0
 40
0.0213345964324063
 50
192.7659035984079026
 51
287.7877673320970189
  0
ARC
  5
EEE5
  8
0
 10
370.7478699414875791
 20
80.5089854405216556
 30
0.0
 40
0.0219182986815723
 50
287.7877673320970189
 51
14.4954053845797901
  0
ARC
  5
EEE6
  8
0
 10
370.7487192966490284
 20
80.5092050260370513
 30
0.0
 40
0.0210410176610874
 50
14.4954053845789996
 51
85.767282760949854
  0
ARC
  5
EEE7
  8
0
 10
370.6283275062368716
 20
80.6211788701130843
 30
0.0
 40
0.0728346832028418
 50
89.941817833885878
 51
270.0581821661140793
  0
ARC
  5
EEE8
  8
0
 10
370.6283275062368716
 20
80.6211788701131411
 30
0.0
 40
0.0728346832028808
 50
270.0581821661140793
 51
89.9418177552189633
  0
ARC
  5
EEE9
  8
0
 10
370.6311946000039939
 20
80.6224519696090738
 30
0.0
 40
0.0548785222085503
 50
92.2283965624548046
 51
143.9212734935242963
  0
ARC
  5
EEEA
  8
0
 10
370.6316010878263114
 20
80.6221557847090935
 30
0.0
 40
0.0553814713556675
 50
143.9212734935242963
 51
186.7948127526722999
  0
ARC
  5
EEEB
  8
0
 10
370.6319232344446277
 20
80.6221941687878854
 30
0.0
 40
0.0557058966647677
 50
186.7948127526730957
 51
249.0774063478827998
  0
ARC
  5
EEEC
  8
0
 10
370.6317178041700799
 20
80.6216568359659931
 30
0.0
 40
0.055130633108497
 50
249.0774063478827998
 51
335.6278903738090094
  0
ARC
  5
EEED
  8
0
 10
370.6313636140342282
 20
80.621817295893436
 30
0.0
 40
0.0555194750310309
 50
335.6278903738082136
 51
92.3772187280729753
  0
ARC
  5
EEEE
  8
0
 10
370.6249454836461723
 20
80.6288757643501555
 30
0.0
 40
0.0217449548892826
 50
85.1887842861532789
 51
192.7659035984063109
  0
ARC
  5
EEEF
  8
0
 10
370.6245452688302748
 20
80.6287850882001038
 30
0.0
 40
0.0213345964324063
 50
192.7659035984079026
 51
287.7877673320970189
  0
ARC
  5
EEF0
  8
0
 10
370.624366952452192
 20
80.6293408863514145
 30
0.0
 40
0.0219182986815723
 50
287.7877673320970189
 51
14.4954053845797901
  0
ARC
  5
EEF1
  8
0
 10
370.6252163076138118
 20
80.6295604718668102
 30
0.0
 40
0.0210410176610874
 50
14.4954053845789996
 51
85.767282760949854
  0
ARC
  5
EEF2
  8
0
 10
370.6245986352669775
 20
80.1231499314743729
 30
0.0
 40
0.0728346832028418
 50
89.941817833885878
 51
270.0581821661140793
  0
ARC
  5
EEF3
  8
0
 10
370.6245986352669775
 20
80.1231499314744298
 30
0.0
 40
0.0728346832028808
 50
270.0581821661140793
 51
89.9418177552189633
  0
ARC
  5
EEF4
  8
0
 10
370.6274657290342134
 20
80.1244230309703767
 30
0.0
 40
0.0548785222085503
 50
92.2283965624548046
 51
143.9212734935242963
  0
ARC
  5
EEF5
  8
0
 10
370.6278722168564173
 20
80.1241268460703964
 30
0.0
 40
0.0553814713556675
 50
143.9212734935242963
 51
186.7948127526722999
  0
ARC
  5
EEF6
  8
0
 10
370.6281943634746767
 20
80.124165230149174
 30
0.0
 40
0.0557058966647677
 50
186.7948127526730957
 51
249.0774063478827998
  0
ARC
  5
EEF7
  8
0
 10
370.6279889332001858
 20
80.1236278973272817
 30
0.0
 40
0.055130633108497
 50
249.0774063478827998
 51
335.6278903738090094
  0
ARC
  5
EEF8
  8
0
 10
370.6276347430642772
 20
80.1237883572547389
 30
0.0
 40
0.0555194750310309
 50
335.6278903738082136
 51
92.3772187280729753
  0
ARC
  5
EEF9
  8
0
 10
370.6212166126762781
 20
80.1308468257114441
 30
0.0
 40
0.0217449548892826
 50
85.1887842861532789
 51
192.7659035984063109
  0
ARC
  5
EEFA
  8
0
 10
370.6208163978603807
 20
80.1307561495613925
 30
0.0
 40
0.0213345964324063
 50
192.7659035984079026
 51
287.7877673320970189
  0
ARC
  5
EEFB
  8
0
 10
370.6206380814822978
 20
80.1313119477127032
 30
0.0
 40
0.0219182986815723
 50
287.7877673320970189
 51
14.4954053845797901
  0
ARC
  5
EEFC
  8
0
 10
370.6214874366438039
 20
80.1315315332280846
 30
0.0
 40
0.0210410176610874
 50
14.4954053845789996
 51
85.767282760949854
  0
ARC
  5
EEFD
  8
0
 10
370.7497940449848102
 20
79.999082148138271
 30
0.0
 40
0.0728346832028418
 50
89.941817833885878
 51
270.0581821661140793
  0
ARC
  5
EEFE
  8
0
 10
370.7497940449848102
 20
79.9990821481383136
 30
0.0
 40
0.0728346832028808
 50
270.0581821661140793
 51
89.9418177552189633
  0
ARC
  5
EEFF
  8
0
 10
370.7526611387518756
 20
80.0003552476342605
 30
0.0
 40
0.0548785222085503
 50
92.2283965624548046
 51
143.9212734935242963
  0
ARC
  5
EF00
  8
0
 10
370.7530676265741931
 20
80.0000590627343087
 30
0.0
 40
0.0553814713556675
 50
143.9212734935242963
 51
186.7948127526722999
  0
ARC
  5
EF01
  8
0
 10
370.7533897731923958
 20
80.0000974468130863
 30
0.0
 40
0.0557058966647677
 50
186.7948127526730957
 51
249.0774063478827998
  0
ARC
  5
EF02
  8
0
 10
370.7531843429180185
 20
79.9995601139911798
 30
0.0
 40
0.055130633108497
 50
249.0774063478827998
 51
335.6278903738090094
  0
ARC
  5
EF03
  8
0
 10
370.7528301527819963
 20
79.999720573918637
 30
0.0
 40
0.0555194750310309
 50
335.6278903738082136
 51
92.3772187280729753
  0
ARC
  5
EF04
  8
0
 10
370.7464120223941109
 20
80.0067790423753422
 30
0.0
 40
0.0217449548892826
 50
85.1887842861532789
 51
192.7659035984063109
  0
ARC
  5
EF05
  8
0
 10
370.7460118075782134
 20
80.0066883662252764
 30
0.0
 40
0.0213345964324063
 50
192.7659035984079026
 51
287.7877673320970189
  0
ARC
  5
EF06
  8
0
 10
370.7458334912000737
 20
80.0072441643766155
 30
0.0
 40
0.0219182986815723
 50
287.7877673320970189
 51
14.4954053845797901
  0
ARC
  5
EF07
  8
0
 10
370.7466828463615229
 20
80.0074637498919969
 30
0.0
 40
0.0210410176610874
 50
14.4954053845789996
 51
85.767282760949854
  0
ARC
  5
EF08
  8
0
 10
370.8808142510636117
 20
80.1216915719013656
 30
0.0
 40
0.0728346832028418
 50
89.941817833885878
 51
270.0581821661140793
  0
ARC
  5
EF09
  8
0
 10
370.8808142510636117
 20
80.1216915719014082
 30
0.0
 40
0.0728346832028808
 50
270.0581821661140793
 51
89.9418177552189633
  0
ARC
  5
EF0A
  8
0
 10
370.8836813448307907
 20
80.1229646713973551
 30
0.0
 40
0.0548785222085503
 50
92.2283965624548046
 51
143.9212734935242963
  0
ARC
  5
EF0B
  8
0
 10
370.8840878326529946
 20
80.1226684864974033
 30
0.0
 40
0.0553814713556675
 50
143.9212734935242963
 51
186.7948127526722999
  0
ARC
  5
EF0C
  8
0
 10
370.8844099792713109
 20
80.1227068705761809
 30
0.0
 40
0.0557058966647677
 50
186.7948127526730957
 51
249.0774063478827998
  0
ARC
  5
EF0D
  8
0
 10
370.8842045489967063
 20
80.1221695377542744
 30
0.0
 40
0.055130633108497
 50
249.0774063478827998
 51
335.6278903738090094
  0
ARC
  5
EF0E
  8
0
 10
370.8838503588609115
 20
80.1223299976817316
 30
0.0
 40
0.0555194750310309
 50
335.6278903738082136
 51
92.3772187280729753
  0
ARC
  5
EF0F
  8
0
 10
370.8774322284729124
 20
80.1293884661384368
 30
0.0
 40
0.0217449548892826
 50
85.1887842861532789
 51
192.7659035984063109
  0
ARC
  5
EF10
  8
0
 10
370.8770320136570149
 20
80.1292977899883851
 30
0.0
 40
0.0213345964324063
 50
192.7659035984079026
 51
287.7877673320970189
  0
ARC
  5
EF11
  8
0
 10
370.8768536972788752
 20
80.1298535881396958
 30
0.0
 40
0.0219182986815723
 50
287.7877673320970189
 51
14.4954053845797901
  0
ARC
  5
EF12
  8
0
 10
370.8777030524403244
 20
80.1300731736550915
 30
0.0
 40
0.0210410176610874
 50
14.4954053845789996
 51
85.767282760949854
  0
ARC
  5
EF13
  8
0
 10
371.1318964579425028
 20
80.1253924829183433
 30
0.0
 40
0.0728346832028418
 50
89.941817833885878
 51
270.0581821661140793
  0
ARC
  5
EF14
  8
0
 10
371.1318964579425028
 20
80.1253924829184001
 30
0.0
 40
0.0728346832028808
 50
270.0581821661140793
 51
89.9418177552189633
  0
ARC
  5
EF15
  8
0
 10
371.1347635517096251
 20
80.1266655824143186
 30
0.0
 40
0.0548785222085503
 50
92.2283965624548046
 51
143.9212734935242963
  0
ARC
  5
EF16
  8
0
 10
371.1351700395318858
 20
80.1263693975143809
 30
0.0
 40
0.0553814713556675
 50
143.9212734935242963
 51
186.7948127526722999
  0
ARC
  5
EF17
  8
0
 10
371.1354921861500884
 20
80.1264077815931444
 30
0.0
 40
0.0557058966647677
 50
186.7948127526730957
 51
249.0774063478827998
  0
ARC
  5
EF18
  8
0
 10
371.1352867558757112
 20
80.1258704487712521
 30
0.0
 40
0.055130633108497
 50
249.0774063478827998
 51
335.6278903738090094
  0
ARC
  5
EF19
  8
0
 10
371.1349325657398026
 20
80.1260309086987093
 30
0.0
 40
0.0555194750310309
 50
335.6278903738082136
 51
92.3772187280729753
  0
ARC
  5
EF1A
  8
0
 10
371.1285144353518035
 20
80.1330893771554145
 30
0.0
 40
0.0217449548892826
 50
85.1887842861532789
 51
192.7659035984063109
  0
ARC
  5
EF1B
  8
0
 10
371.128114220535906
 20
80.132998701005377
 30
0.0
 40
0.0213345964324063
 50
192.7659035984079026
 51
287.7877673320970189
  0
ARC
  5
EF1C
  8
0
 10
371.1279359041578232
 20
80.1335544991566735
 30
0.0
 40
0.0219182986815723
 50
287.7877673320970189
 51
14.4954053845797901
  0
ARC
  5
EF1D
  8
0
 10
371.1287852593192156
 20
80.133774084672055
 30
0.0
 40
0.0210410176610874
 50
14.4954053845789996
 51
85.767282760949854
  0
ARC
  5
EF1E
  8
0
 10
371.0036446586096872
 20
79.9988001842385756
 30
0.0
 40
0.0728346832028418
 50
89.941817833885878
 51
270.0581821661140793
  0
ARC
  5
EF1F
  8
0
 10
371.0036446586096872
 20
79.9988001842386467
 30
0.0
 40
0.0728346832028808
 50
270.0581821661140793
 51
89.9418177552189633
  0
ARC
  5
EF20
  8
0
 10
371.0065117523768095
 20
80.0000732837345794
 30
0.0
 40
0.0548785222085503
 50
92.2283965624548046
 51
143.9212734935242963
  0
ARC
  5
EF21
  8
0
 10
371.006918240199127
 20
79.9997770988346275
 30
0.0
 40
0.0553814713556675
 50
143.9212734935242963
 51
186.7948127526722999
  0
ARC
  5
EF22
  8
0
 10
371.0072403868172728
 20
79.9998154829134052
 30
0.0
 40
0.0557058966647677
 50
186.7948127526730957
 51
249.0774063478827998
  0
ARC
  5
EF23
  8
0
 10
371.0070349565428955
 20
79.9992781500914987
 30
0.0
 40
0.055130633108497
 50
249.0774063478827998
 51
335.6278903738090094
  0
ARC
  5
EF24
  8
0
 10
371.0066807664068733
 20
79.9994386100189558
 30
0.0
 40
0.0555194750310309
 50
335.6278903738082136
 51
92.3772187280729753
  0
ARC
  5
EF25
  8
0
 10
371.0002626360189879
 20
80.0064970784756611
 30
0.0
 40
0.0217449548892826
 50
85.1887842861532789
 51
192.7659035984063109
  0
ARC
  5
EF26
  8
0
 10
370.9998624212029767
 20
80.0064064023255952
 30
0.0
 40
0.0213345964324063
 50
192.7659035984079026
 51
287.7877673320970189
  0
ARC
  5
EF27
  8
0
 10
370.9996841048250076
 20
80.0069622004769059
 30
0.0
 40
0.0219182986815723
 50
287.7877673320970189
 51
14.4954053845797901
  0
ARC
  5
EF28
  8
0
 10
371.0005334599864
 20
80.0071817859923158
 30
0.0
 40
0.0210410176610874
 50
14.4954053845789996
 51
85.767282760949854
  0
ARC
  5
EF29
  8
0
 10
371.1221239065592954
 20
79.8749191392842306
 30
0.0
 40
0.0728346832028418
 50
89.941817833885878
 51
270.0581821661140793
  0
ARC
  5
EF2A
  8
0
 10
371.1221239065592954
 20
79.8749191392842874
 30
0.0
 40
0.0728346832028808
 50
270.0581821661140793
 51
89.9418177552189633
  0
ARC
  5
EF2B
  8
0
 10
371.1249910003264176
 20
79.8761922387802201
 30
0.0
 40
0.0548785222085503
 50
92.2283965624548046
 51
143.9212734935242963
  0
ARC
  5
EF2C
  8
0
 10
371.1253974881486783
 20
79.8758960538802683
 30
0.0
 40
0.0553814713556675
 50
143.9212734935242963
 51
186.7948127526722999
  0
ARC
  5
EF2D
  8
0
 10
371.125719634766881
 20
79.8759344379590459
 30
0.0
 40
0.0557058966647677
 50
186.7948127526730957
 51
249.0774063478827998
  0
ARC
  5
EF2E
  8
0
 10
371.1255142044925037
 20
79.8753971051371394
 30
0.0
 40
0.055130633108497
 50
249.0774063478827998
 51
335.6278903738090094
  0
ARC
  5
EF2F
  8
0
 10
371.1251600143564815
 20
79.8755575650645824
 30
0.0
 40
0.0555194750310309
 50
335.6278903738082136
 51
92.3772187280729753
  0
ARC
  5
EF30
  8
0
 10
371.1187418839685961
 20
79.8826160335213018
 30
0.0
 40
0.0217449548892826
 50
85.1887842861532789
 51
192.7659035984063109
  0
ARC
  5
EF31
  8
0
 10
371.1183416691525849
 20
79.8825253573712502
 30
0.0
 40
0.0213345964324063
 50
192.7659035984079026
 51
287.7877673320970189
  0
ARC
  5
EF32
  8
0
 10
371.1181633527746158
 20
79.8830811555225608
 30
0.0
 40
0.0219182986815723
 50
287.7877673320970189
 51
14.4954053845797901
  0
ARC
  5
EF33
  8
0
 10
371.1190127079361218
 20
79.8833007410379565
 30
0.0
 40
0.0210410176610874
 50
14.4954053845789996
 51
85.767282760949854
  0
ARC
  5
EF34
  8
0
 10
370.8802837256369003
 20
79.8672418785130844
 30
0.0
 40
0.0728346832028418
 50
89.941817833885878
 51
270.0581821661140793
  0
ARC
  5
EF35
  8
0
 10
370.8802837256369003
 20
79.8672418785131413
 30
0.0
 40
0.0728346832028808
 50
270.0581821661140793
 51
89.9418177552189633
  0
ARC
  5
EF36
  8
0
 10
370.8831508194040225
 20
79.868514978009074
 30
0.0
 40
0.0548785222085503
 50
92.2283965624548046
 51
143.9212734935242963
  0
ARC
  5
EF37
  8
0
 10
370.8835573072262832
 20
79.8682187931091079
 30
0.0
 40
0.0553814713556675
 50
143.9212734935242963
 51
186.7948127526722999
  0
ARC
  5
EF38
  8
0
 10
370.8838794538444859
 20
79.8682571771878855
 30
0.0
 40
0.0557058966647677
 50
186.7948127526730957
 51
249.0774063478827998
  0
ARC
  5
EF39
  8
0
 10
370.8836740235699949
 20
79.8677198443659933
 30
0.0
 40
0.055130633108497
 50
249.0774063478827998
 51
335.6278903738090094
  0
ARC
  5
EF3A
  8
0
 10
370.8833198334342001
 20
79.8678803042934362
 30
0.0
 40
0.0555194750310309
 50
335.6278903738082136
 51
92.3772187280729753
  0
ARC
  5
EF3B
  8
0
 10
370.8769017030463147
 20
79.8749387727501556
 30
0.0
 40
0.0217449548892826
 50
85.1887842861532789
 51
192.7659035984063109
  0
ARC
  5
EF3C
  8
0
 10
370.8765014882303035
 20
79.874848096600104
 30
0.0
 40
0.0213345964324063
 50
192.7659035984079026
 51
287.7877673320970189
  0
ARC
  5
EF3D
  8
0
 10
370.876323171852107
 20
79.8754038947514147
 30
0.0
 40
0.0219182986815723
 50
287.7877673320970189
 51
14.4954053845797901
  0
ARC
  5
EF3E
  8
0
 10
370.8771725270137267
 20
79.8756234802668104
 30
0.0
 40
0.0210410176610874
 50
14.4954053845789996
 51
85.767282760949854
  0
ARC
  5
EF3F
  8
0
 10
370.6201480428738932
 20
79.8690355220202406
 30
0.0
 40
0.0728346832028418
 50
89.941817833885878
 51
270.0581821661140793
  0
ARC
  5
EF40
  8
0
 10
370.6201480428738932
 20
79.8690355220202832
 30
0.0
 40
0.0728346832028808
 50
270.0581821661140793
 51
89.9418177552189633
  0
ARC
  5
EF41
  8
0
 10
370.6230151366410155
 20
79.8703086215162301
 30
0.0
 40
0.0548785222085503
 50
92.2283965624548046
 51
143.9212734935242963
  0
ARC
  5
EF42
  8
0
 10
370.6234216244632762
 20
79.8700124366162783
 30
0.0
 40
0.0553814713556675
 50
143.9212734935242963
 51
186.7948127526722999
  0
ARC
  5
EF43
  8
0
 10
370.6237437710814788
 20
79.8700508206950559
 30
0.0
 40
0.0557058966647677
 50
186.7948127526730957
 51
249.0774063478827998
  0
ARC
  5
EF44
  8
0
 10
370.6235383408071016
 20
79.8695134878731352
 30
0.0
 40
0.055130633108497
 50
249.0774063478827998
 51
335.6278903738090094
  0
ARC
  5
EF45
  8
0
 10
370.6231841506710794
 20
79.8696739478006066
 30
0.0
 40
0.0555194750310309
 50
335.6278903738082136
 51
92.3772187280729753
  0
ARC
  5
EF46
  8
0
 10
370.6167660202831939
 20
79.8767324162573118
 30
0.0
 40
0.0217449548892826
 50
85.1887842861532789
 51
192.7659035984063109
  0
ARC
  5
EF47
  8
0
 10
370.6163658054672965
 20
79.8766417401072601
 30
0.0
 40
0.0213345964324063
 50
192.7659035984079026
 51
287.7877673320970189
  0
ARC
  5
EF48
  8
0
 10
370.6161874890890999
 20
79.8771975382585708
 30
0.0
 40
0.0219182986815723
 50
287.7877673320970189
 51
14.4954053845797901
  0
ARC
  5
EF49
  8
0
 10
370.617036844250606
 20
79.8774171237739665
 30
0.0
 40
0.0210410176610874
 50
14.4954053845789996
 51
85.767282760949854
  0
ARC
  5
EF4A
  8
0
 10
370.7491912237015868
 20
79.7453066562713246
 30
0.0
 40
0.0728346832028418
 50
89.941817833885878
 51
270.0581821661140793
  0
ARC
  5
EF4B
  8
0
 10
370.7491912237015868
 20
79.7453066562713815
 30
0.0
 40
0.0728346832028808
 50
270.0581821661140793
 51
89.9418177552189633
  0
ARC
  5
EF4C
  8
0
 10
370.752058317468709
 20
79.7465797557673142
 30
0.0
 40
0.0548785222085503
 50
92.2283965624548046
 51
143.9212734935242963
  0
ARC
  5
EF4D
  8
0
 10
370.7524648052910266
 20
79.7462835708673623
 30
0.0
 40
0.0553814713556675
 50
143.9212734935242963
 51
186.7948127526722999
  0
ARC
  5
EF4E
  8
0
 10
370.7527869519091723
 20
79.7463219549461257
 30
0.0
 40
0.0557058966647677
 50
186.7948127526730957
 51
249.0774063478827998
  0
ARC
  5
EF4F
  8
0
 10
370.7525815216346814
 20
79.7457846221242335
 30
0.0
 40
0.055130633108497
 50
249.0774063478827998
 51
335.6278903738090094
  0
ARC
  5
EF50
  8
0
 10
370.7522273314987729
 20
79.7459450820516906
 30
0.0
 40
0.0555194750310309
 50
335.6278903738082136
 51
92.3772187280729753
  0
ARC
  5
EF51
  8
0
 10
370.7458092011108874
 20
79.7530035505083958
 30
0.0
 40
0.0217449548892826
 50
85.1887842861532789
 51
192.7659035984063109
  0
ARC
  5
EF52
  8
0
 10
370.7454089862948763
 20
79.7529128743583442
 30
0.0
 40
0.0213345964324063
 50
192.7659035984079026
 51
287.7877673320970189
  0
ARC
  5
EF53
  8
0
 10
370.7452306699169071
 20
79.7534686725096549
 30
0.0
 40
0.0219182986815723
 50
287.7877673320970189
 51
14.4954053845797901
  0
ARC
  5
EF54
  8
0
 10
370.7460800250782995
 20
79.7536882580250506
 30
0.0
 40
0.0210410176610874
 50
14.4954053845789996
 51
85.767282760949854
  0
ARC
  5
EF55
  8
0
 10
370.6227090333870251
 20
79.6215135018903339
 30
0.0
 40
0.0728346832028418
 50
89.941817833885878
 51
270.0581821661140793
  0
ARC
  5
EF56
  8
0
 10
370.6227090333870251
 20
79.6215135018903908
 30
0.0
 40
0.0728346832028808
 50
270.0581821661140793
 51
89.9418177552189633
  0
ARC
  5
EF57
  8
0
 10
370.6255761271540905
 20
79.6227866013863235
 30
0.0
 40
0.0548785222085503
 50
92.2283965624548046
 51
143.9212734935242963
  0
ARC
  5
EF58
  8
0
 10
370.6259826149762944
 20
79.6224904164863716
 30
0.0
 40
0.0553814713556675
 50
143.9212734935242963
 51
186.7948127526722999
  0
ARC
  5
EF59
  8
0
 10
370.6263047615946107
 20
79.6225288005651493
 30
0.0
 40
0.0557058966647677
 50
186.7948127526730957
 51
249.0774063478827998
  0
ARC
  5
EF5A
  8
0
 10
370.6260993313201197
 20
79.6219914677432428
 30
0.0
 40
0.055130633108497
 50
249.0774063478827998
 51
335.6278903738090094
  0
ARC
  5
EF5B
  8
0
 10
370.6257451411842112
 20
79.6221519276706999
 30
0.0
 40
0.0555194750310309
 50
335.6278903738082136
 51
92.3772187280729753
  0
ARC
  5
EF5C
  8
0
 10
370.6193270107963258
 20
79.6292103961274051
 30
0.0
 40
0.0217449548892826
 50
85.1887842861532789
 51
192.7659035984063109
  0
ARC
  5
EF5D
  8
0
 10
370.6189267959803146
 20
79.6291197199773535
 30
0.0
 40
0.0213345964324063
 50
192.7659035984079026
 51
287.7877673320970189
  0
ARC
  5
EF5E
  8
0
 10
370.6187484796021749
 20
79.6296755181286642
 30
0.0
 40
0.0219182986815723
 50
287.7877673320970189
 51
14.4954053845797901
  0
ARC
  5
EF5F
  8
0
 10
370.619597834763681
 20
79.6298951036440599
 30
0.0
 40
0.0210410176610874
 50
14.4954053845789996
 51
85.767282760949854
  0
ARC
  5
EF60
  8
0
 10
370.7532166985262734
 20
79.4946664217526546
 30
0.0
 40
0.0728346832028418
 50
89.941817833885878
 51
270.0581821661140793
  0
ARC
  5
EF61
  8
0
 10
370.7532166985262734
 20
79.4946664217527115
 30
0.0
 40
0.0728346832028808
 50
270.0581821661140793
 51
89.9418177552189633
  0
ARC
  5
EF62
  8
0
 10
370.7560837922935093
 20
79.4959395212486442
 30
0.0
 40
0.0548785222085503
 50
92.2283965624548046
 51
143.9212734935242963
  0
ARC
  5
EF63
  8
0
 10
370.7564902801157132
 20
79.4956433363486923
 30
0.0
 40
0.0553814713556675
 50
143.9212734935242963
 51
186.7948127526722999
  0
ARC
  5
EF64
  8
0
 10
370.7568124267339726
 20
79.4956817204274699
 30
0.0
 40
0.0557058966647677
 50
186.7948127526730957
 51
249.0774063478827998
  0
ARC
  5
EF65
  8
0
 10
370.7566069964594817
 20
79.4951443876055635
 30
0.0
 40
0.055130633108497
 50
249.0774063478827998
 51
335.6278903738090094
  0
ARC
  5
EF66
  8
0
 10
370.7562528063235732
 20
79.4953048475330206
 30
0.0
 40
0.0555194750310309
 50
335.6278903738082136
 51
92.3772187280729753
  0
ARC
  5
EF67
  8
0
 10
370.7498346759355741
 20
79.5023633159897258
 30
0.0
 40
0.0217449548892826
 50
85.1887842861532789
 51
192.7659035984063109
  0
ARC
  5
EF68
  8
0
 10
370.7494344611196766
 20
79.5022726398396742
 30
0.0
 40
0.0213345964324063
 50
192.7659035984079026
 51
287.7877673320970189
  0
ARC
  5
EF69
  8
0
 10
370.7492561447415937
 20
79.5028284379909849
 30
0.0
 40
0.0219182986815723
 50
287.7877673320970189
 51
14.4954053845797901
  0
ARC
  5
EF6A
  8
0
 10
370.7501054999029861
 20
79.5030480235063806
 30
0.0
 40
0.0210410176610874
 50
14.4954053845789996
 51
85.767282760949854
  0
ARC
  5
EF6B
  8
0
 10
370.8800171556227951
 20
79.6162396767244331
 30
0.0
 40
0.0728346832028418
 50
89.941817833885878
 51
270.0581821661140793
  0
ARC
  5
EF6C
  8
0
 10
370.8800171556227951
 20
79.6162396767245042
 30
0.0
 40
0.0728346832028808
 50
270.0581821661140793
 51
89.9418177552189633
  0
ARC
  5
EF6D
  8
0
 10
370.8828842493899174
 20
79.6175127762204369
 30
0.0
 40
0.0548785222085503
 50
92.2283965624548046
 51
143.9212734935242963
  0
ARC
  5
EF6E
  8
0
 10
370.8832907372121781
 20
79.617216591320485
 30
0.0
 40
0.0553814713556675
 50
143.9212734935242963
 51
186.7948127526722999
  0
ARC
  5
EF6F
  8
0
 10
370.8836128838303807
 20
79.6172549753992627
 30
0.0
 40
0.0557058966647677
 50
186.7948127526730957
 51
249.0774063478827998
  0
ARC
  5
EF70
  8
0
 10
370.8834074535558898
 20
79.6167176425773562
 30
0.0
 40
0.055130633108497
 50
249.0774063478827998
 51
335.6278903738090094
  0
ARC
  5
EF71
  8
0
 10
370.8830532634200949
 20
79.6168781025048133
 30
0.0
 40
0.0555194750310309
 50
335.6278903738082136
 51
92.3772187280729753
  0
ARC
  5
EF72
  8
0
 10
370.8766351330320958
 20
79.6239365709615186
 30
0.0
 40
0.0217449548892826
 50
85.1887842861532789
 51
192.7659035984063109
  0
ARC
  5
EF73
  8
0
 10
370.8762349182160847
 20
79.6238458948114669
 30
0.0
 40
0.0213345964324063
 50
192.7659035984079026
 51
287.7877673320970189
  0
ARC
  5
EF74
  8
0
 10
370.8760566018380018
 20
79.6244016929627776
 30
0.0
 40
0.0219182986815723
 50
287.7877673320970189
 51
14.4954053845797901
  0
ARC
  5
EF75
  8
0
 10
370.8769059569995079
 20
79.6246212784781733
 30
0.0
 40
0.0210410176610874
 50
14.4954053845789996
 51
85.767282760949854
  0
ARC
  5
EF76
  8
0
 10
371.1241385997581119
 20
79.6250187099414291
 30
0.0
 40
0.0728346832028418
 50
89.941817833885878
 51
270.0581821661140793
  0
ARC
  5
EF77
  8
0
 10
371.1241385997581119
 20
79.6250187099414859
 30
0.0
 40
0.0728346832028808
 50
270.0581821661140793
 51
89.9418177552189633
  0
ARC
  5
EF78
  8
0
 10
371.1270056935251773
 20
79.6262918094374186
 30
0.0
 40
0.0548785222085503
 50
92.2283965624548046
 51
143.9212734935242963
  0
ARC
  5
EF79
  8
0
 10
371.1274121813474949
 20
79.6259956245374525
 30
0.0
 40
0.0553814713556675
 50
143.9212734935242963
 51
186.7948127526722999
  0
ARC
  5
EF7A
  8
0
 10
371.1277343279656975
 20
79.6260340086162302
 30
0.0
 40
0.0557058966647677
 50
186.7948127526730957
 51
249.0774063478827998
  0
ARC
  5
EF7B
  8
0
 10
371.1275288976913203
 20
79.6254966757943379
 30
0.0
 40
0.055130633108497
 50
249.0774063478827998
 51
335.6278903738090094
  0
ARC
  5
EF7C
  8
0
 10
371.127174707555298
 20
79.6256571357217808
 30
0.0
 40
0.0555194750310309
 50
335.6278903738082136
 51
92.3772187280729753
  0
ARC
  5
EF7D
  8
0
 10
371.1207565771674126
 20
79.6327156041785003
 30
0.0
 40
0.0217449548892826
 50
85.1887842861532789
 51
192.7659035984063109
  0
ARC
  5
EF7E
  8
0
 10
371.1203563623515151
 20
79.6326249280284486
 30
0.0
 40
0.0213345964324063
 50
192.7659035984079026
 51
287.7877673320970189
  0
ARC
  5
EF7F
  8
0
 10
371.1201780459733754
 20
79.6331807261797593
 30
0.0
 40
0.0219182986815723
 50
287.7877673320970189
 51
14.4954053845797901
  0
ARC
  5
EF80
  8
0
 10
371.1210274011348247
 20
79.633400311695155
 30
0.0
 40
0.0210410176610874
 50
14.4954053845789996
 51
85.767282760949854
  0
ARC
  5
EF81
  8
0
 10
370.9989105511691037
 20
79.7577433566315648
 30
0.0
 40
0.0728346832028418
 50
89.941817833885878
 51
270.0581821661140793
  0
ARC
  5
EF82
  8
0
 10
370.9989105511691037
 20
79.7577433566316216
 30
0.0
 40
0.0728346832028808
 50
270.0581821661140793
 51
89.9418177552189633
  0
ARC
  5
EF83
  8
0
 10
371.0017776449362259
 20
79.7590164561275543
 30
0.0
 40
0.0548785222085503
 50
92.2283965624548046
 51
143.9212734935242963
  0
ARC
  5
EF84
  8
0
 10
371.0021841327583729
 20
79.7587202712276024
 30
0.0
 40
0.0553814713556675
 50
143.9212734935242963
 51
186.7948127526722999
  0
ARC
  5
EF85
  8
0
 10
371.0025062793766892
 20
79.7587586553063801
 30
0.0
 40
0.0557058966647677
 50
186.7948127526730957
 51
249.0774063478827998
  0
ARC
  5
EF86
  8
0
 10
371.0023008491021983
 20
79.7582213224844736
 30
0.0
 40
0.055130633108497
 50
249.0774063478827998
 51
335.6278903738090094
  0
ARC
  5
EF87
  8
0
 10
371.0019466589662898
 20
79.7583817824119308
 30
0.0
 40
0.0555194750310309
 50
335.6278903738082136
 51
92.3772187280729753
  0
ARC
  5
EF88
  8
0
 10
370.9955285285782907
 20
79.7654402508686502
 30
0.0
 40
0.0217449548892826
 50
85.1887842861532789
 51
192.7659035984063109
  0
ARC
  5
EF89
  8
0
 10
370.9951283137623932
 20
79.7653495747185843
 30
0.0
 40
0.0213345964324063
 50
192.7659035984079026
 51
287.7877673320970189
  0
ARC
  5
EF8A
  8
0
 10
370.9949499973843103
 20
79.7659053728699092
 30
0.0
 40
0.0219182986815723
 50
287.7877673320970189
 51
14.4954053845797901
  0
ARC
  5
EF8B
  8
0
 10
370.9957993525458733
 20
79.7661249583852907
 30
0.0
 40
0.0210410176610874
 50
14.4954053845789996
 51
85.767282760949854
  0
ARC
  5
EF8C
  8
0
 10
370.7518562080285278
 20
77.9817851268910118
 30
0.0
 40
0.0728346832028418
 50
89.941817833885878
 51
270.0581821661140793
  0
ARC
  5
EF8D
  8
0
 10
370.7518562080285278
 20
77.9817851268910687
 30
0.0
 40
0.0728346832028808
 50
270.0581821661140793
 51
89.9418177552189633
  0
ARC
  5
EF8E
  8
0
 10
370.7547233017955932
 20
77.9830582263870014
 30
0.0
 40
0.0548785222085503
 50
92.2283965624548046
 51
143.9212734935242963
  0
ARC
  5
EF8F
  8
0
 10
370.7551297896177971
 20
77.9827620414870495
 30
0.0
 40
0.0553814713556675
 50
143.9212734935242963
 51
186.7948127526722999
  0
ARC
  5
EF90
  8
0
 10
370.7554519362361134
 20
77.9828004255658271
 30
0.0
 40
0.0557058966647677
 50
186.7948127526730957
 51
249.0774063478827998
  0
ARC
  5
EF91
  8
0
 10
370.7552465059616225
 20
77.9822630927439207
 30
0.0
 40
0.055130633108497
 50
249.0774063478827998
 51
335.6278903738090094
  0
ARC
  5
EF92
  8
0
 10
370.7548923158257139
 20
77.9824235526713778
 30
0.0
 40
0.0555194750310309
 50
335.6278903738082136
 51
92.3772187280729753
  0
ARC
  5
EF93
  8
0
 10
370.7484741854377717
 20
77.989482021128083
 30
0.0
 40
0.0217449548892826
 50
85.1887842861532789
 51
192.7659035984063109
  0
ARC
  5
EF94
  8
0
 10
370.7480739706218174
 20
77.9893913449780314
 30
0.0
 40
0.0213345964324063
 50
192.7659035984079026
 51
287.7877673320970189
  0
ARC
  5
EF95
  8
0
 10
370.7478956542436777
 20
77.9899471431293421
 30
0.0
 40
0.0219182986815723
 50
287.7877673320970189
 51
14.4954053845797901
  0
ARC
  5
EF96
  8
0
 10
370.7487450094051837
 20
77.9901667286447378
 30
0.0
 40
0.0210410176610874
 50
14.4954053845789996
 51
85.767282760949854
  0
ARC
  5
EF97
  8
0
 10
371.0026602569890883
 20
77.9877823898967932
 30
0.0
 40
0.0728346832028418
 50
89.941817833885878
 51
270.0581821661140793
  0
ARC
  5
EF98
  8
0
 10
371.0026602569890883
 20
77.9877823898968643
 30
0.0
 40
0.0728346832028808
 50
270.0581821661140793
 51
89.9418177552189633
  0
ARC
  5
EF99
  8
0
 10
371.0055273507562106
 20
77.989055489392797
 30
0.0
 40
0.0548785222085503
 50
92.2283965624548046
 51
143.9212734935242963
  0
ARC
  5
EF9A
  8
0
 10
371.0059338385785281
 20
77.9887593044928451
 30
0.0
 40
0.0553814713556675
 50
143.9212734935242963
 51
186.7948127526722999
  0
ARC
  5
EF9B
  8
0
 10
371.0062559851967876
 20
77.9887976885716228
 30
0.0
 40
0.0557058966647677
 50
186.7948127526730957
 51
249.0774063478827998
  0
ARC
  5
EF9C
  8
0
 10
371.006050554922183
 20
77.9882603557497305
 30
0.0
 40
0.055130633108497
 50
249.0774063478827998
 51
335.6278903738090094
  0
ARC
  5
EF9D
  8
0
 10
371.0056963647862744
 20
77.9884208156771734
 30
0.0
 40
0.0555194750310309
 50
335.6278903738082136
 51
92.3772187280729753
  0
ARC
  5
EF9E
  8
0
 10
370.9992782343985027
 20
77.9954792841338929
 30
0.0
 40
0.0217449548892826
 50
85.1887842861532789
 51
192.7659035984063109
  0
ARC
  5
EF9F
  8
0
 10
370.9988780195823779
 20
77.9953886079838412
 30
0.0
 40
0.0213345964324063
 50
192.7659035984079026
 51
287.7877673320970189
  0
ARC
  5
EFA0
  8
0
 10
370.9986997032045224
 20
77.9959444061351519
 30
0.0
 40
0.0219182986815723
 50
287.7877673320970189
 51
14.4954053845797901
  0
ARC
  5
EFA1
  8
0
 10
370.9995490583659148
 20
77.9961639916505476
 30
0.0
 40
0.0210410176610874
 50
14.4954053845789996
 51
85.767282760949854
  0
ARC
  5
EFA2
  8
0
 10
371.1274676191155208
 20
78.1090808659343736
 30
0.0
 40
0.0728346832028418
 50
89.941817833885878
 51
270.0581821661140793
  0
ARC
  5
EFA3
  8
0
 10
371.1274676191155208
 20
78.1090808659344304
 30
0.0
 40
0.0728346832028808
 50
270.0581821661140793
 51
89.9418177552189633
  0
ARC
  5
EFA4
  8
0
 10
371.1303347128825862
 20
78.1103539654303631
 30
0.0
 40
0.0548785222085503
 50
92.2283965624548046
 51
143.9212734935242963
  0
ARC
  5
EFA5
  8
0
 10
371.1307412007049038
 20
78.1100577805304113
 30
0.0
 40
0.0553814713556675
 50
143.9212734935242963
 51
186.7948127526722999
  0
ARC
  5
EFA6
  8
0
 10
371.1310633473231064
 20
78.1100961646091889
 30
0.0
 40
0.0557058966647677
 50
186.7948127526730957
 51
249.0774063478827998
  0
ARC
  5
EFA7
  8
0
 10
371.1308579170486155
 20
78.1095588317872966
 30
0.0
 40
0.055130633108497
 50
249.0774063478827998
 51
335.6278903738090094
  0
ARC
  5
EFA8
  8
0
 10
371.130503726912707
 20
78.1097192917147396
 30
0.0
 40
0.0555194750310309
 50
335.6278903738082136
 51
92.3772187280729753
  0
ARC
  5
EFA9
  8
0
 10
371.1240855965248215
 20
78.116777760171459
 30
0.0
 40
0.0217449548892826
 50
85.1887842861532789
 51
192.7659035984063109
  0
ARC
  5
EFAA
  8
0
 10
371.1236853817088104
 20
78.1166870840214074
 30
0.0
 40
0.0213345964324063
 50
192.7659035984079026
 51
287.7877673320970189
  0
ARC
  5
EFAB
  8
0
 10
371.1235070653307275
 20
78.1172428821727181
 30
0.0
 40
0.0219182986815723
 50
287.7877673320970189
 51
14.4954053845797901
  0
ARC
  5
EFAC
  8
0
 10
371.1243564204921768
 20
78.1174624676881137
 30
0.0
 40
0.0210410176610874
 50
14.4954053845789996
 51
85.767282760949854
  0
ARC
  5
EFAD
  8
0
 10
370.8724853522152216
 20
78.113738155434433
 30
0.0
 40
0.0728346832028418
 50
89.941817833885878
 51
270.0581821661140793
  0
ARC
  5
EFAE
  8
0
 10
370.8724853522152216
 20
78.1137381554345041
 30
0.0
 40
0.0728346832028808
 50
270.0581821661140793
 51
89.9418177552189633
  0
ARC
  5
EFAF
  8
0
 10
370.875352445982287
 20
78.1150112549304367
 30
0.0
 40
0.0548785222085503
 50
92.2283965624548046
 51
143.9212734935242963
  0
ARC
  5
EFB0
  8
0
 10
370.8757589338046046
 20
78.1147150700304849
 30
0.0
 40
0.0553814713556675
 50
143.9212734935242963
 51
186.7948127526722999
  0
ARC
  5
EFB1
  8
0
 10
370.8760810804229209
 20
78.1147534541092625
 30
0.0
 40
0.0557058966647677
 50
186.7948127526730957
 51
249.0774063478827998
  0
ARC
  5
EFB2
  8
0
 10
370.8758756501483731
 20
78.1142161212873702
 30
0.0
 40
0.055130633108497
 50
249.0774063478827998
 51
335.6278903738090094
  0
ARC
  5
EFB3
  8
0
 10
370.8755214600125214
 20
78.1143765812148132
 30
0.0
 40
0.0555194750310309
 50
335.6278903738082136
 51
92.3772187280729753
  0
ARC
  5
EFB4
  8
0
 10
370.8691033296245223
 20
78.1214350496715326
 30
0.0
 40
0.0217449548892826
 50
85.1887842861532789
 51
192.7659035984063109
  0
ARC
  5
EFB5
  8
0
 10
370.8687031148086248
 20
78.121344373521481
 30
0.0
 40
0.0213345964324063
 50
192.7659035984079026
 51
287.7877673320970189
  0
ARC
  5
EFB6
  8
0
 10
370.8685247984304851
 20
78.1219001716727917
 30
0.0
 40
0.0219182986815723
 50
287.7877673320970189
 51
14.4954053845797901
  0
ARC
  5
EFB7
  8
0
 10
370.8693741535919912
 20
78.1221197571881874
 30
0.0
 40
0.0210410176610874
 50
14.4954053845789996
 51
85.767282760949854
  0
ARC
  5
EFB8
  8
0
 10
370.628074804428195
 20
78.1127400543757062
 30
0.0
 40
0.0728346832028418
 50
89.941817833885878
 51
270.0581821661140793
  0
ARC
  5
EFB9
  8
0
 10
370.628074804428195
 20
78.1127400543757631
 30
0.0
 40
0.0728346832028808
 50
270.0581821661140793
 51
89.9418177552189633
  0
ARC
  5
EFBA
  8
0
 10
370.6309418981953741
 20
78.1140131538716957
 30
0.0
 40
0.0548785222085503
 50
92.2283965624548046
 51
143.9212734935242963
  0
ARC
  5
EFBB
  8
0
 10
370.6313483860176916
 20
78.1137169689717439
 30
0.0
 40
0.0553814713556675
 50
143.9212734935242963
 51
186.7948127526722999
  0
ARC
  5
EFBC
  8
0
 10
370.6316705326358942
 20
78.1137553530505215
 30
0.0
 40
0.0557058966647677
 50
186.7948127526730957
 51
249.0774063478827998
  0
ARC
  5
EFBD
  8
0
 10
370.6314651023614033
 20
78.1132180202286293
 30
0.0
 40
0.055130633108497
 50
249.0774063478827998
 51
335.6278903738090094
  0
ARC
  5
EFBE
  8
0
 10
370.6311109122254948
 20
78.1133784801560722
 30
0.0
 40
0.0555194750310309
 50
335.6278903738082136
 51
92.3772187280729753
  0
ARC
  5
EFBF
  8
0
 10
370.624692781837723
 20
78.1204369486127916
 30
0.0
 40
0.0217449548892826
 50
85.1887842861532789
 51
192.7659035984063109
  0
ARC
  5
EFC0
  8
0
 10
370.6242925670215982
 20
78.12034627246274
 30
0.0
 40
0.0213345964324063
 50
192.7659035984079026
 51
287.7877673320970189
  0
ARC
  5
EFC1
  8
0
 10
370.6241142506435153
 20
78.1209020706140507
 30
0.0
 40
0.0219182986815723
 50
287.7877673320970189
 51
14.4954053845797901
  0
ARC
  5
EFC2
  8
0
 10
370.6249636058050783
 20
78.1211216561294464
 30
0.0
 40
0.0210410176610874
 50
14.4954053845789996
 51
85.767282760949854
  0
ARC
  5
EFC3
  8
0
 10
370.7538133957683044
 20
78.242876041353
 30
0.0
 40
0.0728346832028418
 50
89.941817833885878
 51
270.0581821661140793
  0
ARC
  5
EFC4
  8
0
 10
370.7538133957683044
 20
78.2428760413530568
 30
0.0
 40
0.0728346832028808
 50
270.0581821661140793
 51
89.9418177552189633
  0
ARC
  5
EFC5
  8
0
 10
370.7566804895354267
 20
78.2441491408489895
 30
0.0
 40
0.0548785222085503
 50
92.2283965624548046
 51
143.9212734935242963
  0
ARC
  5
EFC6
  8
0
 10
370.7570869773575168
 20
78.2438529559490235
 30
0.0
 40
0.0553814713556675
 50
143.9212734935242963
 51
186.7948127526722999
  0
ARC
  5
EFC7
  8
0
 10
370.75740912397589
 20
78.2438913400278011
 30
0.0
 40
0.0557058966647677
 50
186.7948127526730957
 51
249.0774063478827998
  0
ARC
  5
EFC8
  8
0
 10
370.7572036937013991
 20
78.2433540072059088
 30
0.0
 40
0.055130633108497
 50
249.0774063478827998
 51
335.6278903738090094
  0
ARC
  5
EFC9
  8
0
 10
370.7568495035653768
 20
78.243514467133366
 30
0.0
 40
0.0555194750310309
 50
335.6278903738082136
 51
92.3772187280729753
  0
ARC
  5
EFCA
  8
0
 10
370.7504313731774914
 20
78.2505729355900712
 30
0.0
 40
0.0217449548892826
 50
85.1887842861532789
 51
192.7659035984063109
  0
ARC
  5
EFCB
  8
0
 10
370.7500311583614803
 20
78.2504822594400054
 30
0.0
 40
0.0213345964324063
 50
192.7659035984079026
 51
287.7877673320970189
  0
ARC
  5
EFCC
  8
0
 10
370.7498528419835111
 20
78.2510380575913302
 30
0.0
 40
0.0219182986815723
 50
287.7877673320970189
 51
14.4954053845797901
  0
ARC
  5
EFCD
  8
0
 10
370.7507021971450172
 20
78.2512576431067259
 30
0.0
 40
0.0210410176610874
 50
14.4954053845789996
 51
85.767282760949854
  0
ARC
  5
EFCE
  8
0
 10
371.0003710637355994
 20
78.2407320062678338
 30
0.0
 40
0.0728346832028418
 50
89.941817833885878
 51
270.0581821661140793
  0
ARC
  5
EFCF
  8
0
 10
371.0003710637355994
 20
78.2407320062678906
 30
0.0
 40
0.0728346832028808
 50
270.0581821661140793
 51
89.9418177552189633
  0
ARC
  5
EFD0
  8
0
 10
371.0032381575027216
 20
78.2420051057638233
 30
0.0
 40
0.0548785222085503
 50
92.2283965624548046
 51
143.9212734935242963
  0
ARC
  5
EFD1
  8
0
 10
371.0036446453249255
 20
78.2417089208638714
 30
0.0
 40
0.0553814713556675
 50
143.9212734935242963
 51
186.7948127526722999
  0
ARC
  5
EFD2
  8
0
 10
371.0039667919431849
 20
78.2417473049426491
 30
0.0
 40
0.0557058966647677
 50
186.7948127526730957
 51
249.0774063478827998
  0
ARC
  5
EFD3
  8
0
 10
371.003761361668694
 20
78.2412099721207426
 30
0.0
 40
0.055130633108497
 50
249.0774063478827998
 51
335.6278903738090094
  0
ARC
  5
EFD4
  8
0
 10
371.0034071715327855
 20
78.2413704320481997
 30
0.0
 40
0.0555194750310309
 50
335.6278903738082136
 51
92.3772187280729753
  0
ARC
  5
EFD5
  8
0
 10
370.9969890411449001
 20
78.248428900504905
 30
0.0
 40
0.0217449548892826
 50
85.1887842861532789
 51
192.7659035984063109
  0
ARC
  5
EFD6
  8
0
 10
370.9965888263288889
 20
78.2483382243548533
 30
0.0
 40
0.0213345964324063
 50
192.7659035984079026
 51
287.7877673320970189
  0
ARC
  5
EFD7
  8
0
 10
370.996410509950806
 20
78.248894022506164
 30
0.0
 40
0.0219182986815723
 50
287.7877673320970189
 51
14.4954053845797901
  0
ARC
  5
EFD8
  8
0
 10
370.9972598651121984
 20
78.2491136080215597
 30
0.0
 40
0.0210410176610874
 50
14.4954053845789996
 51
85.767282760949854
  0
ARC
  5
EFD9
  8
0
 10
371.1275159119668956
 20
78.3631314202397817
 30
0.0
 40
0.0728346832028418
 50
89.941817833885878
 51
270.0581821661140793
  0
ARC
  5
EFDA
  8
0
 10
371.1275159119668956
 20
78.3631314202398386
 30
0.0
 40
0.0728346832028808
 50
270.0581821661140793
 51
89.9418177552189633
  0
ARC
  5
EFDB
  8
0
 10
371.1303830057340747
 20
78.3644045197357713
 30
0.0
 40
0.0548785222085503
 50
92.2283965624548046
 51
143.9212734935242963
  0
ARC
  5
EFDC
  8
0
 10
371.1307894935562217
 20
78.3641083348358194
 30
0.0
 40
0.0553814713556675
 50
143.9212734935242963
 51
186.7948127526722999
  0
ARC
  5
EFDD
  8
0
 10
371.1311116401745949
 20
78.364146718914597
 30
0.0
 40
0.0557058966647677
 50
186.7948127526730957
 51
249.0774063478827998
  0
ARC
  5
EFDE
  8
0
 10
371.1309062099001039
 20
78.3636093860926906
 30
0.0
 40
0.055130633108497
 50
249.0774063478827998
 51
335.6278903738090094
  0
ARC
  5
EFDF
  8
0
 10
371.1305520197640817
 20
78.3637698460201477
 30
0.0
 40
0.0555194750310309
 50
335.6278903738082136
 51
92.3772187280729753
  0
ARC
  5
EFE0
  8
0
 10
371.12413388937631
 20
78.3708283144768529
 30
0.0
 40
0.0217449548892826
 50
85.1887842861532789
 51
192.7659035984063109
  0
ARC
  5
EFE1
  8
0
 10
371.1237336745601851
 20
78.3707376383268013
 30
0.0
 40
0.0213345964324063
 50
192.7659035984079026
 51
287.7877673320970189
  0
ARC
  5
EFE2
  8
0
 10
371.123555358182216
 20
78.371293436478112
 30
0.0
 40
0.0219182986815723
 50
287.7877673320970189
 51
14.4954053845797901
  0
ARC
  5
EFE3
  8
0
 10
371.1244047133437221
 20
78.3715130219935077
 30
0.0
 40
0.0210410176610874
 50
14.4954053845789996
 51
85.767282760949854
  0
ARC
  5
EFE4
  8
0
 10
370.875245079098022
 20
78.3685586704250738
 30
0.0
 40
0.0728346832028418
 50
89.941817833885878
 51
270.0581821661140793
  0
ARC
  5
EFE5
  8
0
 10
370.875245079098022
 20
78.3685586704251449
 30
0.0
 40
0.0728346832028808
 50
270.0581821661140793
 51
89.9418177552189633
  0
ARC
  5
EFE6
  8
0
 10
370.878112172865201
 20
78.3698317699210776
 30
0.0
 40
0.0548785222085503
 50
92.2283965624548046
 51
143.9212734935242963
  0
ARC
  5
EFE7
  8
0
 10
370.8785186606872912
 20
78.3695355850211115
 30
0.0
 40
0.0553814713556675
 50
143.9212734935242963
 51
186.7948127526722999
  0
ARC
  5
EFE8
  8
0
 10
370.8788408073057212
 20
78.3695739690998892
 30
0.0
 40
0.0557058966647677
 50
186.7948127526730957
 51
249.0774063478827998
  0
ARC
  5
EFE9
  8
0
 10
370.8786353770311734
 20
78.3690366362779969
 30
0.0
 40
0.055130633108497
 50
249.0774063478827998
 51
335.6278903738090094
  0
ARC
  5
EFEA
  8
0
 10
370.8782811868950944
 20
78.369197096205454
 30
0.0
 40
0.0555194750310309
 50
335.6278903738082136
 51
92.3772187280729753
  0
ARC
  5
EFEB
  8
0
 10
370.8718630565073227
 20
78.3762555646621593
 30
0.0
 40
0.0217449548892826
 50
85.1887842861532789
 51
192.7659035984063109
  0
ARC
  5
EFEC
  8
0
 10
370.8714628416913115
 20
78.3761648885120934
 30
0.0
 40
0.0213345964324063
 50
192.7659035984079026
 51
287.7877673320970189
  0
ARC
  5
EFED
  8
0
 10
370.8712845253132855
 20
78.3767206866634183
 30
0.0
 40
0.0219182986815723
 50
287.7877673320970189
 51
14.4954053845797901
  0
ARC
  5
EFEE
  8
0
 10
370.8721338804746779
 20
78.376940272178814
 30
0.0
 40
0.0210410176610874
 50
14.4954053845789996
 51
85.767282760949854
  0
ARC
  5
EFEF
  8
0
 10
370.6310372780756097
 20
78.3648653278535221
 30
0.0
 40
0.0728346832028418
 50
89.941817833885878
 51
270.0581821661140793
  0
ARC
  5
EFF0
  8
0
 10
370.6310372780756097
 20
78.3648653278535647
 30
0.0
 40
0.0728346832028808
 50
270.0581821661140793
 51
89.9418177552189633
  0
ARC
  5
EFF1
  8
0
 10
370.6339043718426751
 20
78.3661384273495116
 30
0.0
 40
0.0548785222085503
 50
92.2283965624548046
 51
143.9212734935242963
  0
ARC
  5
EFF2
  8
0
 10
370.6343108596649927
 20
78.3658422424495598
 30
0.0
 40
0.0553814713556675
 50
143.9212734935242963
 51
186.7948127526722999
  0
ARC
  5
EFF3
  8
0
 10
370.6346330062831953
 20
78.3658806265283232
 30
0.0
 40
0.0557058966647677
 50
186.7948127526730957
 51
249.0774063478827998
  0
ARC
  5
EFF4
  8
0
 10
370.6344275760088181
 20
78.3653432937064451
 30
0.0
 40
0.055130633108497
 50
249.0774063478827998
 51
335.6278903738090094
  0
ARC
  5
EFF5
  8
0
 10
370.6340733858727958
 20
78.3655037536338881
 30
0.0
 40
0.0555194750310309
 50
335.6278903738082136
 51
92.3772187280729753
  0
ARC
  5
EFF6
  8
0
 10
370.6276552554849104
 20
78.3725622220905933
 30
0.0
 40
0.0217449548892826
 50
85.1887842861532789
 51
192.7659035984063109
  0
ARC
  5
EFF7
  8
0
 10
370.6272550406690129
 20
78.3724715459405559
 30
0.0
 40
0.0213345964324063
 50
192.7659035984079026
 51
287.7877673320970189
  0
ARC
  5
EFF8
  8
0
 10
370.6270767242908732
 20
78.3730273440918666
 30
0.0
 40
0.0219182986815723
 50
287.7877673320970189
 51
14.4954053845797901
  0
ARC
  5
EFF9
  8
0
 10
370.6279260794523225
 20
78.3732469296072622
 30
0.0
 40
0.0210410176610874
 50
14.4954053845789996
 51
85.767282760949854
  0
ARC
  5
EFFA
  8
0
 10
370.7510362568044116
 20
78.4840633641273229
 30
0.0
 40
0.0728346832028418
 50
89.941817833885878
 51
270.0581821661140793
  0
ARC
  5
EFFB
  8
0
 10
370.7510362568044116
 20
78.4840633641273797
 30
0.0
 40
0.0728346832028808
 50
270.0581821661140793
 51
89.9418177552189633
  0
ARC
  5
EFFC
  8
0
 10
370.7539033505714769
 20
78.4853364636233124
 30
0.0
 40
0.0548785222085503
 50
92.2283965624548046
 51
143.9212734935242963
  0
ARC
  5
EFFD
  8
0
 10
370.7543098383936808
 20
78.4850402787233605
 30
0.0
 40
0.0553814713556675
 50
143.9212734935242963
 51
186.7948127526722999
  0
ARC
  5
EFFE
  8
0
 10
370.7546319850119971
 20
78.4850786628021382
 30
0.0
 40
0.0557058966647677
 50
186.7948127526730957
 51
249.0774063478827998
  0
ARC
  5
EFFF
  8
0
 10
370.7544265547375062
 20
78.4845413299802317
 30
0.0
 40
0.055130633108497
 50
249.0774063478827998
 51
335.6278903738090094
  0
ARC
  5
F000
  8
0
 10
370.7540723646015977
 20
78.4847017899076889
 30
0.0
 40
0.0555194750310309
 50
335.6278903738082136
 51
92.3772187280729753
  0
ARC
  5
F001
  8
0
 10
370.7476542342137122
 20
78.4917602583643941
 30
0.0
 40
0.0217449548892826
 50
85.1887842861532789
 51
192.7659035984063109
  0
ARC
  5
F002
  8
0
 10
370.7472540193977011
 20
78.4916695822143424
 30
0.0
 40
0.0213345964324063
 50
192.7659035984079026
 51
287.7877673320970189
  0
ARC
  5
F003
  8
0
 10
370.7470757030196182
 20
78.4922253803656531
 30
0.0
 40
0.0219182986815723
 50
287.7877673320970189
 51
14.4954053845797901
  0
ARC
  5
F004
  8
0
 10
370.7479250581811243
 20
78.4924449658810488
 30
0.0
 40
0.0210410176610874
 50
14.4954053845789996
 51
85.767282760949854
  0
ARC
  5
F005
  8
0
 10
370.9965134406198217
 20
78.4921451224785187
 30
0.0
 40
0.0728346832028418
 50
89.941817833885878
 51
270.0581821661140793
  0
ARC
  5
F006
  8
0
 10
370.9965134406198217
 20
78.4921451224785756
 30
0.0
 40
0.0728346832028808
 50
270.0581821661140793
 51
89.9418177552189633
  0
ARC
  5
F007
  8
0
 10
370.9993805343868871
 20
78.4934182219745082
 30
0.0
 40
0.0548785222085503
 50
92.2283965624548046
 51
143.9212734935242963
  0
ARC
  5
F008
  8
0
 10
370.9997870222092047
 20
78.4931220370745564
 30
0.0
 40
0.0553814713556675
 50
143.9212734935242963
 51
186.7948127526722999
  0
ARC
  5
F009
  8
0
 10
371.0001091688274073
 20
78.493160421153334
 30
0.0
 40
0.0557058966647677
 50
186.7948127526730957
 51
249.0774063478827998
  0
ARC
  5
F00A
  8
0
 10
370.9999037385529164
 20
78.4926230883314417
 30
0.0
 40
0.055130633108497
 50
249.0774063478827998
 51
335.6278903738090094
  0
ARC
  5
F00B
  8
0
 10
370.9995495484170078
 20
78.4927835482588847
 30
0.0
 40
0.0555194750310309
 50
335.6278903738082136
 51
92.3772187280729753
  0
ARC
  5
F00C
  8
0
 10
370.9931314180291224
 20
78.4998420167156041
 30
0.0
 40
0.0217449548892826
 50
85.1887842861532789
 51
192.7659035984063109
  0
ARC
  5
F00D
  8
0
 10
370.9927312032131113
 20
78.4997513405655525
 30
0.0
 40
0.0213345964324063
 50
192.7659035984079026
 51
287.7877673320970189
  0
ARC
  5
F00E
  8
0
 10
370.9925528868350284
 20
78.5003071387168632
 30
0.0
 40
0.0219182986815723
 50
287.7877673320970189
 51
14.4954053845797901
  0
ARC
  5
F00F
  8
0
 10
370.9934022419964776
 20
78.5005267242322589
 30
0.0
 40
0.0210410176610874
 50
14.4954053845789996
 51
85.767282760949854
  0
ARC
  5
F010
  8
0
 10
371.127566220815595
 20
78.6171772358303684
 30
0.0
 40
0.0728346832028418
 50
89.941817833885878
 51
270.0581821661140793
  0
ARC
  5
F011
  8
0
 10
371.127566220815595
 20
78.6171772358304253
 30
0.0
 40
0.0728346832028808
 50
270.0581821661140793
 51
89.9418177552189633
  0
ARC
  5
F012
  8
0
 10
371.1304333145827741
 20
78.6184503353263437
 30
0.0
 40
0.0548785222085503
 50
92.2283965624548046
 51
143.9212734935242963
  0
ARC
  5
F013
  8
0
 10
371.1308398024049779
 20
78.6181541504264061
 30
0.0
 40
0.0553814713556675
 50
143.9212734935242963
 51
186.7948127526722999
  0
ARC
  5
F014
  8
0
 10
371.1311619490232943
 20
78.6181925345051837
 30
0.0
 40
0.0557058966647677
 50
186.7948127526730957
 51
249.0774063478827998
  0
ARC
  5
F015
  8
0
 10
371.1309565187488033
 20
78.6176552016832773
 30
0.0
 40
0.055130633108497
 50
249.0774063478827998
 51
335.6278903738090094
  0
ARC
  5
F016
  8
0
 10
371.1306023286128948
 20
78.6178156616107344
 30
0.0
 40
0.0555194750310309
 50
335.6278903738082136
 51
92.3772187280729753
  0
ARC
  5
F017
  8
0
 10
371.1241841982248957
 20
78.6248741300674538
 30
0.0
 40
0.0217449548892826
 50
85.1887842861532789
 51
192.7659035984063109
  0
ARC
  5
F018
  8
0
 10
371.1237839834089982
 20
78.624783453917388
 30
0.0
 40
0.0213345964324063
 50
192.7659035984079026
 51
287.7877673320970189
  0
ARC
  5
F019
  8
0
 10
371.1236056670309154
 20
78.6253392520687129
 30
0.0
 40
0.0219182986815723
 50
287.7877673320970189
 51
14.4954053845797901
  0
ARC
  5
F01A
  8
0
 10
371.1244550221924783
 20
78.6255588375840944
 30
0.0
 40
0.0210410176610874
 50
14.4954053845789996
 51
85.767282760949854
  0
ARC
  5
F01B
  8
0
 10
370.8746145188102901
 20
78.6223626387972132
 30
0.0
 40
0.0728346832028418
 50
89.941817833885878
 51
270.0581821661140793
  0
ARC
  5
F01C
  8
0
 10
370.8746145188102901
 20
78.6223626387972701
 30
0.0
 40
0.0728346832028808
 50
270.0581821661140793
 51
89.9418177552189633
  0
ARC
  5
F01D
  8
0
 10
370.8774816125774123
 20
78.6236357382932027
 30
0.0
 40
0.0548785222085503
 50
92.2283965624548046
 51
143.9212734935242963
  0
ARC
  5
F01E
  8
0
 10
370.8778881003996162
 20
78.6233395533932367
 30
0.0
 40
0.0553814713556675
 50
143.9212734935242963
 51
186.7948127526722999
  0
ARC
  5
F01F
  8
0
 10
370.8782102470178756
 20
78.6233779374720143
 30
0.0
 40
0.0557058966647677
 50
186.7948127526730957
 51
249.0774063478827998
  0
ARC
  5
F020
  8
0
 10
370.8780048167433847
 20
78.622840604650122
 30
0.0
 40
0.055130633108497
 50
249.0774063478827998
 51
335.6278903738090094
  0
ARC
  5
F021
  8
0
 10
370.8776506266074193
 20
78.6230010645775792
 30
0.0
 40
0.0555194750310309
 50
335.6278903738082136
 51
92.3772187280729753
  0
ARC
  5
F022
  8
0
 10
370.8712324962195908
 20
78.6300595330342844
 30
0.0
 40
0.0217449548892826
 50
85.1887842861532789
 51
192.7659035984063109
  0
ARC
  5
F023
  8
0
 10
370.8708322814035228
 20
78.6299688568842328
 30
0.0
 40
0.0213345964324063
 50
192.7659035984079026
 51
287.7877673320970189
  0
ARC
  5
F024
  8
0
 10
370.8706539650254967
 20
78.6305246550355434
 30
0.0
 40
0.0219182986815723
 50
287.7877673320970189
 51
14.4954053845797901
  0
ARC
  5
F025
  8
0
 10
370.8715033201870028
 20
78.6307442405509391
 30
0.0
 40
0.0210410176610874
 50
14.4954053845789996
 51
85.767282760949854
  0
ARC
  5
F026
  8
0
 10
370.6224079084425966
 20
78.6116816921161359
 30
0.0
 40
0.0728346832028418
 50
89.941817833885878
 51
270.0581821661140793
  0
ARC
  5
F027
  8
0
 10
370.6224079084425966
 20
78.6116816921161927
 30
0.0
 40
0.0728346832028808
 50
270.0581821661140793
 51
89.9418177552189633
  0
ARC
  5
F028
  8
0
 10
370.6252750022097189
 20
78.6129547916121254
 30
0.0
 40
0.0548785222085503
 50
92.2283965624548046
 51
143.9212734935242963
  0
ARC
  5
F029
  8
0
 10
370.6256814900319796
 20
78.6126586067121735
 30
0.0
 40
0.0553814713556675
 50
143.9212734935242963
 51
186.7948127526722999
  0
ARC
  5
F02A
  8
0
 10
370.6260036366502959
 20
78.6126969907909512
 30
0.0
 40
0.0557058966647677
 50
186.7948127526730957
 51
249.0774063478827998
  0
ARC
  5
F02B
  8
0
 10
370.6257982063756913
 20
78.6121596579690447
 30
0.0
 40
0.055130633108497
 50
249.0774063478827998
 51
335.6278903738090094
  0
ARC
  5
F02C
  8
0
 10
370.6254440162397827
 20
78.6123201178965019
 30
0.0
 40
0.0555194750310309
 50
335.6278903738082136
 51
92.3772187280729753
  0
ARC
  5
F02D
  8
0
 10
370.6190258858518973
 20
78.6193785863532071
 30
0.0
 40
0.0217449548892826
 50
85.1887842861532789
 51
192.7659035984063109
  0
ARC
  5
F02E
  8
0
 10
370.6186256710358862
 20
78.6192879102031554
 30
0.0
 40
0.0213345964324063
 50
192.7659035984079026
 51
287.7877673320970189
  0
ARC
  5
F02F
  8
0
 10
370.618447354657917
 20
78.6198437083544661
 30
0.0
 40
0.0219182986815723
 50
287.7877673320970189
 51
14.4954053845797901
  0
ARC
  5
F030
  8
0
 10
370.6192967098193094
 20
78.6200632938698618
 30
0.0
 40
0.0210410176610874
 50
14.4954053845789996
 51
85.767282760949854
  0
ARC
  5
F031
  8
0
 10
370.7517527856093125
 20
78.737764212146331
 30
0.0
 40
0.0728346832028418
 50
89.941817833885878
 51
270.0581821661140793
  0
ARC
  5
F032
  8
0
 10
370.7517527856093125
 20
78.7377642121463879
 30
0.0
 40
0.0728346832028808
 50
270.0581821661140793
 51
89.9418177552189633
  0
ARC
  5
F033
  8
0
 10
370.7546198793763779
 20
78.7390373116423206
 30
0.0
 40
0.0548785222085503
 50
92.2283965624548046
 51
143.9212734935242963
  0
ARC
  5
F034
  8
0
 10
370.7550263671985817
 20
78.7387411267423545
 30
0.0
 40
0.0553814713556675
 50
143.9212734935242963
 51
186.7948127526722999
  0
ARC
  5
F035
  8
0
 10
370.755348513816898
 20
78.7387795108211463
 30
0.0
 40
0.0557058966647677
 50
186.7948127526730957
 51
249.0774063478827998
  0
ARC
  5
F036
  8
0
 10
370.7551430835424071
 20
78.7382421779992399
 30
0.0
 40
0.055130633108497
 50
249.0774063478827998
 51
335.6278903738090094
  0
ARC
  5
F037
  8
0
 10
370.7547888934064986
 20
78.738402637926697
 30
0.0
 40
0.0555194750310309
 50
335.6278903738082136
 51
92.3772187280729753
  0
ARC
  5
F038
  8
0
 10
370.7483707630184995
 20
78.7454611063834022
 30
0.0
 40
0.0217449548892826
 50
85.1887842861532789
 51
192.7659035984063109
  0
ARC
  5
F039
  8
0
 10
370.747970548202602
 20
78.7453704302333506
 30
0.0
 40
0.0213345964324063
 50
192.7659035984079026
 51
287.7877673320970189
  0
ARC
  5
F03A
  8
0
 10
370.7477922318245191
 20
78.7459262283846613
 30
0.0
 40
0.0219182986815723
 50
287.7877673320970189
 51
14.4954053845797901
  0
ARC
  5
F03B
  8
0
 10
370.7486415869860252
 20
78.746145813900057
 30
0.0
 40
0.0210410176610874
 50
14.4954053845789996
 51
85.767282760949854
  0
ARC
  5
F03C
  8
0
 10
371.0053542711967793
 20
78.7396149912552943
 30
0.0
 40
0.0728346832028418
 50
89.941817833885878
 51
270.0581821661140793
  0
ARC
  5
F03D
  8
0
 10
371.0053542711967793
 20
78.7396149912553511
 30
0.0
 40
0.0728346832028808
 50
270.0581821661140793
 51
89.9418177552189633
  0
ARC
  5
F03E
  8
0
 10
371.0082213649639016
 20
78.7408880907512838
 30
0.0
 40
0.0548785222085503
 50
92.2283965624548046
 51
143.9212734935242963
  0
ARC
  5
F03F
  8
0
 10
371.0086278527862191
 20
78.7405919058513319
 30
0.0
 40
0.0553814713556675
 50
143.9212734935242963
 51
186.7948127526722999
  0
ARC
  5
F040
  8
0
 10
371.0089499994044218
 20
78.7406302899301096
 30
0.0
 40
0.0557058966647677
 50
186.7948127526730957
 51
249.0774063478827998
  0
ARC
  5
F041
  8
0
 10
371.0087445691299877
 20
78.7400929571082031
 30
0.0
 40
0.055130633108497
 50
249.0774063478827998
 51
335.6278903738090094
  0
ARC
  5
F042
  8
0
 10
371.0083903789940223
 20
78.7402534170356603
 30
0.0
 40
0.0555194750310309
 50
335.6278903738082136
 51
92.3772187280729753
  0
ARC
  5
F043
  8
0
 10
371.00197224860608
 20
78.7473118854923655
 30
0.0
 40
0.0217449548892826
 50
85.1887842861532789
 51
192.7659035984063109
  0
ARC
  5
F044
  8
0
 10
371.0015720337901257
 20
78.7472212093423138
 30
0.0
 40
0.0213345964324063
 50
192.7659035984079026
 51
287.7877673320970189
  0
ARC
  5
F045
  8
0
 10
371.001393717411986
 20
78.7477770074936245
 30
0.0
 40
0.0219182986815723
 50
287.7877673320970189
 51
14.4954053845797901
  0
ARC
  5
F046
  8
0
 10
371.0022430725734921
 20
78.7479965930090202
 30
0.0
 40
0.0210410176610874
 50
14.4954053845789996
 51
85.767282760949854
  0
ARC
  5
F047
  8
0
 10
371.1266268387536229
 20
78.8702190256503712
 30
0.0
 40
0.0728346832028418
 50
89.941817833885878
 51
270.0581821661140793
  0
ARC
  5
F048
  8
0
 10
371.1266268387536229
 20
78.8702190256504139
 30
0.0
 40
0.0728346832028808
 50
270.0581821661140793
 51
89.9418177552189633
  0
ARC
  5
F049
  8
0
 10
371.1294939325206883
 20
78.8714921251463608
 30
0.0
 40
0.0548785222085503
 50
92.2283965624548046
 51
143.9212734935242963
  0
ARC
  5
F04A
  8
0
 10
371.1299004203430059
 20
78.8711959402463947
 30
0.0
 40
0.0553814713556675
 50
143.9212734935242963
 51
186.7948127526722999
  0
ARC
  5
F04B
  8
0
 10
371.1302225669613222
 20
78.8712343243251723
 30
0.0
 40
0.0557058966647677
 50
186.7948127526730957
 51
249.0774063478827998
  0
ARC
  5
F04C
  8
0
 10
371.1300171366867744
 20
78.8706969915032801
 30
0.0
 40
0.055130633108497
 50
249.0774063478827998
 51
335.6278903738090094
  0
ARC
  5
F04D
  8
0
 10
371.129662946550809
 20
78.8708574514307372
 30
0.0
 40
0.0555194750310309
 50
335.6278903738082136
 51
92.3772187280729753
  0
ARC
  5
F04E
  8
0
 10
371.1232448161629236
 20
78.8779159198874424
 30
0.0
 40
0.0217449548892826
 50
85.1887842861532789
 51
192.7659035984063109
  0
ARC
  5
F04F
  8
0
 10
371.1228446013470261
 20
78.8778252437373908
 30
0.0
 40
0.0213345964324063
 50
192.7659035984079026
 51
287.7877673320970189
  0
ARC
  5
F050
  8
0
 10
371.1226662849688864
 20
78.8783810418887015
 30
0.0
 40
0.0219182986815723
 50
287.7877673320970189
 51
14.4954053845797901
  0
ARC
  5
F051
  8
0
 10
371.1235156401305062
 20
78.8786006274040972
 30
0.0
 40
0.0210410176610874
 50
14.4954053845789996
 51
85.767282760949854
  0
ARC
  5
F052
  8
0
 10
370.8774961627304947
 20
78.8634405056860004
 30
0.0
 40
0.0728346832028418
 50
89.941817833885878
 51
270.0581821661140793
  0
ARC
  5
F053
  8
0
 10
370.8774961627304947
 20
78.8634405056860572
 30
0.0
 40
0.0728346832028808
 50
270.0581821661140793
 51
89.9418177552189633
  0
ARC
  5
F054
  8
0
 10
370.8803632564976169
 20
78.8647136051819899
 30
0.0
 40
0.0548785222085503
 50
92.2283965624548046
 51
143.9212734935242963
  0
ARC
  5
F055
  8
0
 10
370.8807697443198776
 20
78.8644174202820238
 30
0.0
 40
0.0553814713556675
 50
143.9212734935242963
 51
186.7948127526722999
  0
ARC
  5
F056
  8
0
 10
370.881091890938194
 20
78.8644558043608157
 30
0.0
 40
0.0557058966647677
 50
186.7948127526730957
 51
249.0774063478827998
  0
ARC
  5
F057
  8
0
 10
370.8808864606635893
 20
78.8639184715389092
 30
0.0
 40
0.055130633108497
 50
249.0774063478827998
 51
335.6278903738090094
  0
ARC
  5
F058
  8
0
 10
370.8805322705276808
 20
78.8640789314663664
 30
0.0
 40
0.0555194750310309
 50
335.6278903738082136
 51
92.3772187280729753
  0
ARC
  5
F059
  8
0
 10
370.8741141401397954
 20
78.8711373999230716
 30
0.0
 40
0.0217449548892826
 50
85.1887842861532789
 51
192.7659035984063109
  0
ARC
  5
F05A
  8
0
 10
370.8737139253237842
 20
78.8710467237730199
 30
0.0
 40
0.0213345964324063
 50
192.7659035984079026
 51
287.7877673320970189
  0
ARC
  5
F05B
  8
0
 10
370.8735356089458151
 20
78.8716025219243306
 30
0.0
 40
0.0219182986815723
 50
287.7877673320970189
 51
14.4954053845797901
  0
ARC
  5
F05C
  8
0
 10
370.8743849641072075
 20
78.8718221074397263
 30
0.0
 40
0.0210410176610874
 50
14.4954053845789996
 51
85.767282760949854
  0
ARC
  5
F05D
  8
0
 10
370.6235661252587761
 20
78.8649368343839541
 30
0.0
 40
0.0728346832028418
 50
89.941817833885878
 51
270.0581821661140793
  0
ARC
  5
F05E
  8
0
 10
370.6235661252587761
 20
78.8649368343840109
 30
0.0
 40
0.0728346832028808
 50
270.0581821661140793
 51
89.9418177552189633
  0
ARC
  5
F05F
  8
0
 10
370.6264332190258983
 20
78.8662099338799436
 30
0.0
 40
0.0548785222085503
 50
92.2283965624548046
 51
143.9212734935242963
  0
ARC
  5
F060
  8
0
 10
370.6268397068482159
 20
78.8659137489799917
 30
0.0
 40
0.0553814713556675
 50
143.9212734935242963
 51
186.7948127526722999
  0
ARC
  5
F061
  8
0
 10
370.6271618534664185
 20
78.8659521330587694
 30
0.0
 40
0.0557058966647677
 50
186.7948127526730957
 51
249.0774063478827998
  0
ARC
  5
F062
  8
0
 10
370.6269564231919276
 20
78.8654148002368629
 30
0.0
 40
0.055130633108497
 50
249.0774063478827998
 51
335.6278903738090094
  0
ARC
  5
F063
  8
0
 10
370.626602233056019
 20
78.8655752601643201
 30
0.0
 40
0.0555194750310309
 50
335.6278903738082136
 51
92.3772187280729753
  0
ARC
  5
F064
  8
0
 10
370.6201841026680768
 20
78.8726337286210253
 30
0.0
 40
0.0217449548892826
 50
85.1887842861532789
 51
192.7659035984063109
  0
ARC
  5
F065
  8
0
 10
370.6197838878521225
 20
78.8725430524709736
 30
0.0
 40
0.0213345964324063
 50
192.7659035984079026
 51
287.7877673320970189
  0
ARC
  5
F066
  8
0
 10
370.6196055714740965
 20
78.8730988506222843
 30
0.0
 40
0.0219182986815723
 50
287.7877673320970189
 51
14.4954053845797901
  0
ARC
  5
F067
  8
0
 10
370.6204549266354888
 20
78.87331843613768
 30
0.0
 40
0.0210410176610874
 50
14.4954053845789996
 51
85.767282760949854
  0
ARC
  5
F068
  8
0
 10
370.754311758236895
 20
78.9904621143583654
 30
0.0
 40
0.0728346832028418
 50
89.941817833885878
 51
270.0581821661140793
  0
ARC
  5
F069
  8
0
 10
370.754311758236895
 20
78.9904621143584365
 30
0.0
 40
0.0728346832028808
 50
270.0581821661140793
 51
89.9418177552189633
  0
ARC
  5
F06A
  8
0
 10
370.7571788520040172
 20
78.9917352138543691
 30
0.0
 40
0.0548785222085503
 50
92.2283965624548046
 51
143.9212734935242963
  0
ARC
  5
F06B
  8
0
 10
370.757585339826278
 20
78.9914390289544173
 30
0.0
 40
0.0553814713556675
 50
143.9212734935242963
 51
186.7948127526722999
  0
ARC
  5
F06C
  8
0
 10
370.757907486444708
 20
78.9914774130331949
 30
0.0
 40
0.0557058966647677
 50
186.7948127526730957
 51
249.0774063478827998
  0
ARC
  5
F06D
  8
0
 10
370.7577020561699896
 20
78.9909400802112884
 30
0.0
 40
0.055130633108497
 50
249.0774063478827998
 51
335.6278903738090094
  0
ARC
  5
F06E
  8
0
 10
370.7573478660341948
 20
78.9911005401387456
 30
0.0
 40
0.0555194750310309
 50
335.6278903738082136
 51
92.3772187280729753
  0
ARC
  5
F06F
  8
0
 10
370.7509297356463094
 20
78.9981590085954508
 30
0.0
 40
0.0217449548892826
 50
85.1887842861532789
 51
192.7659035984063109
  0
ARC
  5
F070
  8
0
 10
370.7505295208301845
 20
78.998068332445385
 30
0.0
 40
0.0213345964324063
 50
192.7659035984079026
 51
287.7877673320970189
  0
ARC
  5
F071
  8
0
 10
370.7503512044522722
 20
78.9986241305967098
 30
0.0
 40
0.0219182986815723
 50
287.7877673320970189
 51
14.4954053845797901
  0
ARC
  5
F072
  8
0
 10
370.7512005596137215
 20
78.9988437161121055
 30
0.0
 40
0.0210410176610874
 50
14.4954053845789996
 51
85.767282760949854
  0
ARC
  5
F073
  8
0
 10
371.0019984708213201
 20
78.9908713611201989
 30
0.0
 40
0.0728346832028418
 50
89.941817833885878
 51
270.0581821661140793
  0
ARC
  5
F074
  8
0
 10
371.0019984708213201
 20
78.9908713611202558
 30
0.0
 40
0.0728346832028808
 50
270.0581821661140793
 51
89.9418177552189633
  0
ARC
  5
F075
  8
0
 10
371.0048655645883855
 20
78.9921444606161884
 30
0.0
 40
0.0548785222085503
 50
92.2283965624548046
 51
143.9212734935242963
  0
ARC
  5
F076
  8
0
 10
371.0052720524107031
 20
78.9918482757162366
 30
0.0
 40
0.0553814713556675
 50
143.9212734935242963
 51
186.7948127526722999
  0
ARC
  5
F077
  8
0
 10
371.0055941990289057
 20
78.9918866597950142
 30
0.0
 40
0.0557058966647677
 50
186.7948127526730957
 51
249.0774063478827998
  0
ARC
  5
F078
  8
0
 10
371.0053887687544147
 20
78.9913493269731077
 30
0.0
 40
0.055130633108497
 50
249.0774063478827998
 51
335.6278903738090094
  0
ARC
  5
F079
  8
0
 10
371.0050345786185062
 20
78.9915097869005649
 30
0.0
 40
0.0555194750310309
 50
335.6278903738082136
 51
92.3772187280729753
  0
ARC
  5
F07A
  8
0
 10
370.9986164482306208
 20
78.9985682553572701
 30
0.0
 40
0.0217449548892826
 50
85.1887842861532789
 51
192.7659035984063109
  0
ARC
  5
F07B
  8
0
 10
370.9982162334146096
 20
78.9984775792072185
 30
0.0
 40
0.0213345964324063
 50
192.7659035984079026
 51
287.7877673320970189
  0
ARC
  5
F07C
  8
0
 10
370.9980379170365268
 20
78.9990333773585292
 30
0.0
 40
0.0219182986815723
 50
287.7877673320970189
 51
14.4954053845797901
  0
ARC
  5
F07D
  8
0
 10
370.998887272197976
 20
78.9992529628739248
 30
0.0
 40
0.0210410176610874
 50
14.4954053845789996
 51
85.767282760949854
  0
ARC
  5
F07E
  8
0
 10
370.6212714046205861
 20
79.1149635223603838
 30
0.0
 40
0.0728346832028418
 50
89.941817833885878
 51
270.0581821661140793
  0
ARC
  5
F07F
  8
0
 10
370.6212714046205861
 20
79.1149635223604406
 30
0.0
 40
0.0728346832028808
 50
270.0581821661140793
 51
89.9418177552189633
  0
ARC
  5
F080
  8
0
 10
370.6241384983877083
 20
79.1162366218563733
 30
0.0
 40
0.0548785222085503
 50
92.2283965624548046
 51
143.9212734935242963
  0
ARC
  5
F081
  8
0
 10
370.6245449862099122
 20
79.1159404369564214
 30
0.0
 40
0.0553814713556675
 50
143.9212734935242963
 51
186.7948127526722999
  0
ARC
  5
F082
  8
0
 10
370.6248671328281716
 20
79.1159788210351991
 30
0.0
 40
0.0557058966647677
 50
186.7948127526730957
 51
249.0774063478827998
  0
ARC
  5
F083
  8
0
 10
370.6246617025536807
 20
79.1154414882132926
 30
0.0
 40
0.055130633108497
 50
249.0774063478827998
 51
335.6278903738090094
  0
ARC
  5
F084
  8
0
 10
370.6243075124177722
 20
79.1156019481407498
 30
0.0
 40
0.0555194750310309
 50
335.6278903738082136
 51
92.3772187280729753
  0
ARC
  5
F085
  8
0
 10
370.6178893820297731
 20
79.122660416597455
 30
0.0
 40
0.0217449548892826
 50
85.1887842861532789
 51
192.7659035984063109
  0
ARC
  5
F086
  8
0
 10
370.6174891672138756
 20
79.1225697404474033
 30
0.0
 40
0.0213345964324063
 50
192.7659035984079026
 51
287.7877673320970189
  0
ARC
  5
F087
  8
0
 10
370.6173108508357927
 20
79.123125538598714
 30
0.0
 40
0.0219182986815723
 50
287.7877673320970189
 51
14.4954053845797901
  0
ARC
  5
F088
  8
0
 10
370.6181602059971851
 20
79.1233451241141097
 30
0.0
 40
0.0210410176610874
 50
14.4954053845789996
 51
85.767282760949854
  0
ARC
  5
F089
  8
0
 10
370.8797697417691097
 20
79.1176207139078116
 30
0.0
 40
0.0728346832028418
 50
89.941817833885878
 51
270.0581821661140793
  0
ARC
  5
F08A
  8
0
 10
370.8797697417691097
 20
79.1176207139078684
 30
0.0
 40
0.0728346832028808
 50
270.0581821661140793
 51
89.9418177552189633
  0
ARC
  5
F08B
  8
0
 10
370.8826368355361751
 20
79.1188938134038011
 30
0.0
 40
0.0548785222085503
 50
92.2283965624548046
 51
143.9212734935242963
  0
ARC
  5
F08C
  8
0
 10
370.8830433233584927
 20
79.1185976285038493
 30
0.0
 40
0.0553814713556675
 50
143.9212734935242963
 51
186.7948127526722999
  0
ARC
  5
F08D
  8
0
 10
370.883365469976809
 20
79.1186360125826269
 30
0.0
 40
0.0557058966647677
 50
186.7948127526730957
 51
249.0774063478827998
  0
ARC
  5
F08E
  8
0
 10
370.883160039702318
 20
79.1180986797607204
 30
0.0
 40
0.055130633108497
 50
249.0774063478827998
 51
335.6278903738090094
  0
ARC
  5
F08F
  8
0
 10
370.8828058495662958
 20
79.1182591396881776
 30
0.0
 40
0.0555194750310309
 50
335.6278903738082136
 51
92.3772187280729753
  0
ARC
  5
F090
  8
0
 10
370.8763877191784104
 20
79.1253176081448828
 30
0.0
 40
0.0217449548892826
 50
85.1887842861532789
 51
192.7659035984063109
  0
ARC
  5
F091
  8
0
 10
370.8759875043625129
 20
79.1252269319948311
 30
0.0
 40
0.0213345964324063
 50
192.7659035984079026
 51
287.7877673320970189
  0
ARC
  5
F092
  8
0
 10
370.8758091879843732
 20
79.1257827301461418
 30
0.0
 40
0.0219182986815723
 50
287.7877673320970189
 51
14.4954053845797901
  0
ARC
  5
F093
  8
0
 10
370.8766585431458225
 20
79.1260023156615375
 30
0.0
 40
0.0210410176610874
 50
14.4954053845789996
 51
85.767282760949854
  0
ARC
  5
F094
  8
0
 10
371.1319684536597947
 20
79.1161886738419042
 30
0.0
 40
0.0728346832028418
 50
89.941817833885878
 51
270.0581821661140793
  0
ARC
  5
F095
  8
0
 10
371.1319684536597947
 20
79.1161886738419611
 30
0.0
 40
0.0728346832028808
 50
270.0581821661140793
 51
89.9418177552189633
  0
ARC
  5
F096
  8
0
 10
371.1348355474269169
 20
79.1174617733378938
 30
0.0
 40
0.0548785222085503
 50
92.2283965624548046
 51
143.9212734935242963
  0
ARC
  5
F097
  8
0
 10
371.1352420352491208
 20
79.1171655884379419
 30
0.0
 40
0.0553814713556675
 50
143.9212734935242963
 51
186.7948127526722999
  0
ARC
  5
F098
  8
0
 10
371.1355641818673803
 20
79.1172039725167195
 30
0.0
 40
0.0557058966647677
 50
186.7948127526730957
 51
249.0774063478827998
  0
ARC
  5
F099
  8
0
 10
371.1353587515928893
 20
79.1166666396948131
 30
0.0
 40
0.055130633108497
 50
249.0774063478827998
 51
335.6278903738090094
  0
ARC
  5
F09A
  8
0
 10
371.1350045614569808
 20
79.1168270996222702
 30
0.0
 40
0.0555194750310309
 50
335.6278903738082136
 51
92.3772187280729753
  0
ARC
  5
F09B
  8
0
 10
371.1285864310689817
 20
79.1238855680789754
 30
0.0
 40
0.0217449548892826
 50
85.1887842861532789
 51
192.7659035984063109
  0
ARC
  5
F09C
  8
0
 10
371.1281862162530842
 20
79.1237948919289238
 30
0.0
 40
0.0213345964324063
 50
192.7659035984079026
 51
287.7877673320970189
  0
ARC
  5
F09D
  8
0
 10
371.1280078998750014
 20
79.1243506900802345
 30
0.0
 40
0.0219182986815723
 50
287.7877673320970189
 51
14.4954053845797901
  0
ARC
  5
F09E
  8
0
 10
371.1288572550365075
 20
79.1245702755956302
 30
0.0
 40
0.0210410176610874
 50
14.4954053845789996
 51
85.767282760949854
  0
ARC
  5
F09F
  8
0
 10
371.0008768232582952
 20
79.2412650120601967
 30
0.0
 40
0.0728346832028418
 50
89.941817833885878
 51
270.0581821661140793
  0
ARC
  5
F0A0
  8
0
 10
371.0008768232582952
 20
79.2412650120602535
 30
0.0
 40
0.0728346832028808
 50
270.0581821661140793
 51
89.9418177552189633
  0
ARC
  5
F0A1
  8
0
 10
371.0037439170254174
 20
79.2425381115561862
 30
0.0
 40
0.0548785222085503
 50
92.2283965624548046
 51
143.9212734935242963
  0
ARC
  5
F0A2
  8
0
 10
371.0041504048476781
 20
79.2422419266562343
 30
0.0
 40
0.0553814713556675
 50
143.9212734935242963
 51
186.7948127526722999
  0
ARC
  5
F0A3
  8
0
 10
371.0044725514658808
 20
79.242280310735012
 30
0.0
 40
0.0557058966647677
 50
186.7948127526730957
 51
249.0774063478827998
  0
ARC
  5
F0A4
  8
0
 10
371.0042671211913898
 20
79.2417429779131055
 30
0.0
 40
0.055130633108497
 50
249.0774063478827998
 51
335.6278903738090094
  0
ARC
  5
F0A5
  8
0
 10
371.0039129310554813
 20
79.2419034378405627
 30
0.0
 40
0.0555194750310309
 50
335.6278903738082136
 51
92.3772187280729753
  0
ARC
  5
F0A6
  8
0
 10
370.9974948006675959
 20
79.2489619062972679
 30
0.0
 40
0.0217449548892826
 50
85.1887842861532789
 51
192.7659035984063109
  0
ARC
  5
F0A7
  8
0
 10
370.9970945858516984
 20
79.2488712301472162
 30
0.0
 40
0.0213345964324063
 50
192.7659035984079026
 51
287.7877673320970189
  0
ARC
  5
F0A8
  8
0
 10
370.9969162694735019
 20
79.2494270282985269
 30
0.0
 40
0.0219182986815723
 50
287.7877673320970189
 51
14.4954053845797901
  0
ARC
  5
F0A9
  8
0
 10
370.997765624635008
 20
79.2496466138139226
 30
0.0
 40
0.0210410176610874
 50
14.4954053845789996
 51
85.767282760949854
  0
ARC
  5
F0AA
  8
0
 10
370.7516790757081822
 20
79.2431919451527875
 30
0.0
 40
0.0728346832028418
 50
89.941817833885878
 51
270.0581821661140793
  0
ARC
  5
F0AB
  8
0
 10
370.7516790757081822
 20
79.2431919451528444
 30
0.0
 40
0.0728346832028808
 50
270.0581821661140793
 51
89.9418177552189633
  0
ARC
  5
F0AC
  8
0
 10
370.7545461694754181
 20
79.2444650446487771
 30
0.0
 40
0.0548785222085503
 50
92.2283965624548046
 51
143.9212734935242963
  0
ARC
  5
F0AD
  8
0
 10
370.754952657297622
 20
79.2441688597488252
 30
0.0
 40
0.0553814713556675
 50
143.9212734935242963
 51
186.7948127526722999
  0
ARC
  5
F0AE
  8
0
 10
370.7552748039158814
 20
79.2442072438276028
 30
0.0
 40
0.0557058966647677
 50
186.7948127526730957
 51
249.0774063478827998
  0
ARC
  5
F0AF
  8
0
 10
370.7550693736413905
 20
79.2436699110056963
 30
0.0
 40
0.055130633108497
 50
249.0774063478827998
 51
335.6278903738090094
  0
ARC
  5
F0B0
  8
0
 10
370.7547151835054819
 20
79.2438303709331535
 30
0.0
 40
0.0555194750310309
 50
335.6278903738082136
 51
92.3772187280729753
  0
ARC
  5
F0B1
  8
0
 10
370.7482970531175965
 20
79.2508888393898587
 30
0.0
 40
0.0217449548892826
 50
85.1887842861532789
 51
192.7659035984063109
  0
ARC
  5
F0B2
  8
0
 10
370.7478968383015854
 20
79.2507981632398071
 30
0.0
 40
0.0213345964324063
 50
192.7659035984079026
 51
287.7877673320970189
  0
ARC
  5
F0B3
  8
0
 10
370.7477185219235025
 20
79.2513539613911036
 30
0.0
 40
0.0219182986815723
 50
287.7877673320970189
 51
14.4954053845797901
  0
ARC
  5
F0B4
  8
0
 10
370.7485678770848949
 20
79.2515735469065135
 30
0.0
 40
0.0210410176610874
 50
14.4954053845789996
 51
85.767282760949854
  0
ARC
  5
F0B5
  8
0
 10
370.6238592506788905
 20
79.3675710321669641
 30
0.0
 40
0.0728346832028418
 50
89.941817833885878
 51
270.0581821661140793
  0
ARC
  5
F0B6
  8
0
 10
370.6238592506788905
 20
79.3675710321670209
 30
0.0
 40
0.0728346832028808
 50
270.0581821661140793
 51
89.9418177552189633
  0
ARC
  5
F0B7
  8
0
 10
370.6267263444461264
 20
79.3688441316629536
 30
0.0
 40
0.0548785222085503
 50
92.2283965624548046
 51
143.9212734935242963
  0
ARC
  5
F0B8
  8
0
 10
370.6271328322682734
 20
79.3685479467630017
 30
0.0
 40
0.0553814713556675
 50
143.9212734935242963
 51
186.7948127526722999
  0
ARC
  5
F0B9
  8
0
 10
370.6274549788865897
 20
79.3685863308417652
 30
0.0
 40
0.0557058966647677
 50
186.7948127526730957
 51
249.0774063478827998
  0
ARC
  5
F0BA
  8
0
 10
370.6272495486120988
 20
79.3680489980198729
 30
0.0
 40
0.055130633108497
 50
249.0774063478827998
 51
335.6278903738090094
  0
ARC
  5
F0BB
  8
0
 10
370.6268953584761903
 20
79.3682094579473301
 30
0.0
 40
0.0555194750310309
 50
335.6278903738082136
 51
92.3772187280729753
  0
ARC
  5
F0BC
  8
0
 10
370.6204772280881912
 20
79.3752679264040353
 30
0.0
 40
0.0217449548892826
 50
85.1887842861532789
 51
192.7659035984063109
  0
ARC
  5
F0BD
  8
0
 10
370.6200770132722937
 20
79.3751772502539836
 30
0.0
 40
0.0213345964324063
 50
192.7659035984079026
 51
287.7877673320970189
  0
ARC
  5
F0BE
  8
0
 10
370.6198986968942108
 20
79.3757330484052943
 30
0.0
 40
0.0219182986815723
 50
287.7877673320970189
 51
14.4954053845797901
  0
ARC
  5
F0BF
  8
0
 10
370.6207480520557169
 20
79.37595263392069
 30
0.0
 40
0.0210410176610874
 50
14.4954053845789996
 51
85.767282760949854
  0
ARC
  5
F0C0
  8
0
 10
370.8805862646257197
 20
79.3698720474340433
 30
0.0
 40
0.0728346832028418
 50
89.941817833885878
 51
270.0581821661140793
  0
ARC
  5
F0C1
  8
0
 10
370.8805862646257197
 20
79.3698720474341002
 30
0.0
 40
0.0728346832028808
 50
270.0581821661140793
 51
89.9418177552189633
  0
ARC
  5
F0C2
  8
0
 10
370.883453358392785
 20
79.3711451469300329
 30
0.0
 40
0.0548785222085503
 50
92.2283965624548046
 51
143.9212734935242963
  0
ARC
  5
F0C3
  8
0
 10
370.8838598462151026
 20
79.370848962030081
 30
0.0
 40
0.0553814713556675
 50
143.9212734935242963
 51
186.7948127526722999
  0
ARC
  5
F0C4
  8
0
 10
370.8841819928333052
 20
79.3708873461088587
 30
0.0
 40
0.0557058966647677
 50
186.7948127526730957
 51
249.0774063478827998
  0
ARC
  5
F0C5
  8
0
 10
370.8839765625588143
 20
79.3703500132869522
 30
0.0
 40
0.055130633108497
 50
249.0774063478827998
 51
335.6278903738090094
  0
ARC
  5
F0C6
  8
0
 10
370.8836223724229058
 20
79.3705104732144093
 30
0.0
 40
0.0555194750310309
 50
335.6278903738082136
 51
92.3772187280729753
  0
ARC
  5
F0C7
  8
0
 10
370.8772042420350203
 20
79.3775689416711145
 30
0.0
 40
0.0217449548892826
 50
85.1887842861532789
 51
192.7659035984063109
  0
ARC
  5
F0C8
  8
0
 10
370.8768040272190092
 20
79.3774782655210629
 30
0.0
 40
0.0213345964324063
 50
192.7659035984079026
 51
287.7877673320970189
  0
ARC
  5
F0C9
  8
0
 10
370.8766257108409263
 20
79.3780340636723736
 30
0.0
 40
0.0219182986815723
 50
287.7877673320970189
 51
14.4954053845797901
  0
ARC
  5
F0CA
  8
0
 10
370.8774750660023756
 20
79.3782536491877693
 30
0.0
 40
0.0210410176610874
 50
14.4954053845789996
 51
85.767282760949854
  0
ARC
  5
F0CB
  8
0
 10
371.1331552402049283
 20
79.366893196992649
 30
0.0
 40
0.0728346832028418
 50
89.941817833885878
 51
270.0581821661140793
  0
ARC
  5
F0CC
  8
0
 10
371.1331552402049283
 20
79.3668931969927058
 30
0.0
 40
0.0728346832028808
 50
270.0581821661140793
 51
89.9418177552189633
  0
ARC
  5
F0CD
  8
0
 10
371.1360223339719937
 20
79.3681662964886385
 30
0.0
 40
0.0548785222085503
 50
92.2283965624548046
 51
143.9212734935242963
  0
ARC
  5
F0CE
  8
0
 10
371.1364288217943113
 20
79.3678701115886867
 30
0.0
 40
0.0553814713556675
 50
143.9212734935242963
 51
186.7948127526722999
  0
ARC
  5
F0CF
  8
0
 10
371.1367509684126276
 20
79.3679084956674643
 30
0.0
 40
0.0557058966647677
 50
186.7948127526730957
 51
249.0774063478827998
  0
ARC
  5
F0D0
  8
0
 10
371.1365455381380798
 20
79.3673711628455578
 30
0.0
 40
0.055130633108497
 50
249.0774063478827998
 51
335.6278903738090094
  0
ARC
  5
F0D1
  8
0
 10
371.1361913480022281
 20
79.367531622773015
 30
0.0
 40
0.0555194750310309
 50
335.6278903738082136
 51
92.3772187280729753
  0
ARC
  5
F0D2
  8
0
 10
371.1297732176141722
 20
79.3745900912297202
 30
0.0
 40
0.0217449548892826
 50
85.1887842861532789
 51
192.7659035984063109
  0
ARC
  5
F0D3
  8
0
 10
371.1293730027982747
 20
79.3744994150796686
 30
0.0
 40
0.0213345964324063
 50
192.7659035984079026
 51
287.7877673320970189
  0
ARC
  5
F0D4
  8
0
 10
371.1291946864201918
 20
79.3750552132309792
 30
0.0
 40
0.0219182986815723
 50
287.7877673320970189
 51
14.4954053845797901
  0
ARC
  5
F0D5
  8
0
 10
371.1300440415815842
 20
79.3752747987463749
 30
0.0
 40
0.0210410176610874
 50
14.4954053845789996
 51
85.767282760949854
  0
ARC
  5
F0D6
  8
0
 10
371.0022018872920739
 20
79.4898147873684735
 30
0.0
 40
0.0728346832028418
 50
89.941817833885878
 51
270.0581821661140793
  0
ARC
  5
F0D7
  8
0
 10
371.0022018872920739
 20
79.4898147873685303
 30
0.0
 40
0.0728346832028808
 50
270.0581821661140793
 51
89.9418177552189633
  0
ARC
  5
F0D8
  8
0
 10
371.0050689810591962
 20
79.491087886864463
 30
0.0
 40
0.0548785222085503
 50
92.2283965624548046
 51
143.9212734935242963
  0
ARC
  5
F0D9
  8
0
 10
371.0054754688815137
 20
79.4907917019645112
 30
0.0
 40
0.0553814713556675
 50
143.9212734935242963
 51
186.7948127526722999
  0
ARC
  5
F0DA
  8
0
 10
371.0057976154997732
 20
79.4908300860432888
 30
0.0
 40
0.0557058966647677
 50
186.7948127526730957
 51
249.0774063478827998
  0
ARC
  5
F0DB
  8
0
 10
371.0055921852252823
 20
79.4902927532213823
 30
0.0
 40
0.055130633108497
 50
249.0774063478827998
 51
335.6278903738090094
  0
ARC
  5
F0DC
  8
0
 10
371.0052379950893737
 20
79.4904532131488253
 30
0.0
 40
0.0555194750310309
 50
335.6278903738082136
 51
92.3772187280729753
  0
ARC
  5
F0DD
  8
0
 10
370.9988198647013746
 20
79.4975116816055447
 30
0.0
 40
0.0217449548892826
 50
85.1887842861532789
 51
192.7659035984063109
  0
ARC
  5
F0DE
  8
0
 10
370.9984196498854772
 20
79.4974210054554931
 30
0.0
 40
0.0213345964324063
 50
192.7659035984079026
 51
287.7877673320970189
  0
ARC
  5
F0DF
  8
0
 10
370.9982413335073943
 20
79.4979768036068037
 30
0.0
 40
0.0219182986815723
 50
287.7877673320970189
 51
14.4954053845797901
  0
ARC
  5
F0E0
  8
0
 10
370.9990906886687867
 20
79.4981963891221994
 30
0.0
 40
0.0210410176610874
 50
14.4954053845789996
 51
85.767282760949854
  0
CIRCLE
  5
F0E1
  8
0
 10
370.8770102448461898
 20
76.9989199921501495
 30
0.0
 40
0.3031841338802662
  0
CIRCLE
  5
F0E2
  8
0
 10
370.8769139875461747
 20
76.998954504450154
 30
0.0
 40
0.2638821493719886
  0
CIRCLE
  5
F0E3
  8
0
 10
370.8769139875461747
 20
76.2115529296501535
 30
0.0
 40
0.3031496062999999
  0
CIRCLE
  5
F0E4
  8
0
 10
370.8769139875461747
 20
76.2115529296501535
 30
0.0
 40
0.2638821485243569
  0
LINE
  5
F0E5
  8
0
 10
367.4532968176620784
 20
89.3157961611778433
 30
0.0
 11
368.1591610787303921
 21
89.3157961611778433
 31
0.0
  0
LINE
  5
F0E6
  8
0
 10
368.062134460046309
 20
49.5951749769501475
 30
0.0
 11
368.062134360020309
 21
49.8412384410772376
 31
0.0
  0
LINE
  5
F0E7
  8
0
 10
375.3652840662957146
 20
87.6629230084001563
 30
0.0
 11
360.2471738300956758
 21
87.6629230084001563
 31
0.0
  0
LINE
  5
F0E8
  8
0
 10
360.2471738300956758
 20
87.6629230084001563
 30
0.0
 11
360.2471738300956758
 21
87.7416631659001638
 31
0.0
  0
LINE
  5
F0E9
  8
0
 10
360.2471738300956758
 20
87.7416631659001638
 30
0.0
 11
375.3652840662957146
 21
87.7416631659001638
 31
0.0
  0
LINE
  5
F0EA
  8
0
 10
375.3652840662957146
 20
87.7416631659001638
 30
0.0
 11
375.3652840662957146
 21
87.6629230084001563
 31
0.0
  0
LINE
  5
F0EB
  8
0
 10
360.8770950898957039
 20
87.7416631659001638
 30
0.0
 11
360.8770950898957039
 21
87.9385135595981069
 31
0.0
  0
ARC
  5
F0EC
  8
0
 10
360.9361502079977981
 20
87.9385135595981069
 30
0.0
 40
0.0590551181020586
 50
90.0000000003973355
 51
180.0
  0
LINE
  5
F0ED
  8
0
 10
360.9361502079974002
 20
87.9975686777001584
 30
0.0
 11
374.6763076883938766
 21
87.9975686777954138
 31
0.0
  0
ARC
  5
F0EE
  8
0
 10
374.6763076883942745
 20
87.9385135596939733
 30
0.0
 40
0.0590551181014476
 50
359.9999999089749281
 51
90.0000000004005756
  0
LINE
  5
F0EF
  8
0
 10
374.7353628064956865
 20
87.9385135596001533
 30
0.0
 11
374.7353628061829909
 21
87.7416631659001638
 31
0.0
  0
LINE
  5
F0F0
  8
0
 10
361.4479612316956718
 20
87.6629230084001563
 30
0.0
 11
361.4479612316956718
 21
87.6156789139001546
 31
0.0
  0
ARC
  5
F0F1
  8
0
 10
361.459772255295718
 20
87.6156789139001546
 30
0.0
 40
0.0118110236000035
 50
180.0
 51
269.9999999999837996
  0
LINE
  5
F0F2
  8
0
 10
361.459772255295718
 20
87.6038678903001653
 30
0.0
 11
361.5700084757957029
 21
87.6038678903001369
 31
0.0
  0
ARC
  5
F0F3
  8
0
 10
361.5700084757957029
 20
87.615678913900112
 30
0.0
 40
0.0118110235999893
 50
270.0000000000130171
 51
0.0000000002410097
  0
LINE
  5
F0F4
  8
0
 10
361.5818194993956922
 20
87.6156789139001546
 30
0.0
 11
361.5818194993955217
 21
87.6629230084001563
 31
0.0
  0
LINE
  5
F0F5
  8
0
 10
362.1881187119959122
 20
87.6629230084001563
 30
0.0
 11
362.1881187119959122
 21
87.6156789139001546
 31
0.0
  0
ARC
  5
F0F6
  8
0
 10
362.1999297355959015
 20
87.6156789139001546
 30
0.0
 40
0.0118110236000035
 50
180.0
 51
269.9999999999837996
  0
LINE
  5
F0F7
  8
0
 10
362.1999297355959015
 20
87.6038678903001653
 30
0.0
 11
362.3101659560958865
 21
87.6038678903001369
 31
0.0
  0
ARC
  5
F0F8
  8
0
 10
362.3101659560958865
 20
87.615678913900112
 30
0.0
 40
0.0118110235999893
 50
270.0000000000130171
 51
0.0000000002410097
  0
LINE
  5
F0F9
  8
0
 10
362.3219769796958758
 20
87.6156789139001546
 30
0.0
 11
362.3219769796957053
 21
87.6629230084001563
 31
0.0
  0
LINE
  5
F0FA
  8
0
 10
362.9282761922959253
 20
87.6629230084001563
 30
0.0
 11
362.9282761922959253
 21
87.6156789139001546
 31
0.0
  0
ARC
  5
F0FB
  8
0
 10
362.9400872158959146
 20
87.6156789139001546
 30
0.0
 40
0.0118110236000035
 50
180.0
 51
269.9999999999837996
  0
LINE
  5
F0FC
  8
0
 10
362.9400872158959146
 20
87.6038678903001653
 30
0.0
 11
363.0503234363958995
 21
87.6038678903001369
 31
0.0
  0
ARC
  5
F0FD
  8
0
 10
363.0503234363960132
 20
87.615678913900112
 30
0.0
 40
0.0118110235999893
 50
270.0000000000130171
 51
0.0000000002410097
  0
LINE
  5
F0FE
  8
0
 10
363.0621344599958888
 20
87.6156789139001546
 30
0.0
 11
363.0621344599957183
 21
87.6629230084001563
 31
0.0
  0
LINE
  5
F0FF
  8
0
 10
363.6684336725958815
 20
87.6629230084001563
 30
0.0
 11
363.6684336725958815
 21
87.6156789139001546
 31
0.0
  0
ARC
  5
F100
  8
0
 10
363.6802446961959276
 20
87.6156789139001546
 30
0.0
 40
0.0118110236000035
 50
180.0
 51
269.9999999999837996
  0
LINE
  5
F101
  8
0
 10
363.6802446961959276
 20
87.6038678903001653
 30
0.0
 11
363.7904809166959126
 21
87.6038678903001369
 31
0.0
  0
ARC
  5
F102
  8
0
 10
363.7904809166959126
 20
87.615678913900112
 30
0.0
 40
0.0118110235999893
 50
270.0000000000130171
 51
0.0000000002410097
  0
LINE
  5
F103
  8
0
 10
363.8022919402959019
 20
87.6156789139001546
 30
0.0
 11
363.8022919402956745
 21
87.6629230084001563
 31
0.0
  0
LINE
  5
F104
  8
0
 10
364.4085911528958945
 20
87.6629230084001563
 30
0.0
 11
364.4085911528958945
 21
87.6156789139001546
 31
0.0
  0
ARC
  5
F105
  8
0
 10
364.4204021764958839
 20
87.6156789139001546
 30
0.0
 40
0.0118110236000035
 50
180.0
 51
269.9999999999837996
  0
LINE
  5
F106
  8
0
 10
364.4204021764958839
 20
87.6038678903001653
 30
0.0
 11
364.5306383969959256
 21
87.6038678903001369
 31
0.0
  0
ARC
  5
F107
  8
0
 10
364.5306383969959256
 20
87.615678913900112
 30
0.0
 40
0.0118110235999893
 50
270.0000000000130171
 51
0.0000000002410097
  0
LINE
  5
F108
  8
0
 10
364.5424494205959149
 20
87.6156789139001546
 30
0.0
 11
364.5424494205958013
 21
87.6629230084001563
 31
0.0
  0
LINE
  5
F109
  8
0
 10
365.1487486332960088
 20
87.6629230084001563
 30
0.0
 11
365.1487486332960088
 21
87.6156789139001546
 31
0.0
  0
ARC
  5
F10A
  8
0
 10
365.1605596568958845
 20
87.6156789139001546
 30
0.0
 40
0.0118110236000035
 50
180.0
 51
269.9999999999837996
  0
LINE
  5
F10B
  8
0
 10
365.1605596568958845
 20
87.6038678903001653
 30
0.0
 11
365.2707958773959263
 21
87.6038678903001369
 31
0.0
  0
ARC
  5
F10C
  8
0
 10
365.2707958773959263
 20
87.615678913900112
 30
0.0
 40
0.0118110235999893
 50
270.0000000000130171
 51
0.0000000002410097
  0
LINE
  5
F10D
  8
0
 10
365.2826069009959156
 20
87.6156789139001546
 30
0.0
 11
365.2826069009956882
 21
87.6629230084001563
 31
0.0
  0
LINE
  5
F10E
  8
0
 10
365.8889061135959082
 20
87.6629230084001563
 30
0.0
 11
365.8889061135959082
 21
87.6156789139001546
 31
0.0
  0
ARC
  5
F10F
  8
0
 10
365.9007171371960112
 20
87.6156789139001546
 30
0.0
 40
0.0118110236000035
 50
180.0
 51
269.9999999999837996
  0
LINE
  5
F110
  8
0
 10
365.9007171371958975
 20
87.6038678903001653
 30
0.0
 11
366.0109533576958825
 21
87.6038678903001369
 31
0.0
  0
ARC
  5
F111
  8
0
 10
366.0109533576958825
 20
87.615678913900112
 30
0.0
 40
0.0118110235999893
 50
270.0000000000130171
 51
0.0000000002410097
  0
LINE
  5
F112
  8
0
 10
366.0227643812958718
 20
87.6156789139001546
 30
0.0
 11
366.0227643812957012
 21
87.6629230084001563
 31
0.0
  0
LINE
  5
F113
  8
0
 10
366.6290635938959213
 20
87.6629230084001563
 30
0.0
 11
366.6290635938959213
 21
87.6156789139001546
 31
0.0
  0
ARC
  5
F114
  8
0
 10
366.6408746174959106
 20
87.6156789139001546
 30
0.0
 40
0.0118110236000035
 50
180.0
 51
269.9999999999837996
  0
LINE
  5
F115
  8
0
 10
366.6408746174959106
 20
87.6038678903001653
 30
0.0
 11
366.7511108379958955
 21
87.6038678903001369
 31
0.0
  0
ARC
  5
F116
  8
0
 10
366.7511108379958955
 20
87.615678913900112
 30
0.0
 40
0.0118110235999893
 50
270.0000000000130171
 51
0.0000000002410097
  0
LINE
  5
F117
  8
0
 10
366.7629218615958848
 20
87.6156789139001546
 30
0.0
 11
366.7629218615957143
 21
87.6629230084001563
 31
0.0
  0
LINE
  5
F118
  8
0
 10
367.3692210741958775
 20
87.6629230084001563
 30
0.0
 11
367.3692210741958775
 21
87.6156789139001546
 31
0.0
  0
ARC
  5
F119
  8
0
 10
367.3810320977959236
 20
87.6156789139001546
 30
0.0
 40
0.0118110236000035
 50
180.0
 51
269.9999999999837996
  0
LINE
  5
F11A
  8
0
 10
367.3810320977959236
 20
87.6038678903001653
 30
0.0
 11
367.4912683182959086
 21
87.6038678903001369
 31
0.0
  0
ARC
  5
F11B
  8
0
 10
367.4912683182959086
 20
87.615678913900112
 30
0.0
 40
0.0118110235999893
 50
270.0000000000130171
 51
0.0000000002410097
  0
LINE
  5
F11C
  8
0
 10
367.5030793418958979
 20
87.6156789139001546
 30
0.0
 11
367.5030793418957273
 21
87.6629230084001563
 31
0.0
  0
LINE
  5
F11D
  8
0
 10
368.1093785544958905
 20
87.6629230084001563
 30
0.0
 11
368.1093785544958905
 21
87.6156789139001546
 31
0.0
  0
ARC
  5
F11E
  8
0
 10
368.1211895780958798
 20
87.6156789139001546
 30
0.0
 40
0.0118110236000035
 50
180.0
 51
269.9999999999837996
  0
LINE
  5
F11F
  8
0
 10
368.1211895780958798
 20
87.6038678903001653
 30
0.0
 11
368.2314257985959216
 21
87.6038678903001369
 31
0.0
  0
ARC
  5
F120
  8
0
 10
368.2314257985959216
 20
87.615678913900112
 30
0.0
 40
0.0118110235999893
 50
270.0000000000130171
 51
0.0000000002410097
  0
LINE
  5
F121
  8
0
 10
368.2432368221959109
 20
87.6156789139001546
 30
0.0
 11
368.2432368221956835
 21
87.6629230084001563
 31
0.0
  0
LINE
  5
F122
  8
0
 10
368.8495360347959036
 20
87.6629230084001563
 30
0.0
 11
368.8495360347959036
 21
87.6156789139001546
 31
0.0
  0
ARC
  5
F123
  8
0
 10
368.8613470583958929
 20
87.6156789139001546
 30
0.0
 40
0.0118110236000035
 50
180.0
 51
269.9999999999837996
  0
LINE
  5
F124
  8
0
 10
368.8613470583958929
 20
87.6038678903001653
 30
0.0
 11
368.9715832788958778
 21
87.6038678903001369
 31
0.0
  0
ARC
  5
F125
  8
0
 10
368.9715832788958778
 20
87.615678913900112
 30
0.0
 40
0.0118110235999893
 50
270.0000000000130171
 51
0.0000000002410097
  0
LINE
  5
F126
  8
0
 10
368.983394302495924
 20
87.6156789139001546
 30
0.0
 11
368.9833943024958103
 21
87.6629230084001563
 31
0.0
  0
LINE
  5
F127
  8
0
 10
369.5896935150959166
 20
87.6629230084001563
 30
0.0
 11
369.5896935150959166
 21
87.6156789139001546
 31
0.0
  0
ARC
  5
F128
  8
0
 10
369.6015045386959059
 20
87.6156789139001546
 30
0.0
 40
0.0118110236000035
 50
180.0
 51
269.9999999999837996
  0
LINE
  5
F129
  8
0
 10
369.6015045386959059
 20
87.6038678903001653
 30
0.0
 11
369.7117407591960045
 21
87.6038678903001369
 31
0.0
  0
ARC
  5
F12A
  8
0
 10
369.7117407591960045
 20
87.615678913900112
 30
0.0
 40
0.0118110235999893
 50
270.0000000000130171
 51
0.0000000002410097
  0
LINE
  5
F12B
  8
0
 10
369.7235517827958802
 20
87.6156789139001546
 30
0.0
 11
369.7235517827957096
 21
87.6629230084001563
 31
0.0
  0
LINE
  5
F12C
  8
0
 10
370.3298509954959172
 20
87.6629230084001563
 30
0.0
 11
370.3298509954959172
 21
87.6156789139001546
 31
0.0
  0
ARC
  5
F12D
  8
0
 10
370.3416620190959065
 20
87.6156789139001546
 30
0.0
 40
0.0118110236000035
 50
180.0
 51
269.9999999999837996
  0
LINE
  5
F12E
  8
0
 10
370.3416620190959065
 20
87.6038678903001653
 30
0.0
 11
370.4518982395958915
 21
87.6038678903001369
 31
0.0
  0
ARC
  5
F12F
  8
0
 10
370.4518982395958915
 20
87.615678913900112
 30
0.0
 40
0.0118110235999893
 50
270.0000000000130171
 51
0.0000000002410097
  0
LINE
  5
F130
  8
0
 10
370.4637092631958808
 20
87.6156789139001546
 30
0.0
 11
370.4637092631957103
 21
87.6629230084001563
 31
0.0
  0
LINE
  5
F131
  8
0
 10
371.0700084757958734
 20
87.6629230084001563
 30
0.0
 11
371.0700084757958734
 21
87.6156789139001546
 31
0.0
  0
ARC
  5
F132
  8
0
 10
371.0818194993959196
 20
87.6156789139001546
 30
0.0
 40
0.0118110236000035
 50
180.0
 51
269.9999999999837996
  0
LINE
  5
F133
  8
0
 10
371.0818194993959196
 20
87.6038678903001653
 30
0.0
 11
371.1920557198959045
 21
87.6038678903001369
 31
0.0
  0
ARC
  5
F134
  8
0
 10
371.1920557198959045
 20
87.615678913900112
 30
0.0
 40
0.0118110235999893
 50
270.0000000000130171
 51
0.0000000002410097
  0
LINE
  5
F135
  8
0
 10
371.2038667434958938
 20
87.6156789139001546
 30
0.0
 11
371.2038667434957233
 21
87.6629230084001563
 31
0.0
  0
LINE
  5
F136
  8
0
 10
371.8101659560958865
 20
87.6629230084001563
 30
0.0
 11
371.8101659560958865
 21
87.6156789139001546
 31
0.0
  0
ARC
  5
F137
  8
0
 10
371.8219769796958758
 20
87.6156789139001546
 30
0.0
 40
0.0118110236000035
 50
180.0
 51
269.9999999999837996
  0
LINE
  5
F138
  8
0
 10
371.8219769796958758
 20
87.6038678903001653
 30
0.0
 11
371.9322132001959176
 21
87.6038678903001369
 31
0.0
  0
ARC
  5
F139
  8
0
 10
371.9322132001959176
 20
87.615678913900112
 30
0.0
 40
0.0118110235999893
 50
270.0000000000130171
 51
0.0000000002410097
  0
LINE
  5
F13A
  8
0
 10
371.9440242237959069
 20
87.6156789139001546
 30
0.0
 11
371.9440242237956795
 21
87.6629230084001563
 31
0.0
  0
LINE
  5
F13B
  8
0
 10
372.5503234363958995
 20
87.6629230084001563
 30
0.0
 11
372.5503234363958995
 21
87.6156789139001546
 31
0.0
  0
ARC
  5
F13C
  8
0
 10
372.5621344599958888
 20
87.6156789139001546
 30
0.0
 40
0.0118110236000035
 50
180.0
 51
269.9999999999837996
  0
LINE
  5
F13D
  8
0
 10
372.5621344599958888
 20
87.6038678903001653
 30
0.0
 11
372.6723706804958738
 21
87.6038678903001369
 31
0.0
  0
ARC
  5
F13E
  8
0
 10
372.6723706804958738
 20
87.615678913900112
 30
0.0
 40
0.0118110235999893
 50
270.0000000000130171
 51
0.0000000002410097
  0
LINE
  5
F13F
  8
0
 10
372.6841817040959199
 20
87.6156789139001546
 30
0.0
 11
372.6841817040956926
 21
87.6629230084001563
 31
0.0
  0
LINE
  5
F140
  8
0
 10
373.2904809166959126
 20
87.6629230084001563
 30
0.0
 11
373.2904809166959126
 21
87.6156789139001546
 31
0.0
  0
ARC
  5
F141
  8
0
 10
373.3022919402959019
 20
87.6156789139001546
 30
0.0
 40
0.0118110236000035
 50
180.0
 51
269.9999999999837996
  0
LINE
  5
F142
  8
0
 10
373.3022919402959019
 20
87.6038678903001653
 30
0.0
 11
373.4125281607958868
 21
87.6038678903001369
 31
0.0
  0
ARC
  5
F143
  8
0
 10
373.4125281607958868
 20
87.615678913900112
 30
0.0
 40
0.0118110235999893
 50
270.0000000000130171
 51
0.0000000002410097
  0
LINE
  5
F144
  8
0
 10
373.4243391843958761
 20
87.6156789139001546
 30
0.0
 11
373.4243391843957056
 21
87.6629230084001563
 31
0.0
  0
LINE
  5
F145
  8
0
 10
374.0306383969959256
 20
87.6629230084001563
 30
0.0
 11
374.0306383969959256
 21
87.6156789139001546
 31
0.0
  0
ARC
  5
F146
  8
0
 10
374.0424494205959149
 20
87.6156789139001546
 30
0.0
 40
0.0118110236000035
 50
180.0
 51
269.9999999999837996
  0
LINE
  5
F147
  8
0
 10
374.0424494205959149
 20
87.6038678903001653
 30
0.0
 11
374.1526856410958999
 21
87.6038678903001369
 31
0.0
  0
ARC
  5
F148
  8
0
 10
374.1526856410958999
 20
87.615678913900112
 30
0.0
 40
0.0118110235999893
 50
270.0000000000130171
 51
0.0000000002410097
  0
LINE
  5
F149
  8
0
 10
374.1644966646958892
 20
87.6156789139001546
 30
0.0
 11
374.1644966646957187
 21
87.6629230084001563
 31
0.0
  0
LINE
  5
F14B
  8
0
 10
369.9047125420473776
 20
72.3215529296477087
 30
0.0
 11
369.9047125420473776
 21
71.2073979764539047
 31
0.0
  0
LINE
  5
F14C
  8
0
 10
366.8825796247276116
 20
49.8532718210868282
 30
0.0
 11
368.7298779557435182
 21
49.8532718210868282
 31
0.0
  0
ENDSEC
  0
EOF
