  0
SECTION
  2
HEADER
  9
$ACADVER
  1
AC1009
  9
$INSBASE
 10
1591.0619504530579889
 20
204.8803246872020907
 30
0.0
  9
$EXTMIN
 10
1582.7029590005570299
 20
204.8665151631280992
 30
-0.0015258207003583
  9
$EXTMAX
 10
1592.0554142526170835
 20
209.0211093518921075
 30
0.0000000349246037
  9
$LIMMIN
 10
0.0
 20
0.0
  9
$LIMMAX
 10
11.6929133858000007
 20
8.2677165353999982
  9
$ORTHOMODE
 70
     0
  9
$REGENMODE
 70
     1
  9
$FILLMODE
 70
     1
  9
$QTEXTMODE
 70
     0
  9
$MIRRTEXT
 70
     0
  9
$DRAGMODE
 70
     2
  9
$LTSCALE
 40
0.6431102362
  9
$OSMODE
 70
  4095
  9
$ATTMODE
 70
     1
  9
$TEXTSIZE
 40
0.2
  9
$TRACEWID
 40
0.05
  9
$TEXTSTYLE
  7
STANDARD
  9
$CLAYER
  8
0
  9
$CELTYPE
  6
BYLAYER
  9
$CECOLOR
 62
   256
  9
$DIMSCALE
 40
1.0
  9
$DIMASZ
 40
0.1875
  9
$DIMEXO
 40
0.0625
  9
$DIMDLI
 40
0.4443307087
  9
$DIMRND
 40
0.0
  9
$DIMDLE
 40
0.0
  9
$DIMEXE
 40
0.125
  9
$DIMTP
 40
0.01
  9
$DIMTM
 40
0.01
  9
$DIMTXT
 40
2.0
  9
$DIMCEN
 40
0.1052362205
  9
$DIMTSZ
 40
0.0
  9
$DIMTOL
 70
     1
  9
$DIMLIM
 70
     0
  9
$DIMTIH
 70
     1
  9
$DIMTOH
 70
     1
  9
$DIMSE1
 70
     0
  9
$DIMSE2
 70
     0
  9
$DIMTAD
 70
     0
  9
$DIMZIN
 70
     0
  9
$DIMBLK
  1

  9
$DIMASO
 70
     1
  9
$DIMSHO
 70
     1
  9
$DIMPOST
  1
\X
  9
$DIMAPOST
  1

  9
$DIMALT
 70
     1
  9
$DIMALTD
 70
     2
  9
$DIMALTF
 40
25.3999999999999986
  9
$DIMLFAC
 40
1.0
  9
$DIMTOFL
 70
     0
  9
$DIMTVP
 40
0.0
  9
$DIMTIX
 70
     0
  9
$DIMSOXD
 70
     0
  9
$DIMSAH
 70
     0
  9
$DIMBLK1
  1

  9
$DIMBLK2
  1

  9
$DIMSTYLE
  2
STANDARD
  9
$DIMCLRD
 70
     0
  9
$DIMCLRE
 70
     0
  9
$DIMCLRT
 70
     0
  9
$DIMTFAC
 40
1.0
  9
$DIMGAP
 40
0.09
  9
$LUNITS
 70
     2
  9
$LUPREC
 70
     4
  9
$SKETCHINC
 40
0.1
  9
$FILLETRAD
 40
0.0
  9
$AUNITS
 70
     0
  9
$AUPREC
 70
     0
  9
$MENU
  1
.
  9
$ELEVATION
 40
0.0
  9
$PELEVATION
 40
0.0
  9
$THICKNESS
 40
0.0
  9
$LIMCHECK
 70
     0
  9
$BLIPMODE
 70
     0
  9
$CHAMFERA
 40
0.0
  9
$CHAMFERB
 40
0.0
  9
$SKPOLY
 70
     0
  9
$TDCREATE
 40
2458060.468368056230247
  9
$TDUPDATE
 40
2460005.4421759261749685
  9
$TDINDWG
 40
0.2850311343
  9
$TDUSRTIMER
 40
0.2850311343
  9
$USRTIMER
 70
     1
  9
$ANGBASE
 50
0.0
  9
$ANGDIR
 70
     0
  9
$PDMODE
 70
     0
  9
$PDSIZE
 40
0.3125
  9
$PLINEWID
 40
0.0
  9
$COORDS
 70
     1
  9
$SPLFRAME
 70
     0
  9
$SPLINETYPE
 70
     6
  9
$SPLINESEGS
 70
     8
  9
$ATTDIA
 70
     1
  9
$ATTREQ
 70
     1
  9
$HANDLING
 70
     1
  9
$HANDSEED
  5
5CE1
  9
$SURFTAB1
 70
     6
  9
$SURFTAB2
 70
     6
  9
$SURFTYPE
 70
     6
  9
$SURFU
 70
     6
  9
$SURFV
 70
     6
  9
$UCSNAME
  2

  9
$UCSORG
 10
0.0
 20
0.0
 30
0.0
  9
$UCSXDIR
 10
1.0
 20
0.0
 30
0.0
  9
$UCSYDIR
 10
0.0
 20
1.0
 30
0.0
  9
$PUCSNAME
  2

  9
$PUCSORG
 10
0.0
 20
0.0
 30
0.0
  9
$PUCSXDIR
 10
1.0
 20
0.0
 30
0.0
  9
$PUCSYDIR
 10
0.0
 20
1.0
 30
0.0
  9
$USERI1
 70
     0
  9
$USERI2
 70
     0
  9
$USERI3
 70
     0
  9
$USERI4
 70
     0
  9
$USERI5
 70
     0
  9
$USERR1
 40
0.0
  9
$USERR2
 40
0.0
  9
$USERR3
 40
0.0
  9
$USERR4
 40
0.0
  9
$USERR5
 40
0.0
  9
$WORLDVIEW
 70
     1
  9
$SHADEDGE
 70
     3
  9
$SHADEDIF
 70
    70
  9
$TILEMODE
 70
     1
  9
$MAXACTVP
 70
    64
  9
$PLIMCHECK
 70
     0
  9
$PEXTMIN
 10
1.0000000000000000E+20
 20
1.0000000000000000E+20
 30
1.0000000000000000E+20
  9
$PEXTMAX
 10
-1.0000000000000000E+20
 20
-1.0000000000000000E+20
 30
-1.0000000000000000E+20
  9
$PLIMMIN
 10
0.0
 20
0.0
  9
$PLIMMAX
 10
12.0
 20
9.0
  9
$UNITMODE
 70
     0
  9
$VISRETAIN
 70
     1
  9
$PLINEGEN
 70
     0
  9
$PSLTSCALE
 70
     1
  0
ENDSEC
  0
SECTION
  2
TABLES
  0
TABLE
  2
VPORT
 70
     1
  0
VPORT
  2
*ACTIVE
 70
     0
 10
0.0
 20
0.0
 11
1.0
 21
1.0
 12
188.589262262641796
 22
108.7214783174782013
 13
0.0
 23
0.0
 14
1.0
 24
1.0
 15
0.0
 25
0.0
 16
0.0
 26
0.0
 36
177.9257463805905104
 17
1398.7899243639449196
 27
98.2223339400318736
 37
0.0
 40
4.1875236010923791
 41
2.5251322751322749
 42
50.0
 43
0.0
 44
0.0
 50
0.0
 51
0.0
 71
     0
 72
   100
 73
     1
 74
     1
 75
     0
 76
     0
 77
     0
 78
     0
  0
ENDTAB
  0
TABLE
  2
LTYPE
 70
     2
  0
LTYPE
  2
CONTINUOUS
 70
     0
  3
Solid line
 72
    65
 73
     0
 40
0.0
  0
LTYPE
  2
PHANTOM2
 70
     0
  3
___ _ _ ___ _ _ ___ _ _ ___ _ _
 72
    65
 73
     6
 40
1.25
 49
0.625
 49
-0.125
 49
0.125
 49
-0.125
 49
0.125
 49
-0.125
  0
ENDTAB
  0
TABLE
  2
LAYER
 70
     2
  0
LAYER
  2
0
 70
     0
 62
   255
  6
CONTINUOUS
  0
LAYER
  2
DEFPOINTS
 70
     0
 62
     7
  6
CONTINUOUS
  0
ENDTAB
  0
TABLE
  2
STYLE
 70
     1
  0
STYLE
  2
STANDARD
 70
     0
 40
0.0
 41
0.8
 50
0.0
 71
     0
 42
0.2
  3
txt
  4

  0
ENDTAB
  0
TABLE
  2
VIEW
 70
     0
  0
ENDTAB
  0
TABLE
  2
UCS
 70
     0
  0
ENDTAB
  0
TABLE
  2
APPID
 70
     9
  0
APPID
  2
ACAD
 70
     0
  0
APPID
  2
ACAD_MLEADERVER
 70
     0
  0
APPID
  2
ACAD_EXEMPT_FROM_CAD_STANDARDS
 70
     0
  0
APPID
  2
ACAD_NAV_VCDISPLAY
 70
     0
  0
APPID
  2
ACAECLAYERSTANDARD
 70
     0
  0
APPID
  2
ACCMTRANSPARENCY
 70
     0
  0
APPID
  2
ACAD_DSTYLE_DIMJAG
 70
     0
  0
APPID
  2
ACAD_DSTYLE_DIMTALN
 70
     0
  0
APPID
  2
ACDBATTR
 70
     0
  0
ENDTAB
  0
TABLE
  2
DIMSTYLE
 70
     1
  0
DIMSTYLE
  2
STANDARD
 70
     0
  3

  4

  5

  6

  7

 40
1.0
 41
0.1875
 42
0.0625
 43
0.38
 44
0.125
 45
0.0
 46
0.0
 47
0.01
 48
0.01
140
0.15625
141
0.09
142
0.0
143
25.3999999999999986
144
1.0
145
0.0
146
1.0
147
0.09
 71
     1
 72
     0
 73
     1
 74
     1
 75
     0
 76
     0
 77
     0
 78
     4
170
     0
171
     2
172
     0
173
     0
174
     0
175
     0
176
     0
177
     0
178
     0
  0
ENDTAB
  0
ENDSEC
  0
SECTION
  2
BLOCKS
  0
BLOCK
  8
0
  2
$MODEL_SPACE
 70
     0
 10
0.0
 20
0.0
 30
0.0
  3
$MODEL_SPACE
  1

  0
ENDBLK
  5
21
  8
0
  0
BLOCK
 67
     1
  8
0
  2
$PAPER_SPACE
 70
     0
 10
0.0
 20
0.0
 30
0.0
  3
$PAPER_SPACE
  1

  0
ENDBLK
  5
1D
 67
     1
  8
0
  0
BLOCK
  8
0
  2
_FILLED
 70
     0
 10
0.0
 20
0.0
 30
0.0
  3
_FILLED
  1

  0
SOLID
  5
58B0
  8
0
  6
BYBLOCK
 62
     0
 10
0.0
 20
0.0
 30
0.0
 11
-1.0
 21
0.1666666667
 31
0.0
 12
-1.0
 22
-0.1666666667
 32
0.0
 13
-1.0
 23
-0.1666666667
 33
0.0
  0
ENDBLK
  5
58B1
  8
0
  6
BYBLOCK
 62
     0
  0
ENDSEC
  0
SECTION
  2
ENTITIES
  0
LINE
  5
5AC7
  8
0
 10
1587.3523085045239895
 20
209.0102260187856871
 30
0.0
 11
1587.4416526888419412
 21
209.0102260187856871
 31
0.0
  0
LINE
  5
5AC8
  8
0
 10
1582.8529277763320806
 20
206.706316096599295
 30
0.0
 11
1583.0382410440570311
 21
206.706316096599295
 31
0.0
  0
LINE
  5
5AC9
  8
0
 10
1584.1425323008929809
 20
206.706316096599295
 30
0.0
 11
1586.785647974568974
 21
206.706316096599295
 31
0.0
  0
LINE
  5
5AD5
  8
0
 10
1588.3238981644290106
 20
208.3249863330021014
 30
0.0
 11
1589.1721926631330462
 21
208.3249863330021014
 31
0.0
  0
LINE
  5
5AD6
  8
0
 10
1589.1918880664329663
 20
208.3249863330021014
 30
0.0
 11
1590.011261011597071
 21
208.3249863330021014
 31
0.0
  0
LINE
  5
5AD7
  8
0
 10
1582.790036046232899
 20
207.9733757010270097
 30
0.0
 11
1582.790036046232899
 21
207.409241687106686
 31
0.0
  0
LINE
  5
5AD8
  8
0
 10
1582.8248277763320857
 20
208.5442349687637034
 30
0.0
 11
1582.8248277763320857
 21
206.7344160965992899
 31
0.0
  0
ARC
  5
5AD9
  8
0
 10
1582.8529277763320806
 20
208.5442349687637034
 30
0.0
 40
0.0281
 50
91.7442795936075441
 51
180.0000000000015916
  0
ARC
  5
5ADA
  8
0
 10
1614.5132513176379234
 20
206.326454624831598
 30
0.0
 40
31.765936727682611
 50
175.9965635130573105
 51
177.0281389084586863
  0
ARC
  5
5ADB
  8
0
 10
1582.8529277763320806
 20
206.7344160965992899
 30
0.0
 40
0.0281
 50
179.9999999999984084
 51
270.0
  0
ARC
  5
5ADC
  8
0
 10
1597.5179686795449925
 20
207.8302545236815888
 30
0.0
 40
14.7339489431699793
 50
181.6374118415014891
 51
184.2653159441742901
  0
ARC
  5
5ADD
  8
0
 10
1583.9737560261430644
 20
204.7714573923537955
 30
0.0
 40
2.14915483088184
 50
100.0107711980868004
 51
115.8040261000877962
  0
ARC
  5
5ADE
  8
0
 10
1583.6915330652750526
 20
206.2745339600112118
 30
0.0
 40
0.6201260448680963
 50
68.0319119733493523
 51
98.4730282540049018
  0
ARC
  5
5ADF
  8
0
 10
1583.5902416267861099
 20
206.1013221507892013
 30
0.0
 40
0.8191719374912581
 50
47.6074744639775531
 51
65.9933218166643627
  0
ARC
  5
5AE0
  8
0
 10
1586.7827064959249128
 20
204.8386851200428111
 30
0.0
 40
1.8676332929378969
 50
85.7656877973028458
 51
89.9097604534387642
  0
LINE
  5
5AE1
  8
0
 10
1586.9844609116330503
 20
206.4293277960020987
 30
0.0
 11
1586.9844609116330503
 21
206.1528711031020862
 31
0.0
  0
LINE
  5
5AE2
  8
0
 10
1586.9245396517330846
 20
206.7028081333745888
 30
0.0
 11
1586.9245396517330846
 21
206.508067953502092
 31
0.0
  0
LINE
  5
5AE3
  8
0
 10
1587.0367443762329458
 20
206.4883679535020917
 30
0.0
 11
1587.0367443762329458
 21
206.449027796002099
 31
0.0
  0
LINE
  5
5AE4
  8
0
 10
1587.8694215415330291
 20
206.7727299184273875
 30
0.0
 11
1587.8694215415330291
 21
206.508067953502092
 31
0.0
  0
LINE
  5
5AE5
  8
0
 10
1587.8095002817331078
 20
206.4293277960020987
 30
0.0
 11
1587.8095002817331078
 21
206.1528711031020862
 31
0.0
  0
LINE
  5
5AE6
  8
0
 10
1587.7572168171329849
 20
206.4883679535020917
 30
0.0
 11
1587.7572168171329849
 21
206.449027796002099
 31
0.0
  0
LINE
  5
5AE7
  8
0
 10
1587.770996344733021
 20
206.1143671661021131
 30
0.0
 11
1587.0229648486329097
 21
206.1143671661021131
 31
0.0
  0
LINE
  5
5AE8
  8
0
 10
1587.8095002817331078
 20
206.4293277960020987
 30
0.0
 11
1586.9844609116330503
 21
206.4293277960020987
 31
0.0
  0
LINE
  5
5AE9
  8
0
 10
1587.8694215415330291
 20
206.508067953502092
 30
0.0
 11
1586.9245396517330846
 21
206.508067953502092
 31
0.0
  0
ARC
  5
5AEA
  8
0
 10
1587.0170443762328887
 20
206.4883679535020917
 30
0.0
 40
0.0197
 50
0.0
 51
90.0
  0
ARC
  5
5AEB
  8
0
 10
1587.0170443762328887
 20
206.449027796002099
 30
0.0
 40
0.0197
 50
270.0
 51
359.9999999999968168
  0
ARC
  5
5AEC
  8
0
 10
1587.7769168171330421
 20
206.449027796002099
 30
0.0
 40
0.0197
 50
180.0
 51
270.0
  0
ARC
  5
5AED
  8
0
 10
1587.7769168171330421
 20
206.4883679535020917
 30
0.0
 40
0.0197
 50
90.0
 51
180.0
  0
LINE
  5
5AEE
  8
0
 10
1586.9844609116330503
 20
206.1528711031020862
 30
0.0
 11
1587.0229648486329097
 21
206.1143671661021131
 31
0.0
  0
LINE
  5
5AEF
  8
0
 10
1587.770996344733021
 20
206.1143671661021131
 30
0.0
 11
1587.8095002817331078
 21
206.1528711031020862
 31
0.0
  0
ARC
  5
5AF0
  8
0
 10
1586.9851766915749067
 20
206.5447841514175877
 30
0.0
 40
0.1692394539203072
 50
96.5712638279579636
 51
112.4298222393144044
  0
ARC
  5
5AF1
  8
0
 10
1586.9938858500290735
 20
206.330916437133709
 30
0.0
 40
0.3830257468501773
 50
76.4271397127349843
 51
94.2036932853869473
  0
LINE
  5
5AF2
  8
0
 10
1589.4832162852330839
 20
206.8840171166021094
 30
0.0
 11
1589.6800666789329171
 21
206.8840171166021094
 31
0.0
  0
LINE
  5
5AF3
  8
0
 10
1589.46353124583311
 20
206.9037021560021117
 30
0.0
 11
1589.46353124583311
 21
206.9470335771021041
 31
0.0
  0
LINE
  5
5AF4
  8
0
 10
1589.6997543813629363
 20
206.9037048191316899
 30
0.0
 11
1589.6997543813629363
 21
206.9467460157111987
 31
0.0
  0
LINE
  5
5AF5
  8
0
 10
1589.46353124583311
 20
206.9037021560021117
 30
0.0
 11
1589.4832162852330839
 21
206.8840171166021094
 31
0.0
  0
LINE
  5
5AF6
  8
0
 10
1589.6800666789329171
 20
206.8840171166021094
 30
0.0
 11
1589.6997543813629363
 21
206.9037048191316899
 31
0.0
  0
LINE
  5
5AF7
  8
0
 10
1589.1721926631330462
 20
208.3249863330021014
 30
0.0
 11
1589.1721926631330462
 21
206.9470335771021041
 31
0.0
  0
ARC
  5
5AF8
  8
0
 10
1589.1918926631331033
 20
208.3052863330021012
 30
0.0
 40
0.0197
 50
89.9999999999739515
 51
180.0000000000048885
  0
ARC
  5
5AF9
  8
0
 10
1589.1921469310309476
 20
206.9668389244893092
 30
0.0
 40
0.019954545984351
 50
180.3024868977612982
 51
262.9891601736050006
  0
LINE
  5
5AFA
  8
0
 10
1589.1897113365839687
 20
206.9470335771021041
 30
0.0
 11
1589.46353124583311
 21
206.9470335771021041
 31
0.0
  0
LINE
  5
5AFB
  8
0
 10
1589.1721926631330462
 20
206.9470335771021041
 30
0.0
 11
1588.2995220101129235
 21
206.9470335771021041
 31
0.0
  0
LINE
  5
5AFC
  8
0
 10
1592.0068263531829871
 20
204.9000246872020909
 30
0.0
 11
1592.0068263531829871
 21
206.7813779155632972
 31
0.0
  0
CIRCLE
  5
5AFD
  8
0
 10
1587.3969805966330568
 20
207.6359856182021133
 30
0.0
 40
0.968098932687937
  0
ARC
  5
5AFE
  8
0
 10
1588.3339365517240367
 20
208.8891928117130021
 30
0.0
 40
0.5642957733661629
 50
239.1000906402261137
 51
268.9808514120591099
  0
ARC
  5
5AFF
  8
0
 10
1587.3608614503420995
 20
207.5046950157714036
 30
0.0
 40
1.1241714189061549
 50
65.1853751896551898
 51
79.5550898393067172
  0
ARC
  5
5B00
  8
0
 10
1587.2767854470118891
 20
207.2997818847341023
 30
0.0
 40
1.345485194488264
 50
55.2271665223262076
 51
65.597820038104814
  0
LINE
  5
5B01
  8
0
 10
1582.8520724483089452
 20
208.5723219482021022
 30
0.0
 11
1586.7856404132330681
 21
208.5723219482021022
 31
0.0
  0
ARC
  5
5B02
  8
0
 10
1586.7189898365988938
 20
211.7733228258354927
 30
0.0
 40
3.201694694685199
 50
271.1928284797930928
 51
279.2346152410019045
  0
LINE
  5
5B03
  8
0
 10
1590.1170745529329906
 20
206.5139335771021081
 30
0.0
 11
1590.1170745529329906
 21
204.9000246872020909
 31
0.0
  0
ARC
  5
5B04
  8
0
 10
1589.683974552933023
 20
206.5139335771021081
 30
0.0
 40
0.4331
 50
0.0
 51
87.9119886328005862
  0
ARC
  5
5B05
  8
0
 10
1590.1367745529330477
 20
204.9000246872020909
 30
0.0
 40
0.0197
 50
179.9999999999870113
 51
270.0000000000130171
  0
ARC
  5
5B06
  8
0
 10
1591.98712635318293
 20
204.9000246872020909
 30
0.0
 40
0.0197
 50
269.9999999999869829
 51
0.0000000000130276
  0
ARC
  5
5B07
  8
0
 10
1589.8190158874699591
 20
200.6244121907267015
 30
0.0
 40
7.7029734718763132
 50
85.6912279303394655
 51
88.5699057559719876
  0
ARC
  5
5B08
  8
0
 10
1590.3330417677279911
 20
206.2647252596802048
 30
0.0
 40
2.0419146377777202
 50
52.4208389841916684
 51
88.1839646616883357
  0
ARC
  5
5B09
  8
0
 10
1590.7140789670991126
 20
206.9444065562859976
 30
0.0
 40
1.2758536280054811
 50
3.678847090323202
 51
47.3606988175164219
  0
ARC
  5
5B0A
  8
0
 10
1585.1943772159800119
 20
206.3615139797944948
 30
0.0
 40
6.8253753722075547
 50
3.5267846985706108
 51
5.5891730628704739
  0
ARC
  5
5B0B
  8
0
 10
1587.3969805966330568
 20
207.6359856182021133
 30
0.0
 40
0.9840786805999997
 50
15.7914165408365292
 51
344.2085834526610029
  0
LINE
  5
5B0C
  8
0
 10
1587.5374417362329496
 20
208.6703534294020983
 30
0.0
 11
1587.5374417362329496
 21
208.9855491968716024
 31
0.0
  0
LINE
  5
5B0D
  8
0
 10
1587.2564797316329077
 20
208.9844482315006076
 30
0.0
 11
1587.2564797316329077
 21
208.6658964932020979
 31
0.0
  0
ARC
  5
5B0E
  8
0
 10
1587.6164590228079305
 20
208.6718355123124127
 30
0.0
 40
0.0790311846523519
 50
181.0745387923275871
 51
231.8501674410453859
  0
ARC
  5
5B0F
  8
0
 10
1587.3825304105550913
 20
207.7546230412206114
 30
0.0
 40
1.2569941451972271
 50
83.888564657157616
 51
87.3041185058277023
  0
ARC
  5
5B10
  8
0
 10
1587.5172525498230698
 20
208.9842632327271872
 30
0.0
 40
0.0202301001402263
 50
3.6445706446905359
 51
92.5480409053932362
  0
ARC
  5
5B11
  8
0
 10
1587.2771042517010756
 20
208.9840117035329001
 30
0.0
 40
0.0206291392134748
 50
87.7926725399479437
 51
178.7874880827465063
  0
ARC
  5
5B12
  8
0
 10
1587.4135174462339819
 20
207.6998703214779027
 30
0.0
 40
1.3117845051730861
 50
92.674439178371756
 51
95.9341191126567452
  0
ARC
  5
5B13
  8
0
 10
1587.1745308970000679
 20
208.6733079057630107
 30
0.0
 40
0.0822832943794345
 50
312.5607805094703053
 51
354.8322566141873722
  0
ARC
  5
5B14
  8
0
 10
1589.5774635779630444
 20
203.513771940617886
 30
0.0
 40
3.4351515309893821
 50
87.9598490235338915
 51
91.9006553603706493
  0
ARC
  5
5B15
  8
0
 10
1588.7254376848100037
 20
205.5073359144622884
 30
0.0
 40
1.5250952561586739
 50
112.9843574934188979
 51
121.9225327615549048
  0
ARC
  5
5B16
  8
0
 10
1588.342514066305057
 20
206.3216900196838992
 30
0.0
 40
0.626819656440383
 50
93.9328676945336412
 51
109.8260084914811046
  0
ARC
  5
5B17
  8
0
 10
1587.3969805966330568
 20
207.6359856182021133
 30
0.0
 40
0.8996062991999988
 50
184.9999999999994031
 51
175.0000000000005116
  0
CIRCLE
  5
5B18
  8
0
 10
1587.3969805966830791
 20
207.6359856182021133
 30
0.0
 40
0.917486443750004
  0
LINE
  5
5B19
  8
0
 10
1586.500797571000021
 20
207.7143914733892984
 30
0.0
 11
1586.5025036800091129
 21
207.7123603651259884
 31
0.0
  0
LINE
  5
5B1A
  8
0
 10
1586.5025036800029739
 20
207.5596108713486956
 30
0.0
 11
1586.500798113017936
 21
207.5575735679686886
 31
0.0
  0
ARC
  5
5B1B
  8
0
 10
1586.4854474510400451
 20
207.5326977258015972
 30
0.0
 40
0.1804704372116793
 50
81.4745403399282253
 51
84.5768922477564757
  0
ARC
  5
5B1C
  8
0
 10
1586.5093666425259471
 20
207.699692884803909
 30
0.0
 40
0.0118260197742929
 50
7.6037117606532139
 51
76.1279211260583821
  0
ARC
  5
5B1D
  8
0
 10
1586.49782833033305
 20
207.6313079712660112
 30
0.0
 40
0.0718493773882412
 50
273.7309608064293229
 51
282.5425424408850859
  0
ARC
  5
5B1E
  8
0
 10
1586.5093702879330522
 20
207.5722759126020946
 30
0.0
 40
0.0118220830000005
 50
290.0917437951197257
 51
0.0000000000081422
  0
ARC
  5
5B1F
  8
0
 10
1587.4574131266190307
 20
207.6375195299729057
 30
0.0
 40
0.938491360101872
 50
176.1057264951965919
 51
183.9863995986997907
  0
LINE
  5
5B20
  8
0
 10
1588.4106688174160809
 20
207.9032064296362137
 30
0.0
 11
1588.3325231239309687
 21
207.9038883967753861
 31
0.0
  0
LINE
  5
5B21
  8
0
 10
1588.4106687067330768
 20
207.3687648057021136
 30
0.0
 11
1588.3325298739450773
 21
207.3680828984267919
 31
0.0
  0
ARC
  5
5B22
  8
0
 10
1587.9363683264989504
 20
207.7850465727092057
 30
0.0
 40
0.4174411421347976
 50
16.5353652411396297
 51
21.2204802443899396
  0
LINE
  5
5B23
  8
0
 10
1588.3238821014610949
 20
207.9361630423711063
 30
0.0
 11
1588.3255046548329119
 21
207.9361426518021005
 31
0.0
  0
ARC
  5
5B24
  8
0
 10
1588.3904033997409897
 20
207.9463677662758982
 30
0.0
 40
0.0672994763336721
 50
188.7214891113937085
 51
200.1622332025698086
  0
ARC
  5
5B25
  8
0
 10
1586.8835931300930042
 20
207.5163722988189932
 30
0.0
 40
1.4998556107895531
 50
14.2106146076017499
 51
15.7371895241165003
  0
ARC
  5
5B26
  8
0
 10
1587.3532496357149739
 20
207.6351344413764082
 30
0.0
 40
1.0154161008350879
 50
357.8840415808601279
 51
14.2200123436008692
  0
ARC
  5
5B27
  8
0
 10
1587.3342883059699489
 20
207.6396993606201988
 30
0.0
 40
1.0345402554383549
 50
344.7210816593549225
 51
357.670168302763102
  0
ARC
  5
5B28
  8
0
 10
1590.0795049107289287
 20
206.8819547685376961
 30
0.0
 40
1.8133402848950071
 50
164.4826088802138884
 51
165.5054957301526031
  0
LINE
  5
5B29
  8
0
 10
1588.3238802514269992
 20
207.3358105214751106
 30
0.0
 11
1588.3255595571199592
 21
207.3358246568051015
 31
0.0
  0
ARC
  5
5B2A
  8
0
 10
1587.8853177438199964
 20
207.5070992067522013
 30
0.0
 40
0.4723852512901883
 50
338.7416492582971728
 51
342.8900044044330002
  0
ARC
  5
5B2B
  8
0
 10
1587.3969805985959738
 20
207.6359856182704107
 30
0.0
 40
1.062992124037013
 50
359.9999999963180812
 51
13.7244995378580796
  0
ARC
  5
5B2C
  8
0
 10
1587.4622840032559452
 20
207.631200819399595
 30
0.0
 40
0.9976566955272396
 50
345.3138472636271104
 51
0.2763192306618161
  0
ARC
  5
5B2D
  8
0
 10
1588.4104969245329357
 20
207.3884490955020965
 30
0.0
 40
0.0196850393999982
 50
270.4999999999914735
 51
328.8647082505161165
  0
ARC
  5
5B2E
  8
0
 10
1588.4104969221780266
 20
207.8835221353870963
 30
0.0
 40
0.0196850447816675
 50
13.6999260132491898
 51
89.4996714875287722
  0
LINE
  5
5BA9
  8
0
 10
1590.1367745529330477
 20
204.8803246872020907
 30
0.0
 11
1591.98712635318293
 21
204.8803246872020907
 31
0.0
  0
LINE
  5
5BC0
  8
0
 10
1586.9844609116330503
 20
206.1528711031020862
 30
0.0
 11
1587.8095002817331078
 21
206.1528711031020862
 31
0.0
  0
ARC
  5
5BC2
  8
0
 10
1587.1803818107839561
 20
208.6727504992379068
 30
0.0
 40
0.079384987062014
 50
300.0665060551571059
 51
329.5950564187606915
  0
ARC
  5
5BC3
  8
0
 10
1587.1806152079780077
 20
208.6724302100766977
 30
0.0
 40
0.079021746205466
 50
329.7097003112281186
 51
359.2549369685826832
  0
LINE
  5
5BC4
  8
0
 10
1587.2596302730330535
 20
208.6714026558140063
 30
0.0
 11
1587.2596302730330535
 21
208.9847522514982074
 31
0.0
  0
ARC
  5
5BC5
  8
0
 10
1587.2797449644640437
 20
208.9845951300542026
 30
0.0
 40
0.0201153050815149
 50
95.2659783754655081
 51
179.5524558478392123
  0
ARC
  5
5BC6
  8
0
 10
1587.6129191160200662
 20
208.6723850457474043
 30
0.0
 40
0.0786821775548955
 50
223.3744712955912064
 51
240.3334587975838019
  0
ARC
  5
5BC7
  8
0
 10
1587.6129901706678993
 20
208.6722738635930057
 30
0.0
 40
0.0786575767317827
 50
199.3380448571508907
 51
223.2800578358636869
  0
ARC
  5
5BC8
  8
0
 10
1587.613205820732901
 20
208.6723314674520111
 30
0.0
 40
0.078880136940477
 50
180.0233319685848983
 51
199.3256554959538107
  0
LINE
  5
5BC9
  8
0
 10
1587.5343256903329348
 20
208.6722993459094084
 30
0.0
 11
1587.5343256919341002
 21
208.9850546633001898
 31
0.0
  0
ARC
  5
5BCA
  8
0
 10
1587.5144042792899199
 20
208.9846432086268067
 30
0.0
 40
0.0199256612611343
 50
1.1832125234152031
 51
84.3870090284271441
  0
ATTDEF
  5
5BCC
  8
DEFPOINTS
 10
1591.0637258652041055
 20
204.8773994664049098
 30
0.0
 40
0.001
  1
K-98300D
  3

  2
MODELNUMBER
 70
     0
1001
ACDBATTR
1070
     0
1070
     1
  0
ATTDEF
  5
5BCD
  8
DEFPOINTS
 10
1591.0637258652041055
 20
204.8757327997383015
 30
0.0
 40
0.001
  1
CUFF
  3

  2
TRADENAME
 70
     0
1001
ACDBATTR
1070
     0
1070
     1
  0
ATTDEF
  5
5BCE
  8
DEFPOINTS
 10
1591.0637258652041055
 20
204.874066133071608
 30
0.0
 40
0.001
  1
BATH/SHOWER MIXER
  3

  2
PRODUCT
 70
     0
1001
ACDBATTR
1070
     0
1070
     1
  0
ENDSEC
  0
EOF
