  0
SECTION
  2
HEADER
  9
$ACADVER
  1
AC1009
  9
$INSBASE
 10
2893.7915027683739027
 20
148.3359973807226879
 30
0.0
  9
$EXTMIN
 10
2876.7321478223798294
 20
140.7524155619115902
 30
0.0
  9
$EXTMAX
 10
2897.5414064311321454
 20
158.4929828346905936
 30
0.0
  9
$LIMMIN
 10
0.0
 20
0.0
  9
$LIMMAX
 10
11.6929133858000007
 20
8.2677165353999982
  9
$ORTHOMODE
 70
     0
  9
$REGENMODE
 70
     1
  9
$FILLMODE
 70
     1
  9
$QTEXTMODE
 70
     0
  9
$MIRRTEXT
 70
     0
  9
$DRAGMODE
 70
     2
  9
$LTSCALE
 40
0.6431102362
  9
$OSMODE
 70
  4095
  9
$ATTMODE
 70
     1
  9
$TEXTSIZE
 40
0.2
  9
$TRACEWID
 40
0.05
  9
$TEXTSTYLE
  7
STANDARD
  9
$CLAYER
  8
0
  9
$CELTYPE
  6
BYLAYER
  9
$CECOLOR
 62
   256
  9
$DIMSCALE
 40
1.0
  9
$DIMASZ
 40
0.1875
  9
$DIMEXO
 40
0.0625
  9
$DIMDLI
 40
0.4443307087
  9
$DIMRND
 40
0.0
  9
$DIMDLE
 40
0.0
  9
$DIMEXE
 40
0.125
  9
$DIMTP
 40
0.01
  9
$DIMTM
 40
0.01
  9
$DIMTXT
 40
2.0
  9
$DIMCEN
 40
0.1052362205
  9
$DIMTSZ
 40
0.0
  9
$DIMTOL
 70
     1
  9
$DIMLIM
 70
     0
  9
$DIMTIH
 70
     1
  9
$DIMTOH
 70
     1
  9
$DIMSE1
 70
     0
  9
$DIMSE2
 70
     0
  9
$DIMTAD
 70
     0
  9
$DIMZIN
 70
     0
  9
$DIMBLK
  1

  9
$DIMASO
 70
     1
  9
$DIMSHO
 70
     1
  9
$DIMPOST
  1
\X
  9
$DIMAPOST
  1

  9
$DIMALT
 70
     1
  9
$DIMALTD
 70
     2
  9
$DIMALTF
 40
25.3999999999999986
  9
$DIMLFAC
 40
1.0
  9
$DIMTOFL
 70
     0
  9
$DIMTVP
 40
0.0
  9
$DIMTIX
 70
     0
  9
$DIMSOXD
 70
     0
  9
$DIMSAH
 70
     0
  9
$DIMBLK1
  1

  9
$DIMBLK2
  1

  9
$DIMSTYLE
  2
STANDARD
  9
$DIMCLRD
 70
     0
  9
$DIMCLRE
 70
     0
  9
$DIMCLRT
 70
     0
  9
$DIMTFAC
 40
1.0
  9
$DIMGAP
 40
0.09
  9
$LUNITS
 70
     2
  9
$LUPREC
 70
     4
  9
$SKETCHINC
 40
0.1
  9
$FILLETRAD
 40
0.0
  9
$AUNITS
 70
     0
  9
$AUPREC
 70
     0
  9
$MENU
  1
.
  9
$ELEVATION
 40
0.0
  9
$PELEVATION
 40
0.0
  9
$THICKNESS
 40
0.0
  9
$LIMCHECK
 70
     0
  9
$BLIPMODE
 70
     0
  9
$CHAMFERA
 40
0.0
  9
$CHAMFERB
 40
0.0
  9
$SKPOLY
 70
     0
  9
$TDCREATE
 40
2458060.468368056230247
  9
$TDUPDATE
 40
2459970.6666087959893048
  9
$TDINDWG
 40
0.3004353009
  9
$TDUSRTIMER
 40
0.3004353009
  9
$USRTIMER
 70
     1
  9
$ANGBASE
 50
0.0
  9
$ANGDIR
 70
     0
  9
$PDMODE
 70
     0
  9
$PDSIZE
 40
0.3125
  9
$PLINEWID
 40
0.0
  9
$COORDS
 70
     1
  9
$SPLFRAME
 70
     0
  9
$SPLINETYPE
 70
     6
  9
$SPLINESEGS
 70
     8
  9
$ATTDIA
 70
     1
  9
$ATTREQ
 70
     1
  9
$HANDLING
 70
     1
  9
$HANDSEED
  5
68AA
  9
$SURFTAB1
 70
     6
  9
$SURFTAB2
 70
     6
  9
$SURFTYPE
 70
     6
  9
$SURFU
 70
     6
  9
$SURFV
 70
     6
  9
$UCSNAME
  2

  9
$UCSORG
 10
0.0
 20
0.0
 30
0.0
  9
$UCSXDIR
 10
1.0
 20
0.0
 30
0.0
  9
$UCSYDIR
 10
0.0
 20
1.0
 30
0.0
  9
$PUCSNAME
  2

  9
$PUCSORG
 10
0.0
 20
0.0
 30
0.0
  9
$PUCSXDIR
 10
1.0
 20
0.0
 30
0.0
  9
$PUCSYDIR
 10
0.0
 20
1.0
 30
0.0
  9
$USERI1
 70
     0
  9
$USERI2
 70
     0
  9
$USERI3
 70
     0
  9
$USERI4
 70
     0
  9
$USERI5
 70
     0
  9
$USERR1
 40
0.0
  9
$USERR2
 40
0.0
  9
$USERR3
 40
0.0
  9
$USERR4
 40
0.0
  9
$USERR5
 40
0.0
  9
$WORLDVIEW
 70
     1
  9
$SHADEDGE
 70
     3
  9
$SHADEDIF
 70
    70
  9
$TILEMODE
 70
     1
  9
$MAXACTVP
 70
    64
  9
$PLIMCHECK
 70
     0
  9
$PEXTMIN
 10
1.0000000000000000E+20
 20
1.0000000000000000E+20
 30
1.0000000000000000E+20
  9
$PEXTMAX
 10
-1.0000000000000000E+20
 20
-1.0000000000000000E+20
 30
-1.0000000000000000E+20
  9
$PLIMMIN
 10
0.0
 20
0.0
  9
$PLIMMAX
 10
12.0
 20
9.0
  9
$UNITMODE
 70
     0
  9
$VISRETAIN
 70
     1
  9
$PLINEGEN
 70
     0
  9
$PSLTSCALE
 70
     1
  0
ENDSEC
  0
SECTION
  2
TABLES
  0
TABLE
  2
VPORT
 70
     1
  0
VPORT
  2
*ACTIVE
 70
     0
 10
0.0
 20
0.0
 11
1.0
 21
1.0
 12
19.0999238710788113
 22
-2.6587298462480931
 13
0.0
 23
0.0
 14
1.0
 24
1.0
 15
0.0
 25
0.0
 16
0.0
 26
0.0
 36
15.4592385913959696
 17
2871.8343038853658982
 27
153.1700744628905966
 37
0.0
 40
18.1885632813119287
 41
2.7341040462427739
 42
50.0
 43
0.0
 44
0.0
 50
0.0
 51
0.0
 71
     0
 72
   100
 73
     1
 74
     1
 75
     0
 76
     0
 77
     0
 78
     0
  0
ENDTAB
  0
TABLE
  2
LTYPE
 70
     2
  0
LTYPE
  2
CONTINUOUS
 70
     0
  3
Solid line
 72
    65
 73
     0
 40
0.0
  0
LTYPE
  2
PHANTOM2
 70
     0
  3
___ _ _ ___ _ _ ___ _ _ ___ _ _
 72
    65
 73
     6
 40
1.25
 49
0.625
 49
-0.125
 49
0.125
 49
-0.125
 49
0.125
 49
-0.125
  0
ENDTAB
  0
TABLE
  2
LAYER
 70
     2
  0
LAYER
  2
0
 70
     0
 62
   255
  6
CONTINUOUS
  0
LAYER
  2
DEFPOINTS
 70
     0
 62
     7
  6
CONTINUOUS
  0
ENDTAB
  0
TABLE
  2
STYLE
 70
     1
  0
STYLE
  2
STANDARD
 70
     0
 40
0.0
 41
0.8
 50
0.0
 71
     0
 42
0.2
  3
txt
  4

  0
ENDTAB
  0
TABLE
  2
VIEW
 70
     0
  0
ENDTAB
  0
TABLE
  2
UCS
 70
     0
  0
ENDTAB
  0
TABLE
  2
APPID
 70
     9
  0
APPID
  2
ACAD
 70
     0
  0
APPID
  2
ACAD_MLEADERVER
 70
     0
  0
APPID
  2
ACAD_EXEMPT_FROM_CAD_STANDARDS
 70
     0
  0
APPID
  2
ACAD_NAV_VCDISPLAY
 70
     0
  0
APPID
  2
ACAECLAYERSTANDARD
 70
     0
  0
APPID
  2
ACCMTRANSPARENCY
 70
     0
  0
APPID
  2
ACAD_DSTYLE_DIMJAG
 70
     0
  0
APPID
  2
ACAD_DSTYLE_DIMTALN
 70
     0
  0
APPID
  2
ACDBATTR
 70
     0
  0
ENDTAB
  0
TABLE
  2
DIMSTYLE
 70
     1
  0
DIMSTYLE
  2
STANDARD
 70
     0
  3

  4

  5

  6

  7

 40
1.0
 41
0.1875
 42
0.0625
 43
0.38
 44
0.125
 45
0.0
 46
0.0
 47
0.01
 48
0.01
140
0.15625
141
0.09
142
0.0
143
25.3999999999999986
144
1.0
145
0.0
146
1.0
147
0.09
 71
     1
 72
     0
 73
     1
 74
     1
 75
     0
 76
     0
 77
     0
 78
     4
170
     0
171
     2
172
     0
173
     0
174
     0
175
     0
176
     0
177
     0
178
     0
  0
ENDTAB
  0
ENDSEC
  0
SECTION
  2
BLOCKS
  0
BLOCK
  8
0
  2
$MODEL_SPACE
 70
     0
 10
0.0
 20
0.0
 30
0.0
  3
$MODEL_SPACE
  1

  0
ENDBLK
  5
21
  8
0
  0
BLOCK
 67
     1
  8
0
  2
$PAPER_SPACE
 70
     0
 10
0.0
 20
0.0
 30
0.0
  3
$PAPER_SPACE
  1

  0
ENDBLK
  5
1D
 67
     1
  8
0
  0
BLOCK
  8
0
  2
_FILLED
 70
     0
 10
0.0
 20
0.0
 30
0.0
  3
_FILLED
  1

  0
SOLID
  5
64A9
  8
0
  6
BYBLOCK
 62
     0
 10
0.0
 20
0.0
 30
0.0
 11
-1.0
 21
0.1666666667
 31
0.0
 12
-1.0
 22
-0.1666666667
 32
0.0
 13
-1.0
 23
-0.1666666667
 33
0.0
  0
ENDBLK
  5
64AA
  8
0
  6
BYBLOCK
 62
     0
  0
ENDSEC
  0
SECTION
  2
ENTITIES
  0
ATTDEF
  5
3930
  8
DEFPOINTS
 10
2893.7808134177830652
 20
148.3345042545309127
 30
0.0
 40
0.001
  1
K-98299D
  3

  2
MODELNUMBER
 70
     0
1001
ACDBATTR
1070
     0
1070
     1
  0
ATTDEF
  5
3931
  8
DEFPOINTS
 10
2893.7808134177830652
 20
148.3328375878643044
 30
0.0
 40
0.001
  1
CUFF
  3

  2
TRADENAME
 70
     0
1001
ACDBATTR
1070
     0
1070
     1
  0
ATTDEF
  5
3932
  8
DEFPOINTS
 10
2893.7808134177830652
 20
148.3311709211976108
 30
0.0
 40
0.001
  1
BATHROOM SINK FAUCET
  3

  2
PRODUCT
 70
     0
1001
ACDBATTR
1070
     0
1070
     1
  0
LINE
  5
66C9
  8
0
 10
2892.8859909829729986
 20
148.3359973807226879
 30
0.0
 11
2894.6970145537738972
 21
148.3359973807226879
 31
0.0
  0
LINE
  5
66CA
  8
0
 10
2892.9469982849018379
 20
157.2438493058226925
 30
0.0
 11
2894.6360072518450579
 21
157.2438493058226925
 31
0.0
  0
LINE
  5
66CB
  8
0
 10
2892.8859909829729986
 20
157.2719989121227115
 30
0.0
 11
2894.6970145537738972
 21
157.2719989121227115
 31
0.0
  0
LINE
  5
66CC
  8
0
 10
2892.9610239073731464
 20
157.2504291937227094
 30
0.0
 11
2894.6219816293742042
 21
157.2504291937227094
 31
0.0
  0
LINE
  5
66CD
  8
0
 10
2892.9043098536080834
 20
158.4621164760316105
 30
0.0
 11
2894.6786956831388125
 21
158.4621164760316105
 31
0.0
  0
LINE
  5
66CE
  8
0
 10
2892.8859909829729986
 20
158.4423719513272033
 30
0.0
 11
2892.8859909829729986
 21
158.1373277886372932
 31
0.0
  0
LINE
  5
66CF
  8
0
 10
2892.8859909829729986
 20
157.5783369125647084
 30
0.0
 11
2892.8859909829729986
 21
157.2719989121227115
 31
0.0
  0
LINE
  5
66D0
  8
0
 10
2892.8859909829729986
 20
156.9432948809134984
 30
0.0
 11
2892.8859909829729986
 21
156.788432270121092
 31
0.0
  0
LINE
  5
66D1
  8
0
 10
2892.8859909829729986
 20
154.8063079524744978
 30
0.0
 11
2892.8859909829729986
 21
148.3359973807226879
 31
0.0
  0
LINE
  5
66D2
  8
0
 10
2888.0821525166848005
 20
156.4488019816049018
 30
0.0
 11
2892.5201595790290412
 21
156.4487913135612871
 31
0.0
  0
LINE
  5
66D3
  8
0
 10
2888.0821517578269777
 20
155.1459381920226974
 30
0.0
 11
2888.1746998836169951
 21
155.1459381920226974
 31
0.0
  0
LINE
  5
66D4
  8
0
 10
2889.0207019678477991
 20
155.1459381920226974
 30
0.0
 11
2892.5203874415728933
 21
155.1459381920226974
 31
0.0
  0
ARC
  5
66D5
  8
0
 10
2896.4922776446228454
 20
155.7973653516066861
 30
0.0
 40
8.4536111373494922
 50
175.704903748706613
 51
184.2950317320710099
  0
ARC
  5
66D6
  8
0
 10
2888.0821524690900333
 20
156.4290019816048982
 30
0.0
 40
0.0198
 50
89.9998622728768538
 51
175.7049037487196017
  0
ARC
  5
66D7
  8
0
 10
2888.0821517578269777
 20
155.165738192022701
 30
0.0
 40
0.0198
 50
184.2950317320531042
 51
270.0000000000259774
  0
ARC
  5
66D8
  8
0
 10
2889.4187381089609516
 20
152.5760042934495004
 30
0.0
 40
2.8552042569933471
 50
110.0208842299934986
 51
115.8304179833783962
  0
ARC
  5
66D9
  8
0
 10
2888.7806382276230579
 20
154.3271830014697059
 30
0.0
 40
0.9913914107056315
 50
99.2201643380514753
 51
110.0208842299934986
  0
ARC
  5
66DA
  8
0
 10
2888.6880958752308288
 20
154.8972853928912059
 30
0.0
 40
0.4138268483484967
 50
84.3430980284754952
 51
99.2201643380514753
  0
ARC
  5
66DB
  8
0
 10
2888.6927862921947963
 20
154.944637690512792
 30
0.0
 40
0.3662428163489265
 50
64.2920254347612854
 51
84.3430980284754952
  0
ARC
  5
66DC
  8
0
 10
2888.6540593804661512
 20
154.8641977649178898
 30
0.0
 40
0.4555196628531354
 50
50.3367152878178814
 51
64.2920254347612854
  0
ARC
  5
66DD
  8
0
 10
2888.2179423436227808
 20
154.3382068035515999
 30
0.0
 40
1.1387945425786641
 50
45.1768778595308831
 51
50.3367152878189117
  0
LINE
  5
66DE
  8
0
 10
2888.8963941662941579
 20
155.1223751687822983
 30
0.0
 11
2888.9401056980527756
 21
155.1994707426860032
 31
0.0
  0
LINE
  5
66DF
  8
0
 10
2888.8830355540999335
 20
155.1186836270510128
 30
0.0
 11
2888.5702918785332258
 21
155.2960025629182041
 31
0.0
  0
ARC
  5
66E0
  8
0
 10
2888.8878690893320709
 20
155.1272087040100018
 30
0.0
 40
0.0098
 50
240.4476961096466141
 51
330.447696141465201
  0
LINE
  5
66E1
  8
0
 10
2888.8355147622191907
 20
155.2748652495295971
 30
0.0
 11
2888.8387344068451057
 21
155.2805438505594111
 31
0.0
  0
LINE
  5
66E2
  8
0
 10
2888.8164310305251092
 20
155.2695916185039948
 30
0.0
 11
2888.7521504443020604
 21
155.3060373279942894
 31
0.0
  0
LINE
  5
66E3
  8
0
 10
2888.8746253500471539
 20
155.2365966912963131
 30
0.0
 11
2889.001282508559143
 21
155.1647848072539944
 31
0.0
  0
LINE
  5
66E4
  8
0
 10
2888.8693517190249622
 20
155.255680423028906
 30
0.0
 11
2888.8736642376329655
 21
155.263286564503602
 31
0.0
  0
ARC
  5
66E5
  8
0
 10
2888.8233360808558245
 20
155.2817702998744096
 30
0.0
 40
0.014
 50
240.447696112462296
 51
330.447696049311503
  0
ARC
  5
66E6
  8
0
 10
2888.8815304003778692
 20
155.2487753726666995
 30
0.0
 40
0.014
 50
150.447695967391212
 51
240.4476961124865966
  0
ARC
  5
66E7
  8
0
 10
2893.8029870185268919
 20
156.9136296134647068
 30
0.0
 40
0.9174757529841595
 50
158.9045951890923902
 51
178.1470998909423997
  0
LINE
  5
66E8
  8
0
 10
2892.9610239073731464
 20
157.2504291937227094
 30
0.0
 11
2892.960794132573028
 21
157.2438493058226925
 31
0.0
  0
LINE
  5
66E9
  8
0
 10
2892.9705370550877888
 20
157.2719989121227115
 30
0.0
 11
2892.9610239073731464
 21
157.2504291937200946
 31
0.0
  0
ARC
  5
66EA
  8
0
 10
2889.7436665213458582
 20
157.189231380728387
 30
0.0
 40
3.1677820236256422
 50
351.2286325818919863
 51
352.7312510928647953
  0
ARC
  5
66EB
  8
0
 10
2892.4670638851639524
 20
156.7747935060552891
 30
0.0
 40
0.4130765369304993
 50
341.1337033568628954
 51
350.4372513826996851
  0
ARC
  5
66EC
  8
0
 10
2892.5988992840721039
 20
156.726724219181591
 30
0.0
 40
0.2727951277390523
 50
319.9297981686412982
 51
341.7336492602398721
  0
ARC
  5
66ED
  8
0
 10
2892.6579412069359023
 20
156.676106865734198
 30
0.0
 40
0.1950305926684506
 50
308.2835126918399737
 51
320.1437996565496746
  0
ARC
  5
66EE
  8
0
 10
2892.6151637335378837
 20
156.7251092755238915
 30
0.0
 40
0.2600181069682629
 50
293.6099067435108054
 51
308.9927985981083225
  0
ARC
  5
66EF
  8
0
 10
2892.5671046373631725
 20
156.8400740713086918
 30
0.0
 40
0.3846128702311324
 50
280.1165265062430763
 51
293.310770280766576
  0
ARC
  5
66F0
  8
0
 10
2892.4773970259680027
 20
157.3604262506894997
 30
0.0
 40
0.9126373291385457
 50
272.6856355227578774
 51
279.9227020251958038
  0
ARC
  5
66F1
  8
0
 10
2889.7436665213458582
 20
154.4055088418670891
 30
0.0
 40
3.1677820236256422
 50
7.2687489071352243
 51
8.7713674181079817
  0
ARC
  5
66F2
  8
0
 10
2892.4670638851639524
 20
154.8199467165403007
 30
0.0
 40
0.4130765369304993
 50
9.5627486173003344
 51
18.8662966431371295
  0
ARC
  5
66F3
  8
0
 10
2892.5988992840721039
 20
154.8680160034139988
 30
0.0
 40
0.2727951277390523
 50
18.2663507397600711
 51
40.0702018313587232
  0
ARC
  5
66F4
  8
0
 10
2892.6579412069359023
 20
154.9186333568613918
 30
0.0
 40
0.1950305926684506
 50
39.8562003434503609
 51
51.7164873081599907
  0
ARC
  5
66F5
  8
0
 10
2892.6151637335378837
 20
154.8696309470716983
 30
0.0
 40
0.2600181069682629
 50
51.0072014018917272
 51
66.390093256489223
  0
ARC
  5
66F6
  8
0
 10
2892.5671046373631725
 20
154.7546661512868127
 30
0.0
 40
0.3846128702311324
 50
66.6892297192333245
 51
79.8834734937568953
  0
ARC
  5
66F7
  8
0
 10
2892.4773970259680027
 20
154.23431397190609
 30
0.0
 40
0.9126373291385501
 50
80.077297974804182
 51
87.300043351264847
  0
ARC
  5
66F8
  8
0
 10
2893.8067522323740377
 20
145.2887460818161003
 30
0.0
 40
13.2042455586116194
 50
90.0661703932534152
 51
93.9183701323613889
  0
ARC
  5
66F9
  8
0
 10
2892.9057909829739401
 20
158.4423719513272033
 30
0.0
 40
0.0198
 50
93.9183701323613889
 51
180.0
  0
LINE
  5
66FA
  8
0
 10
2894.6970145537738972
 20
158.4423719513272033
 30
0.0
 11
2894.6970145537738972
 21
157.2719989121227115
 31
0.0
  0
LINE
  5
66FB
  8
0
 10
2894.6970145537738972
 20
156.9432948809134984
 30
0.0
 11
2894.6970145537738972
 21
148.3359973807226879
 31
0.0
  0
ARC
  5
66FC
  8
0
 10
2893.7800185182200039
 20
156.9136296134647068
 30
0.0
 40
0.9174757529841595
 50
1.852900109057529
 51
21.0954048109076098
  0
LINE
  5
66FD
  8
0
 10
2894.6219816293742042
 20
157.2504291937227094
 30
0.0
 11
2894.6222114041738678
 21
157.2438493058226925
 31
0.0
  0
LINE
  5
66FE
  8
0
 10
2894.6124684816600166
 20
157.2719989121227115
 30
0.0
 11
2894.6219816293742042
 21
157.2504291937200946
 31
0.0
  0
ARC
  5
66FF
  8
0
 10
2893.7762533043719486
 20
145.2887460818161003
 30
0.0
 40
13.2042455586116194
 50
86.0816298676386111
 51
89.9338296067465848
  0
ARC
  5
6700
  8
0
 10
2894.6772145537729557
 20
158.4423719513272033
 30
0.0
 40
0.0198
 50
0.0
 51
86.0816298676386111
  0
LINE
  5
6701
  8
0
 10
2890.5583187467250355
 20
157.6708217157519982
 30
0.0
 11
2890.3139821410231889
 21
157.6708217157519982
 31
0.0
  0
LINE
  5
6702
  8
0
 10
2891.1137447148748834
 20
157.6708217157519982
 30
0.0
 11
2892.7981032342681829
 21
157.6708217157519982
 31
0.0
  0
ARC
  5
6703
  8
0
 10
2890.5576532204568139
 20
157.6844150205832875
 30
0.0
 40
0.0136095871153179
 50
272.8029550059093822
 51
284.567369474148677
  0
ARC
  5
6704
  8
0
 10
2890.5432872375390616
 20
157.7201815596800998
 30
0.0
 40
0.0520714686177134
 50
289.9760566400096877
 51
296.1821755233705744
  0
ARC
  5
6705
  8
0
 10
2891.5672662483761997
 20
155.4927495699398889
 30
0.0
 40
2.399473937220685
 50
114.2813760668854997
 51
114.6564441976978941
  0
ARC
  5
6706
  8
0
 10
2891.2029734664670286
 20
156.3145739196334887
 30
0.0
 40
1.5005583930478541
 50
110.1584133230034013
 51
114.5059952343169982
  0
ARC
  5
6707
  8
0
 10
2891.0031349219698313
 20
156.8526947390980979
 30
0.0
 40
0.9265357776915976
 50
101.0163968061330024
 51
110.0253627692662945
  0
ARC
  5
6708
  8
0
 10
2890.8860941588181959
 20
157.4246505958907107
 30
0.0
 40
0.3427998717338116
 50
85.3617006087242629
 51
100.0822053923177037
  0
ARC
  5
6709
  8
0
 10
2890.8977741488938591
 20
157.5088057688460026
 30
0.0
 40
0.2580211315949533
 50
62.5423957076024877
 51
86.4357523230857936
  0
ARC
  5
670A
  8
0
 10
2890.819726751556118
 20
157.3678437444889084
 30
0.0
 40
0.419112785326664
 50
48.4546258775049594
 51
61.9601422007711875
  0
ARC
  5
670B
  8
0
 10
2889.243408261625973
 20
155.5525863964265056
 30
0.0
 40
2.8232452137294231
 50
48.6939534152018823
 51
48.9444750244403366
  0
ARC
  5
670C
  8
0
 10
2891.1144778320758633
 20
157.6829400622760033
 30
0.0
 40
0.0121405017732544
 50
231.8515857122874877
 51
266.5380268152173926
  0
ARC
  5
670D
  8
0
 10
2893.1412975736620865
 20
157.8519510755623969
 30
0.0
 40
2.8404199049566592
 50
176.2383062471168103
 51
179.881365259389213
  0
ARC
  5
670E
  8
0
 10
2893.1412975736620865
 20
157.86371362563969
 30
0.0
 40
2.8404199049566592
 50
180.1186347406107018
 51
183.7617006087209006
  0
ARC
  5
670F
  8
0
 10
2890.3139827065529062
 20
158.037842369035701
 30
0.0
 40
0.0070006047575679
 50
90.0048256470487189
 51
176.2363506214543065
  0
ARC
  5
6710
  8
0
 10
2890.3139821410231889
 20
157.6778217157520032
 30
0.0
 40
0.007
 50
183.7617006086883862
 51
270.0000000000259774
  0
ARC
  5
6711
  8
0
 10
2892.8231670848022077
 20
158.1073508411903106
 30
0.0
 40
0.0581017827179456
 50
289.6147266977735057
 51
331.3278765389707132
  0
ARC
  5
6712
  8
0
 10
2892.7897602440989431
 20
158.1230568861737993
 30
0.0
 40
0.0949745909423498
 50
332.6843617214929054
 51
355.0036759553357228
  0
ARC
  5
6713
  8
0
 10
2892.5530458973139503
 20
158.1498815744488979
 30
0.0
 40
0.3331816735707025
 50
353.9534445519036012
 51
357.8406698222697173
  0
ARC
  5
6714
  8
0
 10
2892.8072268120449735
 20
158.146959108434487
 30
0.0
 40
0.1007773412943771
 50
278.829164612195882
 51
290.5921098111955985
  0
ARC
  5
6715
  8
0
 10
2892.7944544958481856
 20
158.2291863822121059
 30
0.0
 40
0.1839906612253209
 50
275.0428526834712102
 51
278.829164612195882
  0
ARC
  5
6716
  8
0
 10
2892.8546816245088849
 20
157.4536216210728981
 30
0.0
 40
0.5939223989193967
 50
94.2538221921496273
 51
95.4664265169846971
  0
ARC
  5
6717
  8
0
 10
2892.8231670848022077
 20
157.6083138600116911
 30
0.0
 40
0.0581017827179456
 50
28.6721234610293507
 51
70.3852733022265653
  0
ARC
  5
6718
  8
0
 10
2892.7897602440989431
 20
157.5926078150282024
 30
0.0
 40
0.0949745909423498
 50
4.9963240446642914
 51
27.3156382785071585
  0
ARC
  5
6719
  8
0
 10
2892.5530458973139503
 20
157.5657831267531037
 30
0.0
 40
0.3331816735707025
 50
2.1593301777367899
 51
6.0465554480963579
  0
ARC
  5
671A
  8
0
 10
2892.8072268120449735
 20
157.5687055927674862
 30
0.0
 40
0.1007773412943771
 50
69.4078901888043589
 51
81.1708353878041038
  0
ARC
  5
671B
  8
0
 10
2892.7944544958481856
 20
157.4864783189898958
 30
0.0
 40
0.1839906612253209
 50
81.1708353878041038
 51
84.9571473165288751
  0
ARC
  5
671C
  8
0
 10
2892.8546816245088849
 20
158.2620430801291036
 30
0.0
 40
0.5939223989193967
 50
264.5335853127575092
 51
265.7461778078504153
  0
ARC
  5
671D
  8
0
 10
2894.5791362636741724
 20
157.5869595420226972
 30
0.0
 40
0.1887130282000024
 50
308.6559964063126813
 51
51.3440035936872476
  0
ARC
  5
671E
  8
0
 10
2895.5590136350738248
 20
157.5869580834227008
 30
0.0
 40
0.870874357900011
 50
171.8130836917100908
 51
188.1869163082899092
  0
LINE
  5
671F
  8
0
 10
2888.0633088804179351
 20
156.4350813866695091
 30
0.0
 11
2888.0601610579187764
 21
155.1949110962825955
 31
0.0
  0
LINE
  5
6721
  8
0
 10
2890.3139821169388597
 20
158.0448429737683966
 30
0.0
 11
2892.7981031121998967
 21
158.0448429737683966
 31
0.0
  0
ENDSEC
  0
EOF
