  0
SECTION
  2
HEADER
  9
$ACADVER
  1
AC1009
  9
$INSBASE
 10
2907.8641745528339015
 20
146.0460256523844862
 30
0.0
  9
$EXTMIN
 10
2898.7373540519229209
 20
138.6655972473465965
 30
0.0
  9
$EXTMAX
 10
2908.7696863638338982
 20
156.2030111063523918
 30
0.0
  9
$LIMMIN
 10
0.0
 20
0.0
  9
$LIMMAX
 10
11.6929133858000007
 20
8.2677165353999982
  9
$ORTHOMODE
 70
     0
  9
$REGENMODE
 70
     1
  9
$FILLMODE
 70
     1
  9
$QTEXTMODE
 70
     0
  9
$MIRRTEXT
 70
     0
  9
$DRAGMODE
 70
     2
  9
$LTSCALE
 40
0.6431102362
  9
$OSMODE
 70
  4095
  9
$ATTMODE
 70
     1
  9
$TEXTSIZE
 40
0.2
  9
$TRACEWID
 40
0.05
  9
$TEXTSTYLE
  7
STANDARD
  9
$CLAYER
  8
0
  9
$CELTYPE
  6
BYLAYER
  9
$CECOLOR
 62
   256
  9
$DIMSCALE
 40
1.0
  9
$DIMASZ
 40
0.1875
  9
$DIMEXO
 40
0.0625
  9
$DIMDLI
 40
0.4443307087
  9
$DIMRND
 40
0.0
  9
$DIMDLE
 40
0.0
  9
$DIMEXE
 40
0.125
  9
$DIMTP
 40
0.01
  9
$DIMTM
 40
0.01
  9
$DIMTXT
 40
2.0
  9
$DIMCEN
 40
0.1052362205
  9
$DIMTSZ
 40
0.0
  9
$DIMTOL
 70
     1
  9
$DIMLIM
 70
     0
  9
$DIMTIH
 70
     1
  9
$DIMTOH
 70
     1
  9
$DIMSE1
 70
     0
  9
$DIMSE2
 70
     0
  9
$DIMTAD
 70
     0
  9
$DIMZIN
 70
     0
  9
$DIMBLK
  1

  9
$DIMASO
 70
     1
  9
$DIMSHO
 70
     1
  9
$DIMPOST
  1
\X
  9
$DIMAPOST
  1

  9
$DIMALT
 70
     1
  9
$DIMALTD
 70
     2
  9
$DIMALTF
 40
25.3999999999999986
  9
$DIMLFAC
 40
1.0
  9
$DIMTOFL
 70
     0
  9
$DIMTVP
 40
0.0
  9
$DIMTIX
 70
     0
  9
$DIMSOXD
 70
     0
  9
$DIMSAH
 70
     0
  9
$DIMBLK1
  1

  9
$DIMBLK2
  1

  9
$DIMSTYLE
  2
STANDARD
  9
$DIMCLRD
 70
     0
  9
$DIMCLRE
 70
     0
  9
$DIMCLRT
 70
     0
  9
$DIMTFAC
 40
1.0
  9
$DIMGAP
 40
0.09
  9
$LUNITS
 70
     2
  9
$LUPREC
 70
     4
  9
$SKETCHINC
 40
0.1
  9
$FILLETRAD
 40
0.0
  9
$AUNITS
 70
     0
  9
$AUPREC
 70
     0
  9
$MENU
  1
.
  9
$ELEVATION
 40
0.0
  9
$PELEVATION
 40
0.0
  9
$THICKNESS
 40
0.0
  9
$LIMCHECK
 70
     0
  9
$BLIPMODE
 70
     0
  9
$CHAMFERA
 40
0.0
  9
$CHAMFERB
 40
0.0
  9
$SKPOLY
 70
     0
  9
$TDCREATE
 40
2458060.468368056230247
  9
$TDUPDATE
 40
2459970.6664814809337258
  9
$TDINDWG
 40
0.2987107639
  9
$TDUSRTIMER
 40
0.2987107639
  9
$USRTIMER
 70
     1
  9
$ANGBASE
 50
0.0
  9
$ANGDIR
 70
     0
  9
$PDMODE
 70
     0
  9
$PDSIZE
 40
0.3125
  9
$PLINEWID
 40
0.0
  9
$COORDS
 70
     1
  9
$SPLFRAME
 70
     0
  9
$SPLINETYPE
 70
     6
  9
$SPLINESEGS
 70
     8
  9
$ATTDIA
 70
     1
  9
$ATTREQ
 70
     1
  9
$HANDLING
 70
     1
  9
$HANDSEED
  5
6AAF
  9
$SURFTAB1
 70
     6
  9
$SURFTAB2
 70
     6
  9
$SURFTYPE
 70
     6
  9
$SURFU
 70
     6
  9
$SURFV
 70
     6
  9
$UCSNAME
  2

  9
$UCSORG
 10
0.0
 20
0.0
 30
0.0
  9
$UCSXDIR
 10
1.0
 20
0.0
 30
0.0
  9
$UCSYDIR
 10
0.0
 20
1.0
 30
0.0
  9
$PUCSNAME
  2

  9
$PUCSORG
 10
0.0
 20
0.0
 30
0.0
  9
$PUCSXDIR
 10
1.0
 20
0.0
 30
0.0
  9
$PUCSYDIR
 10
0.0
 20
1.0
 30
0.0
  9
$USERI1
 70
     0
  9
$USERI2
 70
     0
  9
$USERI3
 70
     0
  9
$USERI4
 70
     0
  9
$USERI5
 70
     0
  9
$USERR1
 40
0.0
  9
$USERR2
 40
0.0
  9
$USERR3
 40
0.0
  9
$USERR4
 40
0.0
  9
$USERR5
 40
0.0
  9
$WORLDVIEW
 70
     1
  9
$SHADEDGE
 70
     3
  9
$SHADEDIF
 70
    70
  9
$TILEMODE
 70
     1
  9
$MAXACTVP
 70
    64
  9
$PLIMCHECK
 70
     0
  9
$PEXTMIN
 10
1.0000000000000000E+20
 20
1.0000000000000000E+20
 30
1.0000000000000000E+20
  9
$PEXTMAX
 10
-1.0000000000000000E+20
 20
-1.0000000000000000E+20
 30
-1.0000000000000000E+20
  9
$PLIMMIN
 10
0.0
 20
0.0
  9
$PLIMMAX
 10
12.0
 20
9.0
  9
$UNITMODE
 70
     0
  9
$VISRETAIN
 70
     1
  9
$PLINEGEN
 70
     0
  9
$PSLTSCALE
 70
     1
  0
ENDSEC
  0
SECTION
  2
TABLES
  0
TABLE
  2
VPORT
 70
     1
  0
VPORT
  2
*ACTIVE
 70
     0
 10
0.0
 20
0.0
 11
1.0
 21
1.0
 12
34.5196527364539776
 22
0.7418655405242518
 13
0.0
 23
0.0
 14
1.0
 24
1.0
 15
0.0
 25
0.0
 16
0.0
 26
0.0
 36
57.0660660948473719
 17
2879.4677734375
 27
149.1628723144530966
 37
0.0
 40
17.8384285035137893
 41
2.7341040462427739
 42
50.0
 43
0.0
 44
0.0
 50
0.0
 51
0.0
 71
     0
 72
   100
 73
     1
 74
     1
 75
     0
 76
     0
 77
     0
 78
     0
  0
ENDTAB
  0
TABLE
  2
LTYPE
 70
     2
  0
LTYPE
  2
CONTINUOUS
 70
     0
  3
Solid line
 72
    65
 73
     0
 40
0.0
  0
LTYPE
  2
PHANTOM2
 70
     0
  3
___ _ _ ___ _ _ ___ _ _ ___ _ _
 72
    65
 73
     6
 40
1.25
 49
0.625
 49
-0.125
 49
0.125
 49
-0.125
 49
0.125
 49
-0.125
  0
ENDTAB
  0
TABLE
  2
LAYER
 70
     2
  0
LAYER
  2
0
 70
     0
 62
   255
  6
CONTINUOUS
  0
LAYER
  2
DEFPOINTS
 70
     0
 62
     7
  6
CONTINUOUS
  0
ENDTAB
  0
TABLE
  2
STYLE
 70
     1
  0
STYLE
  2
STANDARD
 70
     0
 40
0.0
 41
0.8
 50
0.0
 71
     0
 42
0.2
  3
txt
  4

  0
ENDTAB
  0
TABLE
  2
VIEW
 70
     0
  0
ENDTAB
  0
TABLE
  2
UCS
 70
     0
  0
ENDTAB
  0
TABLE
  2
APPID
 70
     9
  0
APPID
  2
ACAD
 70
     0
  0
APPID
  2
ACAD_MLEADERVER
 70
     0
  0
APPID
  2
ACAD_EXEMPT_FROM_CAD_STANDARDS
 70
     0
  0
APPID
  2
ACAD_NAV_VCDISPLAY
 70
     0
  0
APPID
  2
ACAECLAYERSTANDARD
 70
     0
  0
APPID
  2
ACCMTRANSPARENCY
 70
     0
  0
APPID
  2
ACAD_DSTYLE_DIMJAG
 70
     0
  0
APPID
  2
ACAD_DSTYLE_DIMTALN
 70
     0
  0
APPID
  2
ACDBATTR
 70
     0
  0
ENDTAB
  0
TABLE
  2
DIMSTYLE
 70
     1
  0
DIMSTYLE
  2
STANDARD
 70
     0
  3

  4

  5

  6

  7

 40
1.0
 41
0.1875
 42
0.0625
 43
0.38
 44
0.125
 45
0.0
 46
0.0
 47
0.01
 48
0.01
140
0.15625
141
0.09
142
0.0
143
25.3999999999999986
144
1.0
145
0.0
146
1.0
147
0.09
 71
     1
 72
     0
 73
     1
 74
     1
 75
     0
 76
     0
 77
     0
 78
     4
170
     0
171
     2
172
     0
173
     0
174
     0
175
     0
176
     0
177
     0
178
     0
  0
ENDTAB
  0
ENDSEC
  0
SECTION
  2
BLOCKS
  0
BLOCK
  8
0
  2
$MODEL_SPACE
 70
     0
 10
0.0
 20
0.0
 30
0.0
  3
$MODEL_SPACE
  1

  0
ENDBLK
  5
21
  8
0
  0
BLOCK
 67
     1
  8
0
  2
$PAPER_SPACE
 70
     0
 10
0.0
 20
0.0
 30
0.0
  3
$PAPER_SPACE
  1

  0
ENDBLK
  5
1D
 67
     1
  8
0
  0
BLOCK
  8
0
  2
_FILLED
 70
     0
 10
0.0
 20
0.0
 30
0.0
  3
_FILLED
  1

  0
SOLID
  5
64D3
  8
0
  6
BYBLOCK
 62
     0
 10
0.0
 20
0.0
 30
0.0
 11
-1.0
 21
0.1666666667
 31
0.0
 12
-1.0
 22
-0.1666666667
 32
0.0
 13
-1.0
 23
-0.1666666667
 33
0.0
  0
ENDBLK
  5
64D4
  8
0
  6
BYBLOCK
 62
     0
  0
ENDSEC
  0
SECTION
  2
ENTITIES
  0
ATTDEF
  5
3930
  8
DEFPOINTS
 10
2907.8642606262092158
 20
146.0447099181974977
 30
0.0
 40
0.001
  1
K-98299D
  3

  2
MODELNUMBER
 70
     0
1001
ACDBATTR
1070
     0
1070
     1
  0
ATTDEF
  5
3931
  8
DEFPOINTS
 10
2907.8642606262092158
 20
146.0430432515308041
 30
0.0
 40
0.001
  1
CUFF
  3

  2
TRADENAME
 70
     0
1001
ACDBATTR
1070
     0
1070
     1
  0
ATTDEF
  5
3932
  8
DEFPOINTS
 10
2907.8642606262092158
 20
146.0413765848641958
 30
0.0
 40
0.001
  1
BATHROOM SINK FAUCET
  3

  2
PRODUCT
 70
     0
1001
ACDBATTR
1070
     0
1070
     1
  0
LINE
  5
688C
  8
0
 10
2906.9586627418339049
 20
146.0460256523844862
 30
0.0
 11
2908.7696863638338982
 21
146.0460256523844862
 31
0.0
  0
LINE
  5
688D
  8
0
 10
2906.9586627418339049
 20
146.0460256523844862
 30
0.0
 11
2906.9586627418339049
 21
154.6472690471489955
 31
0.0
  0
LINE
  5
688E
  8
0
 10
2906.9586627418339049
 20
154.9820271837845098
 30
0.0
 11
2906.9586627418339049
 21
156.152400046212108
 31
0.0
  0
LINE
  5
688F
  8
0
 10
2907.0196801103129474
 20
154.9538775774844908
 30
0.0
 11
2908.7086689953548557
 21
154.9538775774844908
 31
0.0
  0
ARC
  5
6890
  8
0
 10
2907.8702670365219092
 20
154.6252287598692874
 30
0.0
 40
0.9118706949764979
 50
158.8745212729733112
 51
178.6150027217383069
  0
ARC
  5
6891
  8
0
 10
2907.8787868354838793
 20
143.0171662971964111
 30
0.0
 40
13.1858529056694795
 50
90.0634939811683353
 51
93.9210732943472379
  0
ARC
  5
6892
  8
0
 10
2906.9784627418339369
 20
156.152400046212108
 30
0.0
 40
0.0198
 50
93.9210732943472379
 51
180.0
  0
LINE
  5
6893
  8
0
 10
2906.9586627418339049
 20
154.9820271837845098
 30
0.0
 11
2908.7696863638338982
 21
154.9820271837845098
 31
0.0
  0
LINE
  5
6894
  8
0
 10
2907.0336956661340082
 20
154.9604574653845077
 30
0.0
 11
2907.0334658914339343
 21
154.9538775774844908
 31
0.0
  0
LINE
  5
6895
  8
0
 10
2907.0434063465190775
 20
154.9820271837845098
 30
0.0
 11
2907.0336956661340082
 21
154.9604574653845077
 31
0.0
  0
LINE
  5
6896
  8
0
 10
2907.0336956661340082
 20
154.9604574653845077
 30
0.0
 11
2908.6946534395337949
 21
154.9604574653845077
 31
0.0
  0
LINE
  5
6897
  8
0
 10
2906.9769839709201733
 20
156.1721447476934088
 30
0.0
 11
2908.7513651347480845
 21
156.1721447476934088
 31
0.0
  0
ARC
  5
6898
  8
0
 10
2907.8640020943639684
 20
153.6699041740849054
 30
0.0
 40
0.488920775575844
 50
89.9797898899132917
 51
102.3899942624479991
  0
ARC
  5
6899
  8
0
 10
2907.8661883512831992
 20
153.659815092007193
 30
0.0
 40
0.4992439751125694
 50
102.3866175243024941
 51
117.8057396694295988
  0
ARC
  5
689A
  8
0
 10
2907.8566162756869744
 20
153.6779657413163136
 30
0.0
 40
0.478723967764328
 50
117.8057396694295988
 51
135.2335473637544965
  0
ARC
  5
689B
  8
0
 10
2907.8505341878130821
 20
153.6839984469530123
 30
0.0
 40
0.4701574439534807
 50
135.2335473637544965
 51
156.4272108743257093
  0
ARC
  5
689C
  8
0
 10
2908.2121634947329767
 20
153.576059537071302
 30
0.0
 40
0.8460106563669574
 50
159.522977894923514
 51
172.7522652849681037
  0
ARC
  5
689D
  8
0
 10
2908.1226856423650133
 20
153.4178124498602926
 30
0.0
 40
0.7546682651520804
 50
186.5294576271953986
 51
202.682515720161291
  0
ARC
  5
689E
  8
0
 10
2907.8438933505590285
 20
153.3263272322843989
 30
0.0
 40
0.4627369245381315
 50
205.543903443230306
 51
225.1987568776382034
  0
ARC
  5
689F
  8
0
 10
2907.8599749623758726
 20
153.3421935982615878
 30
0.0
 40
0.4853269471441683
 50
225.1715370768677928
 51
248.4282140359107132
  0
ARC
  5
68A0
  8
0
 10
2907.8645106182780182
 20
153.3531490378362889
 30
0.0
 40
0.4971826877317509
 50
248.4063161888022933
 51
269.961271513494296
  0
ARC
  5
68A1
  8
0
 10
2907.7171640860060506
 20
152.9950809340645037
 30
0.0
 40
0.132561516941868
 50
208.4103350184483077
 51
233.2575111302280106
  0
ARC
  5
68A2
  8
0
 10
2907.7863297952840185
 20
153.0877303842144102
 30
0.0
 40
0.2481807884888472
 50
233.2575111302280106
 51
252.4743989905934995
  0
ARC
  5
68A3
  8
0
 10
2907.8802358311459102
 20
153.385098907911896
 30
0.0
 40
0.5600243108797929
 50
252.4743989905934995
 51
259.3554606460891137
  0
ARC
  5
68A4
  8
0
 10
2907.8638136787039912
 20
153.3515826196679086
 30
0.0
 40
0.5241457682269983
 50
260.4430326539927023
 51
269.9605518778956252
  0
ARC
  5
68A5
  8
0
 10
2907.7500874954230312
 20
152.868098024580803
 30
0.0
 40
0.0034131394253708
 50
146.2848047316338977
 51
178.8793507402808132
  0
ARC
  5
68A6
  8
0
 10
2907.749607218212077
 20
152.8681074195301051
 30
0.0
 40
0.0029327703329892
 50
178.8793507402774878
 51
207.976816827147104
  0
ARC
  5
68A7
  8
0
 10
2907.7519942967001043
 20
152.8693754130119089
 30
0.0
 40
0.0056357226408707
 50
207.9768168271527884
 51
233.2551675113014085
  0
ARC
  5
68A8
  8
0
 10
2907.75561164517012
 20
152.8742205415383069
 30
0.0
 40
0.011682248948676
 50
233.2551675113004137
 51
253.1283219106717013
  0
ARC
  5
68A9
  8
0
 10
2907.7592902839619455
 20
152.886349920000896
 30
0.0
 40
0.0243571929428092
 50
253.1283219106717013
 51
267.0640549350405877
  0
ARC
  5
68AA
  8
0
 10
2907.7592517004400179
 20
152.8855976110399979
 30
0.0
 40
0.0236038952188654
 50
267.0640549350405877
 51
281.7709390149603905
  0
ARC
  5
68AB
  8
0
 10
2907.7607131158010816
 20
152.8785844419159901
 30
0.0
 40
0.0164400780786577
 50
281.7709390149603905
 51
304.458275962815776
  0
ARC
  5
68AC
  8
0
 10
2907.8551264976731545
 20
152.8542049134534864
 30
0.0
 40
0.0034556659674584
 50
146.3932962930286976
 51
176.2941616140591918
  0
ARC
  5
68AD
  8
0
 10
2907.8551223855320131
 20
152.854344959295787
 30
0.0
 40
0.0034453354881954
 50
178.6144623136696907
 51
215.5284598592438954
  0
ARC
  5
68AE
  8
0
 10
2907.8580264467350389
 20
152.8564831565676911
 30
0.0
 40
0.0070514566288098
 50
215.9554651032956087
 51
241.8659095402184107
  0
ARC
  5
68AF
  8
0
 10
2907.8627248416369184
 20
152.8652424487358132
 30
0.0
 40
0.0169912777789678
 50
241.8222898143237103
 51
262.2453962018481093
  0
ARC
  5
68B0
  8
0
 10
2907.864166420312813
 20
152.8727888136731963
 30
0.0
 40
0.0246665550017272
 50
261.2926267002013105
 51
270.0188903219133749
  0
LINE
  5
68B1
  8
0
 10
2908.7696863638338982
 20
146.0460256523844862
 30
0.0
 11
2908.7696863638338982
 21
154.6472690471489955
 31
0.0
  0
LINE
  5
68B2
  8
0
 10
2908.7696863638338982
 20
154.9820271837845098
 30
0.0
 11
2908.7696863638338982
 21
156.152400046212108
 31
0.0
  0
ARC
  5
68B3
  8
0
 10
2907.8580820691458939
 20
154.6252287598692874
 30
0.0
 40
0.9118706949764979
 50
1.384997278261709
 51
21.1254787270266213
  0
ARC
  5
68B4
  8
0
 10
2907.8495622701848333
 20
143.0171662971964111
 30
0.0
 40
13.1858529056694795
 50
86.0789267056527763
 51
89.9365060188316647
  0
ARC
  5
68B5
  8
0
 10
2908.7498863638338662
 20
156.152400046212108
 30
0.0
 40
0.0198
 50
0.0
 51
86.0789267056527763
  0
LINE
  5
68B6
  8
0
 10
2908.6946534395337949
 20
154.9604574653845077
 30
0.0
 11
2908.6948832142338688
 21
154.9538775774844908
 31
0.0
  0
LINE
  5
68B7
  8
0
 10
2908.6849427591491803
 20
154.9820271837845098
 30
0.0
 11
2908.6946534395337949
 21
154.9604574653845077
 31
0.0
  0
LINE
  5
68B8
  8
0
 10
2907.8641745528339015
 20
152.8274369756717874
 30
0.0
 11
2907.8634528045731713
 21
152.8274369756717874
 31
0.0
  0
LINE
  5
68B9
  8
0
 10
2907.3729125156310147
 20
153.6827920286677056
 30
0.0
 11
2907.3729125156310147
 21
153.3319960827961097
 31
0.0
  0
ARC
  5
68BA
  8
0
 10
2907.864347011305199
 20
153.6699041740849054
 30
0.0
 40
0.4889207755758547
 50
77.6100057375520009
 51
90.0202101100867225
  0
ARC
  5
68BB
  8
0
 10
2907.8621607543850587
 20
153.659815092007193
 30
0.0
 40
0.4992439751125694
 50
62.1942603305703514
 51
77.6133824756975059
  0
ARC
  5
68BC
  8
0
 10
2907.8717328299821929
 20
153.6779657413163136
 30
0.0
 40
0.478723967764328
 50
44.766452636245468
 51
62.1942603305703514
  0
ARC
  5
68BD
  8
0
 10
2907.8778149178551757
 20
153.6839984469530123
 30
0.0
 40
0.4701574439534807
 50
23.5727891256742517
 51
44.766452636245468
  0
ARC
  5
68BE
  8
0
 10
2907.5161856109348264
 20
153.576059537071302
 30
0.0
 40
0.8460106563669574
 50
7.2477347150318598
 51
20.4770221050764683
  0
ARC
  5
68BF
  8
0
 10
2907.605663463304154
 20
153.4178124498602926
 30
0.0
 40
0.7546682651520804
 50
337.3174842798388227
 51
353.470542372804573
  0
ARC
  5
68C0
  8
0
 10
2907.8844557551087746
 20
153.3263272322843989
 30
0.0
 40
0.4627369245381315
 50
314.801243122361825
 51
334.456096556769694
  0
ARC
  5
68C1
  8
0
 10
2907.8683741432919305
 20
153.3421935982615878
 30
0.0
 40
0.4853269471441683
 50
291.5717859640892016
 51
314.8284629231321787
  0
ARC
  5
68C2
  8
0
 10
2907.8638384873911491
 20
153.3531490378362889
 30
0.0
 40
0.4971826877317509
 50
270.0387284865055904
 51
291.5936838111975931
  0
ARC
  5
68C3
  8
0
 10
2908.0111850196622072
 20
152.9950809340645037
 30
0.0
 40
0.132561516941868
 50
306.7424888697719894
 51
331.5896649815517208
  0
ARC
  5
68C4
  8
0
 10
2907.9420193103837846
 20
153.0877303842144102
 30
0.0
 40
0.2481807884888472
 50
287.5256010094063868
 51
306.7424888697719894
  0
ARC
  5
68C5
  8
0
 10
2907.8481132745228024
 20
153.385098907911896
 30
0.0
 40
0.5600243108797929
 50
280.6445393539108863
 51
287.5256010094063868
  0
ARC
  5
68C6
  8
0
 10
2907.8645354269651762
 20
153.3515826196679086
 30
0.0
 40
0.5241457682269983
 50
270.0394481221043748
 51
279.5569673460072977
  0
ARC
  5
68C7
  8
0
 10
2907.9782616102452266
 20
152.868098024580803
 30
0.0
 40
0.0034131394253708
 50
1.1206492597192139
 51
33.7151952683660525
  0
ARC
  5
68C8
  8
0
 10
2907.9787418874570903
 20
152.8681074195301051
 30
0.0
 40
0.0029327703329892
 50
332.023183172852896
 51
1.12064925972247
  0
ARC
  5
68C9
  8
0
 10
2907.976354808969063
 20
152.8693754130119089
 30
0.0
 40
0.0056357226408707
 50
306.7448324886985915
 51
332.0231831728472116
  0
ARC
  5
68CA
  8
0
 10
2907.9727374604981378
 20
152.8742205415383069
 30
0.0
 40
0.011682248948676
 50
286.8716780893283271
 51
306.7448324886996147
  0
ARC
  5
68CB
  8
0
 10
2907.9690588217058576
 20
152.886349920000896
 30
0.0
 40
0.0243571929428092
 50
272.9359450649594123
 51
286.8716780893283271
  0
ARC
  5
68CC
  8
0
 10
2907.9690974052291494
 20
152.8855976110399979
 30
0.0
 40
0.0236038952188654
 50
258.2290609850396095
 51
272.9359450649594123
  0
ARC
  5
68CD
  8
0
 10
2907.9676359898680857
 20
152.8785844419159901
 30
0.0
 40
0.0164400780786577
 50
235.5417240371841956
 51
258.2290609850396095
  0
ARC
  5
68CE
  8
0
 10
2907.8732226079960128
 20
152.8542049134534864
 30
0.0
 40
0.0034556659674584
 50
3.7058383859407509
 51
33.6067037069713308
  0
ARC
  5
68CF
  8
0
 10
2907.8732267201357899
 20
152.854344959295787
 30
0.0
 40
0.0034453354881954
 50
324.4715401407560762
 51
1.3855376863302391
  0
ARC
  5
68D0
  8
0
 10
2907.8703226589332189
 20
152.8564831565676911
 30
0.0
 40
0.0070514566288098
 50
298.1340904597815893
 51
324.044534896704306
  0
ARC
  5
68D1
  8
0
 10
2907.8656242640308847
 20
152.8652424487358132
 30
0.0
 40
0.0169912777789678
 50
277.7546037981518907
 51
298.1777101856764034
  0
ARC
  5
68D2
  8
0
 10
2907.8641826853558996
 20
152.8727888136731963
 30
0.0
 40
0.0246665550017272
 50
269.9811096780866251
 51
278.7073732997986895
  0
LINE
  5
68D3
  8
0
 10
2907.8641745528339015
 20
152.8274369756717874
 30
0.0
 11
2907.8648963010950865
 21
152.8274369756717874
 31
0.0
  0
LINE
  5
68D4
  8
0
 10
2908.3554365900367884
 20
153.6827920286677056
 30
0.0
 11
2908.3554365900367884
 21
153.3319960827961097
 31
0.0
  0
LINE
  5
68D6
  8
0
 10
2907.7231937699111768
 20
155.6199637411100127
 30
0.0
 11
2907.7231937699111768
 21
155.5230401167831076
 31
0.0
  0
ARC
  5
68D7
  8
0
 10
2907.8650717533159877
 20
155.6133437944712057
 30
0.0
 40
0.1420323409247452
 50
118.9087343761
 51
177.328548812502703
  0
ARC
  5
68D8
  8
0
 10
2907.8649032080747929
 20
155.6098681168874123
 30
0.0
 40
0.1450049593140217
 50
90.2879146057157982
 51
118.1865205073345066
  0
ARC
  5
68D9
  8
0
 10
2907.906939773285103
 20
155.5326132844622862
 30
0.0
 40
0.1839952154148381
 50
182.9824138463253007
 51
203.9405885420636935
  0
ARC
  5
68DA
  8
0
 10
2907.8590685273197778
 20
155.5164527193331026
 30
0.0
 40
0.1337657428326316
 50
205.9350409542145997
 51
228.8071203228168997
  0
ARC
  5
68DB
  8
0
 10
2907.8628568396488845
 20
155.5203716900701068
 30
0.0
 40
0.1392099839781074
 50
228.6961281377041928
 51
247.5149313857866957
  0
ARC
  5
68DC
  8
0
 10
2907.8643401592112241
 20
155.5237211730382967
 30
0.0
 40
0.1428721494177601
 50
247.4790107515972011
 51
266.8356704232911056
  0
ARC
  5
68DD
  8
0
 10
2907.8785699679428944
 20
156.0308969109188126
 30
0.0
 40
0.6502062985964776
 50
268.0507459858944799
 51
268.7313812117999987
  0
LINE
  5
68DE
  8
0
 10
2908.005155335757081
 20
155.6199637411100127
 30
0.0
 11
2908.005155335757081
 21
155.5230401167831076
 31
0.0
  0
ARC
  5
68DF
  8
0
 10
2907.8632773523531796
 20
155.6133437944712057
 30
0.0
 40
0.1420323409247452
 50
2.671451187484216
 51
61.0912656238967884
  0
ARC
  5
68E0
  8
0
 10
2907.8634458975939197
 20
155.6098681168874123
 30
0.0
 40
0.1450049593140217
 50
61.8134794926631486
 51
89.7120853942581391
  0
ARC
  5
68E1
  8
0
 10
2907.8214093323831548
 20
155.5326132844622862
 30
0.0
 40
0.1839952154148381
 50
336.0594114579258758
 51
357.0175861536616253
  0
ARC
  5
68E2
  8
0
 10
2907.8692805783480253
 20
155.5164527193331026
 30
0.0
 40
0.1337657428326316
 50
311.1928796771778138
 51
334.0649590457766749
  0
ARC
  5
68E3
  8
0
 10
2907.8654922660189186
 20
155.5203716900701068
 30
0.0
 40
0.1392099839781074
 50
292.4850686142114
 51
311.3038718622707961
  0
ARC
  5
68E4
  8
0
 10
2907.8640089464570337
 20
155.5237211730382967
 30
0.0
 40
0.1428721494177601
 50
273.1643295767088944
 51
292.5209892484008947
  0
ARC
  5
68E5
  8
0
 10
2907.8497791377249087
 20
156.0308969109188126
 30
0.0
 40
0.6502062985964776
 50
271.2686187882000013
 51
271.9492540141055201
  0
ENDSEC
  0
EOF
