  0
SECTION
  2
HEADER
  9
$ACADVER
  1
AC1009
  9
$INSBASE
 10
1028.529622903651898
 20
139.5391576225277106
 30
0.0
  9
$EXTMIN
 10
1027.5507196366370408
 20
134.9237643960044011
 30
-0.0015258207003583
  9
$EXTMAX
 10
1029.503256937470951
 20
140.5166374454813933
 30
0.0000000349246037
  9
$LIMMIN
 10
0.0
 20
0.0
  9
$LIMMAX
 10
11.6929133858000007
 20
8.2677165353999982
  9
$ORTHOMODE
 70
     0
  9
$REGENMODE
 70
     1
  9
$FILLMODE
 70
     1
  9
$QTEXTMODE
 70
     0
  9
$MIRRTEXT
 70
     0
  9
$DRAGMODE
 70
     2
  9
$LTSCALE
 40
0.6431102362
  9
$OSMODE
 70
  4095
  9
$ATTMODE
 70
     1
  9
$TEXTSIZE
 40
0.2
  9
$TRACEWID
 40
0.05
  9
$TEXTSTYLE
  7
STANDARD
  9
$CLAYER
  8
0
  9
$CELTYPE
  6
BYLAYER
  9
$CECOLOR
 62
   256
  9
$DIMSCALE
 40
1.0
  9
$DIMASZ
 40
0.1875
  9
$DIMEXO
 40
0.0625
  9
$DIMDLI
 40
0.4443307087
  9
$DIMRND
 40
0.0
  9
$DIMDLE
 40
0.0
  9
$DIMEXE
 40
0.125
  9
$DIMTP
 40
0.01
  9
$DIMTM
 40
0.01
  9
$DIMTXT
 40
1.0
  9
$DIMCEN
 40
0.1052362205
  9
$DIMTSZ
 40
0.0
  9
$DIMTOL
 70
     1
  9
$DIMLIM
 70
     0
  9
$DIMTIH
 70
     0
  9
$DIMTOH
 70
     1
  9
$DIMSE1
 70
     0
  9
$DIMSE2
 70
     0
  9
$DIMTAD
 70
     0
  9
$DIMZIN
 70
     0
  9
$DIMBLK
  1

  9
$DIMASO
 70
     1
  9
$DIMSHO
 70
     1
  9
$DIMPOST
  1
\X
  9
$DIMAPOST
  1

  9
$DIMALT
 70
     1
  9
$DIMALTD
 70
     2
  9
$DIMALTF
 40
25.3999999999999986
  9
$DIMLFAC
 40
1.0
  9
$DIMTOFL
 70
     0
  9
$DIMTVP
 40
0.0
  9
$DIMTIX
 70
     0
  9
$DIMSOXD
 70
     0
  9
$DIMSAH
 70
     0
  9
$DIMBLK1
  1

  9
$DIMBLK2
  1

  9
$DIMSTYLE
  2
STANDARD
  9
$DIMCLRD
 70
     0
  9
$DIMCLRE
 70
     0
  9
$DIMCLRT
 70
     0
  9
$DIMTFAC
 40
1.0
  9
$DIMGAP
 40
0.09
  9
$LUNITS
 70
     2
  9
$LUPREC
 70
     4
  9
$SKETCHINC
 40
0.1
  9
$FILLETRAD
 40
0.0
  9
$AUNITS
 70
     0
  9
$AUPREC
 70
     0
  9
$MENU
  1
.
  9
$ELEVATION
 40
0.0
  9
$PELEVATION
 40
0.0
  9
$THICKNESS
 40
0.0
  9
$LIMCHECK
 70
     0
  9
$BLIPMODE
 70
     0
  9
$CHAMFERA
 40
0.0
  9
$CHAMFERB
 40
0.0
  9
$SKPOLY
 70
     0
  9
$TDCREATE
 40
2458172.5207638889551163
  9
$TDUPDATE
 40
2459933.7946527781896293
  9
$TDINDWG
 40
0.4543988657
  9
$TDUSRTIMER
 40
0.4543988657
  9
$USRTIMER
 70
     1
  9
$ANGBASE
 50
0.0
  9
$ANGDIR
 70
     0
  9
$PDMODE
 70
     0
  9
$PDSIZE
 40
0.3125
  9
$PLINEWID
 40
0.0
  9
$COORDS
 70
     1
  9
$SPLFRAME
 70
     0
  9
$SPLINETYPE
 70
     6
  9
$SPLINESEGS
 70
     8
  9
$ATTDIA
 70
     1
  9
$ATTREQ
 70
     1
  9
$HANDLING
 70
     1
  9
$HANDSEED
  5
D3D4
  9
$SURFTAB1
 70
     6
  9
$SURFTAB2
 70
     6
  9
$SURFTYPE
 70
     6
  9
$SURFU
 70
     6
  9
$SURFV
 70
     6
  9
$UCSNAME
  2

  9
$UCSORG
 10
0.0
 20
0.0
 30
0.0
  9
$UCSXDIR
 10
1.0
 20
0.0
 30
0.0
  9
$UCSYDIR
 10
0.0
 20
1.0
 30
0.0
  9
$PUCSNAME
  2

  9
$PUCSORG
 10
0.0
 20
0.0
 30
0.0
  9
$PUCSXDIR
 10
1.0
 20
0.0
 30
0.0
  9
$PUCSYDIR
 10
0.0
 20
1.0
 30
0.0
  9
$USERI1
 70
     0
  9
$USERI2
 70
     0
  9
$USERI3
 70
     0
  9
$USERI4
 70
     0
  9
$USERI5
 70
     0
  9
$USERR1
 40
0.0
  9
$USERR2
 40
0.0
  9
$USERR3
 40
0.0
  9
$USERR4
 40
0.0
  9
$USERR5
 40
0.0
  9
$WORLDVIEW
 70
     1
  9
$SHADEDGE
 70
     3
  9
$SHADEDIF
 70
    70
  9
$TILEMODE
 70
     1
  9
$MAXACTVP
 70
    64
  9
$PLIMCHECK
 70
     0
  9
$PEXTMIN
 10
1.0000000000000000E+20
 20
1.0000000000000000E+20
 30
1.0000000000000000E+20
  9
$PEXTMAX
 10
-1.0000000000000000E+20
 20
-1.0000000000000000E+20
 30
-1.0000000000000000E+20
  9
$PLIMMIN
 10
0.0
 20
0.0
  9
$PLIMMAX
 10
12.0
 20
9.0
  9
$UNITMODE
 70
     0
  9
$VISRETAIN
 70
     1
  9
$PLINEGEN
 70
     0
  9
$PSLTSCALE
 70
     1
  0
ENDSEC
  0
SECTION
  2
TABLES
  0
TABLE
  2
VPORT
 70
     1
  0
VPORT
  2
*ACTIVE
 70
     0
 10
0.0
 20
0.0
 11
1.0
 21
1.0
 12
561.7847865792241464
 22
48.5870538008131518
 13
0.0
 23
0.0
 14
1.0
 24
1.0
 15
0.0
 25
0.0
 16
0.0
 26
0.0
 36
24.1179433675886514
 17
466.74220170783002
 27
89.133147119929788
 37
0.0
 40
5.6213838721590861
 41
1.772108843537415
 42
50.0
 43
0.0
 44
0.0
 50
0.0
 51
0.0
 71
     0
 72
   100
 73
     1
 74
     1
 75
     0
 76
     0
 77
     0
 78
     0
  0
ENDTAB
  0
TABLE
  2
LTYPE
 70
     2
  0
LTYPE
  2
CONTINUOUS
 70
     0
  3
Solid line
 72
    65
 73
     0
 40
0.0
  0
LTYPE
  2
PHANTOM2
 70
     0
  3
___ _ _ ___ _ _ ___ _ _ ___ _ _
 72
    65
 73
     6
 40
1.25
 49
0.625
 49
-0.125
 49
0.125
 49
-0.125
 49
0.125
 49
-0.125
  0
ENDTAB
  0
TABLE
  2
LAYER
 70
     2
  0
LAYER
  2
0
 70
     0
 62
   255
  6
CONTINUOUS
  0
LAYER
  2
DEFPOINTS
 70
     0
 62
     7
  6
CONTINUOUS
  0
ENDTAB
  0
TABLE
  2
STYLE
 70
     1
  0
STYLE
  2
STANDARD
 70
     0
 40
0.0
 41
0.8
 50
0.0
 71
     0
 42
0.2
  3
txt
  4

  0
ENDTAB
  0
TABLE
  2
VIEW
 70
     0
  0
ENDTAB
  0
TABLE
  2
UCS
 70
     0
  0
ENDTAB
  0
TABLE
  2
APPID
 70
    11
  0
APPID
  2
ACAD
 70
     0
  0
APPID
  2
ACAD_MLEADERVER
 70
     0
  0
APPID
  2
ACAD_EXEMPT_FROM_CAD_STANDARDS
 70
     0
  0
APPID
  2
ACAD_DSTYLE_DIMJAG
 70
     0
  0
APPID
  2
ACAD_DSTYLE_DIMTALN
 70
     0
  0
APPID
  2
ACAD_NAV_VCDISPLAY
 70
     0
  0
APPID
  2
ACAECLAYERSTANDARD
 70
     0
  0
APPID
  2
ACCMTRANSPARENCY
 70
     0
  0
APPID
  2
DCO15
 70
     0
  0
APPID
  2
ACDBATTR
 70
     0
  0
APPID
  2
ACADANNOTATIVE
 70
     0
  0
ENDTAB
  0
TABLE
  2
DIMSTYLE
 70
     1
  0
DIMSTYLE
  2
STANDARD
 70
     0
  3

  4

  5

  6

  7

 40
1.0
 41
0.1875
 42
0.0625
 43
0.38
 44
0.125
 45
0.0
 46
0.0
 47
0.01
 48
0.01
140
0.15625
141
0.09
142
0.0
143
25.3999999999999986
144
1.0
145
0.0
146
1.0
147
0.09
 71
     1
 72
     0
 73
     1
 74
     1
 75
     0
 76
     0
 77
     0
 78
     4
170
     0
171
     2
172
     0
173
     0
174
     0
175
     0
176
     0
177
     0
178
     0
  0
ENDTAB
  0
ENDSEC
  0
SECTION
  2
BLOCKS
  0
BLOCK
  8
0
  2
$MODEL_SPACE
 70
     0
 10
0.0
 20
0.0
 30
0.0
  3
$MODEL_SPACE
  1

  0
ENDBLK
  5
21
  8
0
  0
BLOCK
 67
     1
  8
0
  2
$PAPER_SPACE
 70
     0
 10
0.0
 20
0.0
 30
0.0
  3
$PAPER_SPACE
  1

  0
ENDBLK
  5
1D
 67
     1
  8
0
  0
ENDSEC
  0
SECTION
  2
ENTITIES
  0
ATTDEF
  5
829
  8
DEFPOINTS
 10
1028.524756619297932
 20
139.5370299147905939
 30
0.0
 40
0.001
  1
K-98298D
  3

  2
MODELNUMBER
 70
     0
1001
ACDBATTR
1070
     0
1070
     1
  0
ATTDEF
  5
82A
  8
DEFPOINTS
 10
1028.524756619297932
 20
139.5353632481239003
 30
0.0
 40
0.001
  1
CUFF
  3

  2
TRADENAME
 70
     0
1001
ACDBATTR
1070
     0
1070
     1
  0
ATTDEF
  5
82B
  8
DEFPOINTS
 10
1028.524756619297932
 20
139.533696581457292
 30
0.0
 40
0.001
  1
BATHROOM SINK FAUCET
  3

  2
PRODUCT
 70
     0
1001
ACDBATTR
1070
     0
1070
     1
  0
LINE
  5
D2F3
  8
0
 10
1028.3904920379688974
 20
136.0601277375249936
 30
0.0
 11
1028.3904920379688974
 21
138.5788884505641931
 31
0.0
  0
LINE
  5
D2F4
  8
0
 10
1028.0404938905880954
 20
134.9716491747171005
 30
0.0
 11
1028.0404938905880954
 21
138.3936371736434126
 31
0.0
  0
ARC
  5
D2F5
  8
0
 10
1028.5609982165540259
 20
140.3045308627401084
 30
0.0
 40
5.3761356693821787
 50
264.636000430917079
 51
269.6656179595426011
  0
ARC
  5
D2F6
  8
0
 10
1028.0602938905879
 20
134.9716491747171005
 30
0.0
 40
0.0198
 50
180.0
 51
264.5758302438695182
  0
ARC
  5
D2F7
  8
0
 10
1028.53359781165409
 20
137.6587158888561078
 30
0.0
 40
1.6101826032769611
 50
265.0872474876595106
 51
269.8585590955245834
  0
ARC
  5
D2F8
  8
0
 10
1028.3961920379690582
 20
136.0601277375249936
 30
0.0
 40
0.0057
 50
180.0000000000358114
 51
265.0872474875941975
  0
ARC
  5
D2F9
  8
0
 10
1026.7676202574539275
 20
138.4004190320086138
 30
0.0
 40
1.2728916998434361
 50
359.6947315313396984
 51
10.2099626491342299
  0
ARC
  5
D2FA
  8
0
 10
1027.5635356262901041
 20
138.5437696897583066
 30
0.0
 40
0.4641700632918983
 50
10.2099626491342299
 51
32.724798237194932
  0
ARC
  5
D2FB
  8
0
 10
1021.2155404694090066
 20
134.070578551364207
 30
0.0
 40
8.2294957494998702
 50
35.0329731083044535
 51
36.3769918270016177
  0
LINE
  5
D2FC
  8
0
 10
1028.382122903652089
 20
140.4446536855276975
 30
0.0
 11
1028.6771229035439319
 21
140.4446536855276975
 31
0.0
  0
ARC
  5
D2FD
  8
0
 10
1028.5296229035980105
 20
140.3269406577364009
 30
0.0
 40
0.1887130278913069
 50
38.5917722650516524
 51
141.4082277349654078
  0
LINE
  5
D2FE
  8
0
 10
1028.4119335651801066
 20
140.436505085723411
 30
0.0
 11
1028.4126464752519041
 21
140.4446536855276975
 31
0.0
  0
LINE
  5
D2FF
  8
0
 10
1028.6687537693360355
 20
136.0601277375249936
 30
0.0
 11
1028.6687537693360355
 21
138.5788884505641931
 31
0.0
  0
LINE
  5
D300
  8
0
 10
1029.018751916715928
 20
134.9716491747171005
 30
0.0
 11
1029.018751916715928
 21
138.3936371736434126
 31
0.0
  0
ARC
  5
D301
  8
0
 10
1028.498247590750907
 20
140.3045308627401084
 30
0.0
 40
5.3761356693821583
 50
270.3343820404572853
 51
275.363999569082921
  0
ARC
  5
D302
  8
0
 10
1028.998951916715896
 20
134.9716491747171005
 30
0.0
 40
0.0198
 50
275.4241697561304818
 51
0.0
  0
ARC
  5
D303
  8
0
 10
1028.5256479956510702
 20
137.6587158888561078
 30
0.0
 40
1.6101826032769611
 50
270.1414409044754166
 51
274.9127525123404894
  0
ARC
  5
D304
  8
0
 10
1028.6630537693349652
 20
136.0601277375249936
 30
0.0
 40
0.0057
 50
274.9127525124058025
 51
359.9999999999641886
  0
ARC
  5
D305
  8
0
 10
1030.2916255498500959
 20
138.4004190320086138
 30
0.0
 40
1.2728916998434361
 50
169.7900373508657879
 51
180.3052684686603016
  0
ARC
  5
D306
  8
0
 10
1029.4957101810139193
 20
138.5437696897583066
 30
0.0
 40
0.4641700632918983
 50
147.2752017628050112
 51
169.7900373508657879
  0
ARC
  5
D307
  8
0
 10
1035.8437053378959263
 20
134.070578551364207
 30
0.0
 40
8.2294957494998702
 50
143.6230081729983965
 51
144.9670268916954967
  0
LINE
  5
D308
  8
0
 10
1028.6473122421239168
 20
140.436505085723411
 30
0.0
 11
1028.6465993320518919
 21
140.4446536855276975
 31
0.0
  0
LINE
  5
D309
  8
0
 10
1029.0008235765510562
 20
134.9519378356083052
 30
0.0
 11
1028.058422230754104
 21
134.9519378356083052
 31
0.0
  0
CIRCLE
  5
D30A
  8
0
 10
1028.529622903651898
 20
139.5391576225277106
 30
0.0
 40
0.9050321817999993
  0
ARC
  5
D30B
  8
0
 10
1028.3105920379689451
 20
138.5788884505641931
 30
0.0
 40
0.0799
 50
0.0
 51
77.1510413126319179
  0
ARC
  5
D30C
  8
0
 10
1028.7486537693350783
 20
138.5788884505641931
 30
0.0
 40
0.0799
 50
102.8489586873679968
 51
180.0
  0
LINE
  5
D30E
  8
0
 10
1028.3957038974879197
 20
136.0544486778431121
 30
0.0
 11
1028.6635419098170132
 21
136.0544486778431121
 31
0.0
  0
ENDSEC
  0
EOF
