  0
SECTION
  2
HEADER
  9
$ACADVER
  1
AC1009
  9
$INSBASE
 10
3088.7151301350932044
 20
90.6923407043343843
 30
0.0
  9
$EXTMIN
 10
3084.1070885124431697
 20
90.6874400112605201
 30
0.0
  9
$EXTMAX
 10
3089.691476603295996
 20
95.9291491265964851
 30
0.0
  9
$LIMMIN
 10
0.0
 20
0.0
  9
$LIMMAX
 10
11.6929133858000007
 20
8.2677165353999982
  9
$ORTHOMODE
 70
     0
  9
$REGENMODE
 70
     1
  9
$FILLMODE
 70
     1
  9
$QTEXTMODE
 70
     0
  9
$MIRRTEXT
 70
     0
  9
$DRAGMODE
 70
     2
  9
$LTSCALE
 40
0.6431102362
  9
$OSMODE
 70
  4095
  9
$ATTMODE
 70
     1
  9
$TEXTSIZE
 40
0.2
  9
$TRACEWID
 40
0.05
  9
$TEXTSTYLE
  7
STANDARD
  9
$CLAYER
  8
0
  9
$CELTYPE
  6
BYLAYER
  9
$CECOLOR
 62
   256
  9
$DIMSCALE
 40
1.0
  9
$DIMASZ
 40
0.1875
  9
$DIMEXO
 40
0.0625
  9
$DIMDLI
 40
0.4443307087
  9
$DIMRND
 40
0.0
  9
$DIMDLE
 40
0.0
  9
$DIMEXE
 40
0.125
  9
$DIMTP
 40
0.01
  9
$DIMTM
 40
0.01
  9
$DIMTXT
 40
2.0
  9
$DIMCEN
 40
0.1052362205
  9
$DIMTSZ
 40
0.0
  9
$DIMTOL
 70
     1
  9
$DIMLIM
 70
     0
  9
$DIMTIH
 70
     1
  9
$DIMTOH
 70
     1
  9
$DIMSE1
 70
     0
  9
$DIMSE2
 70
     0
  9
$DIMTAD
 70
     0
  9
$DIMZIN
 70
     0
  9
$DIMBLK
  1

  9
$DIMASO
 70
     1
  9
$DIMSHO
 70
     1
  9
$DIMPOST
  1
\X
  9
$DIMAPOST
  1

  9
$DIMALT
 70
     1
  9
$DIMALTD
 70
     2
  9
$DIMALTF
 40
25.3999999999999986
  9
$DIMLFAC
 40
1.0
  9
$DIMTOFL
 70
     0
  9
$DIMTVP
 40
0.0
  9
$DIMTIX
 70
     0
  9
$DIMSOXD
 70
     0
  9
$DIMSAH
 70
     0
  9
$DIMBLK1
  1

  9
$DIMBLK2
  1

  9
$DIMSTYLE
  2
STANDARD
  9
$DIMCLRD
 70
     0
  9
$DIMCLRE
 70
     0
  9
$DIMCLRT
 70
     0
  9
$DIMTFAC
 40
1.0
  9
$DIMGAP
 40
0.09
  9
$LUNITS
 70
     2
  9
$LUPREC
 70
     4
  9
$SKETCHINC
 40
0.1
  9
$FILLETRAD
 40
0.0
  9
$AUNITS
 70
     0
  9
$AUPREC
 70
     0
  9
$MENU
  1
.
  9
$ELEVATION
 40
0.0
  9
$PELEVATION
 40
0.0
  9
$THICKNESS
 40
0.0
  9
$LIMCHECK
 70
     0
  9
$BLIPMODE
 70
     0
  9
$CHAMFERA
 40
0.0
  9
$CHAMFERB
 40
0.0
  9
$SKPOLY
 70
     0
  9
$TDCREATE
 40
2458060.468368056230247
  9
$TDUPDATE
 40
2459951.5817939820699394
  9
$TDINDWG
 40
0.2892778935
  9
$TDUSRTIMER
 40
0.2892778935
  9
$USRTIMER
 70
     1
  9
$ANGBASE
 50
0.0
  9
$ANGDIR
 70
     0
  9
$PDMODE
 70
     0
  9
$PDSIZE
 40
0.3125
  9
$PLINEWID
 40
0.0
  9
$COORDS
 70
     1
  9
$SPLFRAME
 70
     0
  9
$SPLINETYPE
 70
     6
  9
$SPLINESEGS
 70
     8
  9
$ATTDIA
 70
     1
  9
$ATTREQ
 70
     1
  9
$HANDLING
 70
     1
  9
$HANDSEED
  5
604C
  9
$SURFTAB1
 70
     6
  9
$SURFTAB2
 70
     6
  9
$SURFTYPE
 70
     6
  9
$SURFU
 70
     6
  9
$SURFV
 70
     6
  9
$UCSNAME
  2

  9
$UCSORG
 10
0.0
 20
0.0
 30
0.0
  9
$UCSXDIR
 10
1.0
 20
0.0
 30
0.0
  9
$UCSYDIR
 10
0.0
 20
1.0
 30
0.0
  9
$PUCSNAME
  2

  9
$PUCSORG
 10
0.0
 20
0.0
 30
0.0
  9
$PUCSXDIR
 10
1.0
 20
0.0
 30
0.0
  9
$PUCSYDIR
 10
0.0
 20
1.0
 30
0.0
  9
$USERI1
 70
     0
  9
$USERI2
 70
     0
  9
$USERI3
 70
     0
  9
$USERI4
 70
     0
  9
$USERI5
 70
     0
  9
$USERR1
 40
0.0
  9
$USERR2
 40
0.0
  9
$USERR3
 40
0.0
  9
$USERR4
 40
0.0
  9
$USERR5
 40
0.0
  9
$WORLDVIEW
 70
     1
  9
$SHADEDGE
 70
     3
  9
$SHADEDIF
 70
    70
  9
$TILEMODE
 70
     1
  9
$MAXACTVP
 70
    64
  9
$PLIMCHECK
 70
     0
  9
$PEXTMIN
 10
1.0000000000000000E+20
 20
1.0000000000000000E+20
 30
1.0000000000000000E+20
  9
$PEXTMAX
 10
-1.0000000000000000E+20
 20
-1.0000000000000000E+20
 30
-1.0000000000000000E+20
  9
$PLIMMIN
 10
0.0
 20
0.0
  9
$PLIMMAX
 10
12.0
 20
9.0
  9
$UNITMODE
 70
     0
  9
$VISRETAIN
 70
     1
  9
$PLINEGEN
 70
     0
  9
$PSLTSCALE
 70
     1
  0
ENDSEC
  0
SECTION
  2
TABLES
  0
TABLE
  2
VPORT
 70
     1
  0
VPORT
  2
*ACTIVE
 70
     0
 10
0.0
 20
0.0
 11
1.0
 21
1.0
 12
46.9074105018159173
 22
2.6550807239130929
 13
0.0
 23
0.0
 14
1.0
 24
1.0
 15
0.0
 25
0.0
 16
0.0
 26
0.0
 36
135.8369934122270024
 17
3041.5369873046879547
 27
89.3589248657226563
 37
0.0
 40
9.8067072846436201
 41
2.7341040462427739
 42
50.0
 43
0.0
 44
0.0
 50
0.0
 51
0.0
 71
     0
 72
   100
 73
     1
 74
     1
 75
     0
 76
     0
 77
     0
 78
     0
  0
ENDTAB
  0
TABLE
  2
LTYPE
 70
     2
  0
LTYPE
  2
CONTINUOUS
 70
     0
  3
Solid line
 72
    65
 73
     0
 40
0.0
  0
LTYPE
  2
PHANTOM2
 70
     0
  3
___ _ _ ___ _ _ ___ _ _ ___ _ _
 72
    65
 73
     6
 40
1.25
 49
0.625
 49
-0.125
 49
0.125
 49
-0.125
 49
0.125
 49
-0.125
  0
ENDTAB
  0
TABLE
  2
LAYER
 70
     2
  0
LAYER
  2
0
 70
     0
 62
   255
  6
CONTINUOUS
  0
LAYER
  2
DEFPOINTS
 70
     0
 62
     7
  6
CONTINUOUS
  0
ENDTAB
  0
TABLE
  2
STYLE
 70
     1
  0
STYLE
  2
STANDARD
 70
     0
 40
0.0
 41
0.8
 50
0.0
 71
     0
 42
0.2
  3
txt
  4

  0
ENDTAB
  0
TABLE
  2
VIEW
 70
     0
  0
ENDTAB
  0
TABLE
  2
UCS
 70
     0
  0
ENDTAB
  0
TABLE
  2
APPID
 70
     9
  0
APPID
  2
ACAD
 70
     0
  0
APPID
  2
ACAD_MLEADERVER
 70
     0
  0
APPID
  2
ACAD_EXEMPT_FROM_CAD_STANDARDS
 70
     0
  0
APPID
  2
ACAD_NAV_VCDISPLAY
 70
     0
  0
APPID
  2
ACAECLAYERSTANDARD
 70
     0
  0
APPID
  2
ACCMTRANSPARENCY
 70
     0
  0
APPID
  2
ACAD_DSTYLE_DIMJAG
 70
     0
  0
APPID
  2
ACAD_DSTYLE_DIMTALN
 70
     0
  0
APPID
  2
ACDBATTR
 70
     0
  0
ENDTAB
  0
TABLE
  2
DIMSTYLE
 70
     1
  0
DIMSTYLE
  2
STANDARD
 70
     0
  3

  4

  5

  6

  7

 40
1.0
 41
0.1875
 42
0.0625
 43
0.38
 44
0.125
 45
0.0
 46
0.0
 47
0.01
 48
0.01
140
0.15625
141
0.09
142
0.0
143
25.3999999999999986
144
1.0
145
0.0
146
1.0
147
0.09
 71
     1
 72
     0
 73
     1
 74
     1
 75
     0
 76
     0
 77
     0
 78
     4
170
     0
171
     2
172
     0
173
     0
174
     0
175
     0
176
     0
177
     0
178
     0
  0
ENDTAB
  0
ENDSEC
  0
SECTION
  2
BLOCKS
  0
BLOCK
  8
0
  2
$MODEL_SPACE
 70
     0
 10
0.0
 20
0.0
 30
0.0
  3
$MODEL_SPACE
  1

  0
ENDBLK
  5
21
  8
0
  0
BLOCK
 67
     1
  8
0
  2
$PAPER_SPACE
 70
     0
 10
0.0
 20
0.0
 30
0.0
  3
$PAPER_SPACE
  1

  0
ENDBLK
  5
1D
 67
     1
  8
0
  0
BLOCK
  8
0
  2
_FILLED
 70
     0
 10
0.0
 20
0.0
 30
0.0
  3
_FILLED
  1

  0
SOLID
  5
5AF7
  8
0
  6
BYBLOCK
 62
     0
 10
0.0
 20
0.0
 30
0.0
 11
-1.0
 21
0.1666666667
 31
0.0
 12
-1.0
 22
-0.1666666667
 32
0.0
 13
-1.0
 23
-0.1666666667
 33
0.0
  0
ENDBLK
  5
5AF8
  8
0
  6
BYBLOCK
 62
     0
  0
ENDSEC
  0
SECTION
  2
ENTITIES
  0
ATTDEF
  5
3930
  8
DEFPOINTS
 10
3088.7046262147991911
 20
90.6907733445938788
 30
0.0
 40
0.001
  1
K-98297D
  3

  2
MODELNUMBER
 70
     0
1001
ACDBATTR
1070
     0
1070
     1
  0
ATTDEF
  5
3931
  8
DEFPOINTS
 10
3088.7046262147991911
 20
90.6891066779272137
 30
0.0
 40
0.001
  1
CUFF
  3

  2
TRADENAME
 70
     0
1001
ACDBATTR
1070
     0
1070
     1
  0
ATTDEF
  5
3932
  8
DEFPOINTS
 10
3088.7046262147991911
 20
90.6874400112605343
 30
0.0
 40
0.001
  1
BATHROOM SINK FAUCET
  3

  2
PRODUCT
 70
     0
1001
ACDBATTR
1070
     0
1070
     1
  0
LINE
  5
5B57
  8
0
 10
3087.8096183241427752
 20
90.6923407043343843
 30
0.0
 11
3089.6206419460431789
 21
90.6923407043343843
 31
0.0
  0
LINE
  5
5B58
  8
0
 10
3087.8846512483428342
 20
94.686595485634399
 30
0.0
 11
3089.541062244342811
 21
94.686595485634399
 31
0.0
  0
LINE
  5
5B59
  8
0
 10
3087.8818226355429033
 20
94.6800155977340125
 30
0.0
 11
3089.5484376345489181
 21
94.6800155977340125
 31
0.0
  0
LINE
  5
5B5A
  8
0
 10
3087.8096183240431856
 20
94.7081652040344011
 30
0.0
 11
3089.6206419460431789
 21
94.7081652040344011
 31
0.0
  0
LINE
  5
5B5B
  8
0
 10
3088.6114527338550033
 20
95.9291491265964851
 30
0.0
 11
3088.8188075347311496
 21
95.9291491265964851
 31
0.0
  0
LINE
  5
5B5C
  8
0
 10
3084.1503511085579703
 20
93.8849578431768776
 30
0.0
 11
3087.409051346358865
 21
93.8849578431768776
 31
0.0
  0
LINE
  5
5B5D
  8
0
 10
3084.9557411975588366
 20
92.5535904358343942
 30
0.0
 11
3084.9568409864441492
 21
92.5535904358343942
 31
0.0
  0
LINE
  5
5B5E
  8
0
 10
3085.2384924006541951
 20
95.4810096930450243
 30
0.0
 11
3087.7193263662329628
 21
95.4810096930450243
 31
0.0
  0
LINE
  5
5B5F
  8
0
 10
3085.2384924006541951
 20
95.1069904177597749
 30
0.0
 11
3085.4815472910709104
 21
95.1069904177597749
 31
0.0
  0
LINE
  5
5B60
  8
0
 10
3086.0379170606879597
 20
95.1069904177597749
 30
0.0
 11
3087.7193263662329628
 21
95.1069904177597749
 31
0.0
  0
LINE
  5
5B61
  8
0
 10
3087.8296183241432118
 20
95.8982832569885773
 30
0.0
 11
3089.6006419460431971
 21
95.8982832569885773
 31
0.0
  0
LINE
  5
5B62
  8
0
 10
3085.2245107123430898
 20
95.3168143331640181
 30
0.0
 11
3085.2245107123430898
 21
95.2711857776407669
 31
0.0
  0
ARC
  5
5B63
  8
0
 10
3085.2393441520221131
 20
95.4634348315537977
 30
0.0
 40
0.0175954891045887
 50
92.774622390474363
 51
106.4582880482087006
  0
ARC
  5
5B64
  8
0
 10
3085.2362767597642232
 20
95.4753860026154939
 30
0.0
 40
0.0052836677368493
 50
111.2815453810826938
 51
165.293218941291201
  0
ARC
  5
5B65
  8
0
 10
3085.2511237903281653
 20
95.4713164844467173
 30
0.0
 40
0.0206780879440972
 50
164.8306494208314064
 51
178.5119243724078899
  0
ARC
  5
5B66
  8
0
 10
3088.4055186744681123
 20
95.2725338165604967
 30
0.0
 40
3.1813161457573962
 50
176.4078830206551061
 51
179.2024783051934094
  0
ARC
  5
5B67
  8
0
 10
3085.2393441520221131
 20
95.1245652792509873
 30
0.0
 40
0.0175954891045887
 50
253.5417119517913136
 51
267.2253776095255944
  0
ARC
  5
5B68
  8
0
 10
3085.2360984485371773
 20
95.1124551682278536
 30
0.0
 40
0.005072007804923
 50
193.481422655317914
 51
249.9438130222588086
  0
ARC
  5
5B69
  8
0
 10
3085.2517469636650276
 20
95.116774856481797
 30
0.0
 40
0.0213035523399672
 50
181.6898317586924065
 51
194.967594448065114
  0
ARC
  5
5B6A
  8
0
 10
3088.4055186744681123
 20
95.3154662942442457
 30
0.0
 40
3.1813161457573962
 50
180.7975216948065906
 51
183.5921169793440129
  0
ARC
  5
5B6B
  8
0
 10
3087.7087933873071961
 20
95.7223299657342039
 30
0.0
 40
0.2415500313720936
 50
272.4992199453262174
 51
281.3111385943885807
  0
ARC
  5
5B6C
  8
0
 10
3087.744475064038852
 20
95.5457099954707019
 30
0.0
 40
0.0613631225188986
 50
280.9871897663530831
 51
343.8619114842881004
  0
ARC
  5
5B6D
  8
0
 10
3087.5891176213408471
 20
95.5816594772794161
 30
0.0
 40
0.2207604188841832
 50
346.107293607798681
 51
357.2204849229211732
  0
LINE
  5
5B6E
  8
0
 10
3087.8096183241427752
 20
95.0170458943803453
 30
0.0
 11
3087.8096183241427752
 21
94.7081652040344011
 31
0.0
  0
LINE
  5
5B6F
  8
0
 10
3087.8096183241427752
 20
94.3256983465630015
 30
0.0
 11
3087.8096183241427752
 21
94.2474106617766552
 31
0.0
  0
LINE
  5
5B70
  8
0
 10
3087.8096183241427752
 20
92.2196518593843564
 30
0.0
 11
3087.8096183241427752
 21
90.6923407043343843
 31
0.0
  0
LINE
  5
5B71
  8
0
 10
3087.8096183241427752
 20
95.5709542164244255
 30
0.0
 11
3087.8096183241427752
 21
95.8782832569885954
 31
0.0
  0
ARC
  5
5B72
  8
0
 10
3087.7087933873071961
 20
94.8656701450705668
 30
0.0
 40
0.2415500313720936
 50
78.6888614056113482
 51
87.5007800546738252
  0
ARC
  5
5B73
  8
0
 10
3087.744475064038852
 20
95.0422901153340831
 30
0.0
 40
0.0613631225188986
 50
16.1380885157118996
 51
79.0128102336468316
  0
ARC
  5
5B74
  8
0
 10
3087.5891176213408471
 20
95.0063406335253688
 30
0.0
 40
0.2207604188841832
 50
2.7795150770787318
 51
13.8927063922012302
  0
ARC
  5
5B75
  8
0
 10
3086.4600211663469054
 20
95.2939999479937256
 30
0.0
 40
1.3821845160207551
 50
347.533768685465418
 51
12.4662599202296303
  0
ARC
  5
5B76
  8
0
 10
3085.4815004860379304
 20
95.1193928791662131
 30
0.0
 40
0.0124025497237389
 50
270.2162246677555117
 51
287.2124772183399273
  0
ARC
  5
5B77
  8
0
 10
3086.8481904470600057
 20
92.1135982730851737
 30
0.0
 40
3.2896116552481729
 50
113.6676055739490039
 51
114.477801237396605
  0
ARC
  5
5B78
  8
0
 10
3086.000791589318851
 20
94.0638751644723214
 30
0.0
 40
1.163221536166412
 50
106.515726832957597
 51
114.0013559092635944
  0
ARC
  5
5B79
  8
0
 10
3085.8107353212299131
 20
94.7820956030207213
 30
0.0
 40
0.4211775781043465
 50
85.7916939938408802
 51
109.504424616420593
  0
ARC
  5
5B7A
  8
0
 10
3085.8172066372339941
 20
94.9273720742844631
 30
0.0
 40
0.2758499921799682
 50
52.9125604543091583
 51
84.9178559152358758
  0
ARC
  5
5B7B
  8
0
 10
3085.6782862726281564
 20
94.7205687477123774
 30
0.0
 40
0.524777787673406
 50
47.9410840192996304
 51
54.4292881587524136
  0
ARC
  5
5B7C
  8
0
 10
3086.0381118711088675
 20
95.1192880796553908
 30
0.0
 40
0.0122992048197961
 50
227.6850564233864134
 51
269.092438752030489
  0
LINE
  5
5B7D
  8
0
 10
3089.6206419460431789
 20
95.8782832569885954
 30
0.0
 11
3089.6206419460431789
 21
94.7081652040344011
 31
0.0
  0
LINE
  5
5B7E
  8
0
 10
3089.6206419460431789
 20
94.3256848890344202
 30
0.0
 11
3089.6206419460431789
 21
90.6923407043343843
 31
0.0
  0
ARC
  5
5B7F
  8
0
 10
3087.8296183241432118
 20
95.8782832569885954
 30
0.0
 40
0.02
 50
90.0
 51
179.9999999999951115
  0
ARC
  5
5B80
  8
0
 10
3089.6006419460431971
 20
95.8782832569885812
 30
0.0
 40
0.02
 50
0.0000000000130276
 51
90.0
  0
ARC
  5
5B81
  8
0
 10
3088.7588278349930988
 20
82.2787383779228634
 30
0.0
 40
13.65120628471856
 50
90.6185633089680636
 51
93.9030236782760142
  0
ARC
  5
5B82
  8
0
 10
3088.6714377455568865
 20
82.2788728821373923
 30
0.0
 40
13.6510717309962697
 50
86.096960131677136
 51
89.3814528903038052
  0
ARC
  5
5B83
  8
0
 10
3089.5026261357561452
 20
95.0231918907181239
 30
0.0
 40
0.188850467539794
 50
308.6760734514642763
 51
51.3239265485357095
  0
LINE
  5
5B84
  8
0
 10
3087.8846512483428342
 20
94.686595485634399
 30
0.0
 11
3087.8943494678160278
 21
94.7081652040344011
 31
0.0
  0
LINE
  5
5B85
  8
0
 10
3087.8846512483428342
 20
94.686595485634399
 30
0.0
 11
3087.884421473643215
 21
94.6800155977340125
 31
0.0
  0
LINE
  5
5B86
  8
0
 10
3089.541062244342811
 20
94.686595485634399
 30
0.0
 11
3089.5313640248700722
 21
94.7081652040344011
 31
0.0
  0
LINE
  5
5B87
  8
0
 10
3089.541062244342811
 20
94.686595485634399
 30
0.0
 11
3089.5412920190428849
 21
94.6800155977340125
 31
0.0
  0
ARC
  5
5B88
  8
0
 10
3088.7151301349099413
 20
94.3256848890478352
 30
0.0
 40
0.9055118108667924
 50
156.964315888109013
 51
179.9991484828649959
  0
ARC
  5
5B89
  8
0
 10
3088.7151301350431822
 20
94.3256848890344202
 30
0.0
 40
0.9055118109998741
 50
359.9999999999984084
 51
23.0356841061020496
  0
LINE
  5
5B8A
  8
0
 10
3084.1070885124431697
 20
93.2995838133445545
 30
0.0
 11
3084.1070885124431697
 21
93.167478707816457
 31
0.0
  0
LINE
  5
5B8B
  8
0
 10
3084.1503511085579703
 20
92.5821046779841055
 30
0.0
 11
3084.2427361810728144
 21
92.5821046779841055
 31
0.0
  0
LINE
  5
5B8C
  8
0
 10
3085.0890572987600535
 20
92.5821046779841055
 30
0.0
 11
3087.409051346358865
 21
92.5821046779841055
 31
0.0
  0
ARC
  5
5B8D
  8
0
 10
3084.1504108867820833
 20
93.8654011518213451
 30
0.0
 40
0.0195567827163035
 50
90.1751333673447562
 51
145.6583168808643904
  0
ARC
  5
5B8E
  8
0
 10
3084.1512099399610634
 20
93.8649655627790338
 30
0.0
 40
0.0204624817375586
 50
145.9134201699625066
 51
175.2760578125613904
  0
ARC
  5
5B8F
  8
0
 10
3094.8143152051529796
 20
93.1217214267703071
 30
0.0
 40
10.7094376266269204
 50
176.0113872737360055
 51
177.3606906087825053
  0
ARC
  5
5B90
  8
0
 10
3093.8058925836257913
 20
93.1759080358616245
 30
0.0
 40
9.6995925743886122
 50
177.4061329859474938
 51
179.269423736611401
  0
ARC
  5
5B91
  8
0
 10
3084.1504108867820833
 20
92.6016613693396948
 30
0.0
 40
0.0195567827163094
 50
214.3416961234325981
 51
269.8248666326553007
  0
ARC
  5
5B92
  8
0
 10
3084.1512099396618396
 20
92.6020969583181852
 30
0.0
 40
0.0204624814349016
 50
184.7239420782649972
 51
214.0865925790018878
  0
ARC
  5
5B93
  8
0
 10
3094.8143152051529796
 20
93.3453410943907045
 30
0.0
 40
10.7094376266269204
 50
182.6393093912174947
 51
183.9886127262639093
  0
ARC
  5
5B94
  8
0
 10
3093.8058925836257913
 20
93.2911544852994155
 30
0.0
 40
9.6995925743886122
 50
180.730576263388599
 51
182.5938670140525062
  0
ARC
  5
5B95
  8
0
 10
3085.1753541852340277
 20
90.7241545249151926
 30
0.0
 40
2.0788831407692809
 50
104.9737048946490034
 51
116.6548536445441044
  0
ARC
  5
5B96
  8
0
 10
3084.7501456512300138
 20
92.3290454413655937
 30
0.0
 40
0.4186416421657678
 50
69.8508258832886924
 51
105.5067152369654053
  0
ARC
  5
5B97
  8
0
 10
3084.6442789483180604
 20
92.1687701811221842
 30
0.0
 40
0.6071846402187442
 50
42.901448028301381
 51
65.6783459952797557
  0
ARC
  5
5B98
  8
0
 10
3087.1920130317030271
 20
94.2628736184364158
 30
0.0
 40
0.617798834798363
 50
341.38082277806501
 51
358.5657877056983125
  0
ARC
  5
5B99
  8
0
 10
3087.543534523334074
 20
94.1511317351587564
 30
0.0
 40
0.2490795342941531
 50
307.1282330550916981
 51
339.9224898554193146
  0
ARC
  5
5B9A
  8
0
 10
3087.5087203986449822
 20
94.2081208945052566
 30
0.0
 40
0.3155999628644264
 50
274.3852272084776018
 51
305.9223410015455897
  0
ARC
  5
5B9B
  8
0
 10
3087.3948324224038515
 20
94.9995554748940094
 30
0.0
 40
1.11468832344644
 50
270.7308827138896845
 51
277.1125478232643786
  0
ARC
  5
5B9C
  8
0
 10
3087.1920130317030271
 20
92.2041889027245958
 30
0.0
 40
0.617798834798363
 50
1.4342122943016731
 51
18.6191772219349509
  0
ARC
  5
5B9D
  8
0
 10
3087.543534523334074
 20
92.3159307860022551
 30
0.0
 40
0.2490795342941531
 50
20.0775101445806783
 51
52.8717669449083303
  0
ARC
  5
5B9E
  8
0
 10
3087.5087203986449822
 20
92.2589416266557265
 30
0.0
 40
0.3155999628644264
 50
54.0776589984543108
 51
85.6147727915223982
  0
ARC
  5
5B9F
  8
0
 10
3087.3948324224038515
 20
91.4675070462670163
 30
0.0
 40
1.11468832344644
 50
82.8874521767355645
 51
89.2691172861102871
  0
LINE
  5
5BA0
  8
0
 10
3085.2304337460709576
 20
95.1164484138417663
 30
0.0
 11
3085.2300891062691335
 21
95.4659749617699163
 31
0.0
  0
LINE
  5
5BA1
  8
0
 10
3084.1302462687431216
 20
93.8584203073525032
 30
0.0
 11
3084.1302462687431216
 21
92.6086422138085084
 31
0.0
  0
LINE
  5
5BA2
  8
0
 10
3084.9514575567700376
 20
92.5548499189621481
 30
0.0
 11
3084.6382212578428152
 21
92.7324481616343945
 31
0.0
  0
LINE
  5
5BA3
  8
0
 10
3084.9648161689610788
 20
92.558541460689284
 30
0.0
 11
3085.0085277007678997
 21
92.6356370345774991
 31
0.0
  0
ARC
  5
5BA4
  8
0
 10
3084.956291092002175
 20
92.5633749959216772
 30
0.0
 40
0.0098
 50
240.4476961154823869
 51
266.7833482214556966
  0
ARC
  5
5BA5
  8
0
 10
3084.956291092002175
 20
92.5633749959216772
 30
0.0
 40
0.0098
 50
273.2166517785444171
 51
330.4476961095680281
  0
LINE
  5
5BA6
  8
0
 10
3084.8865928448230989
 20
92.7047714746784237
 30
0.0
 11
3084.821795601480062
 21
92.7415101176525098
 31
0.0
  0
LINE
  5
5BA7
  8
0
 10
3084.9386978236989307
 20
92.6752290726056458
 30
0.0
 11
3085.0721928914790624
 21
92.599540241091475
 31
0.0
  0
LINE
  5
5BA8
  8
0
 10
3084.9029503291458241
 20
92.7092917298633239
 30
0.0
 11
3084.9068839456967908
 21
92.7162295884476464
 31
0.0
  0
LINE
  5
5BA9
  8
0
 10
3084.9353076323031928
 20
92.6874971858173637
 30
0.0
 11
3084.9414208449188664
 21
92.6982792750966667
 31
0.0
  0
ARC
  5
5BAA
  8
0
 10
3084.8925114593939725
 20
92.7152103444236673
 30
0.0
 40
0.012
 50
240.4476961048540034
 51
330.4476961642253059
  0
ARC
  5
5BAB
  8
0
 10
3084.9431367846268586
 20
92.6830582249145749
 30
0.0
 40
0.009
 50
150.4476962920342942
 51
240.4476961048220005
  0
ARC
  5
5BAC
  8
0
 10
3090.4826721903368707
 20
95.0231257549579169
 30
0.0
 40
0.8709061386942293
 50
171.812947907188402
 51
188.1870520928115127
  0
ARC
  5
5BAD
  8
0
 10
3086.5169013093918693
 20
93.1821652010364545
 30
0.0
 40
1.6750716915563439
 50
320.5102462092851283
 51
39.4897537907148575
  0
ENDSEC
  0
EOF
