  0
SECTION
  2
HEADER
  9
$ACADVER
  1
AC1009
  9
$INSBASE
 10
3479.7460974353562051
 20
159.8364258650613863
 30
0.0
  9
$EXTMIN
 10
3475.1909067901019625
 20
159.4393449102796865
 30
-0.0000000000112498
  9
$EXTMAX
 10
3480.5015645842358936
 20
167.5566565644220987
 30
0.0000000000002956
  9
$LIMMIN
 10
0.0
 20
0.0
  9
$LIMMAX
 10
11.6929133858000007
 20
8.2677165353999982
  9
$ORTHOMODE
 70
     0
  9
$REGENMODE
 70
     1
  9
$FILLMODE
 70
     1
  9
$QTEXTMODE
 70
     0
  9
$MIRRTEXT
 70
     0
  9
$DRAGMODE
 70
     2
  9
$LTSCALE
 40
0.6431102362
  9
$OSMODE
 70
  2039
  9
$ATTMODE
 70
     1
  9
$TEXTSIZE
 40
0.2
  9
$TRACEWID
 40
0.05
  9
$TEXTSTYLE
  7
STANDARD
  9
$CLAYER
  8
0
  9
$CELTYPE
  6
BYLAYER
  9
$CECOLOR
 62
   256
  9
$DIMSCALE
 40
1.0
  9
$DIMASZ
 40
0.1875
  9
$DIMEXO
 40
0.0625
  9
$DIMDLI
 40
0.4443307087
  9
$DIMRND
 40
0.0
  9
$DIMDLE
 40
0.0
  9
$DIMEXE
 40
0.125
  9
$DIMTP
 40
0.01
  9
$DIMTM
 40
0.01
  9
$DIMTXT
 40
2.0
  9
$DIMCEN
 40
0.1052362205
  9
$DIMTSZ
 40
0.0
  9
$DIMTOL
 70
     1
  9
$DIMLIM
 70
     0
  9
$DIMTIH
 70
     1
  9
$DIMTOH
 70
     1
  9
$DIMSE1
 70
     0
  9
$DIMSE2
 70
     0
  9
$DIMTAD
 70
     0
  9
$DIMZIN
 70
     0
  9
$DIMBLK
  1

  9
$DIMASO
 70
     1
  9
$DIMSHO
 70
     1
  9
$DIMPOST
  1
\X
  9
$DIMAPOST
  1

  9
$DIMALT
 70
     1
  9
$DIMALTD
 70
     2
  9
$DIMALTF
 40
25.3999999999999986
  9
$DIMLFAC
 40
1.0
  9
$DIMTOFL
 70
     0
  9
$DIMTVP
 40
0.0
  9
$DIMTIX
 70
     0
  9
$DIMSOXD
 70
     0
  9
$DIMSAH
 70
     0
  9
$DIMBLK1
  1

  9
$DIMBLK2
  1

  9
$DIMSTYLE
  2
STANDARD
  9
$DIMCLRD
 70
     0
  9
$DIMCLRE
 70
     0
  9
$DIMCLRT
 70
     0
  9
$DIMTFAC
 40
1.0
  9
$DIMGAP
 40
0.09
  9
$LUNITS
 70
     2
  9
$LUPREC
 70
     4
  9
$SKETCHINC
 40
0.1
  9
$FILLETRAD
 40
0.0
  9
$AUNITS
 70
     0
  9
$AUPREC
 70
     0
  9
$MENU
  1
.
  9
$ELEVATION
 40
0.0
  9
$PELEVATION
 40
0.0
  9
$THICKNESS
 40
0.0
  9
$LIMCHECK
 70
     0
  9
$BLIPMODE
 70
     0
  9
$CHAMFERA
 40
0.0
  9
$CHAMFERB
 40
0.0
  9
$SKPOLY
 70
     0
  9
$TDCREATE
 40
2458060.468368056230247
  9
$TDUPDATE
 40
2459123.8922106479294598
  9
$TDINDWG
 40
0.5812686343
  9
$TDUSRTIMER
 40
0.5812686343
  9
$USRTIMER
 70
     1
  9
$ANGBASE
 50
0.0
  9
$ANGDIR
 70
     0
  9
$PDMODE
 70
     0
  9
$PDSIZE
 40
0.3125
  9
$PLINEWID
 40
0.0
  9
$COORDS
 70
     1
  9
$SPLFRAME
 70
     0
  9
$SPLINETYPE
 70
     6
  9
$SPLINESEGS
 70
     8
  9
$ATTDIA
 70
     1
  9
$ATTREQ
 70
     1
  9
$HANDLING
 70
     1
  9
$HANDSEED
  5
1DD55
  9
$SURFTAB1
 70
     6
  9
$SURFTAB2
 70
     6
  9
$SURFTYPE
 70
     6
  9
$SURFU
 70
     6
  9
$SURFV
 70
     6
  9
$UCSNAME
  2

  9
$UCSORG
 10
0.0
 20
0.0
 30
0.0
  9
$UCSXDIR
 10
1.0
 20
0.0
 30
0.0
  9
$UCSYDIR
 10
0.0
 20
1.0
 30
0.0
  9
$PUCSNAME
  2

  9
$PUCSORG
 10
0.0
 20
0.0
 30
0.0
  9
$PUCSXDIR
 10
1.0
 20
0.0
 30
0.0
  9
$PUCSYDIR
 10
0.0
 20
1.0
 30
0.0
  9
$USERI1
 70
     0
  9
$USERI2
 70
     0
  9
$USERI3
 70
     0
  9
$USERI4
 70
     0
  9
$USERI5
 70
     0
  9
$USERR1
 40
0.0
  9
$USERR2
 40
0.0
  9
$USERR3
 40
0.0
  9
$USERR4
 40
0.0
  9
$USERR5
 40
0.0
  9
$WORLDVIEW
 70
     1
  9
$SHADEDGE
 70
     3
  9
$SHADEDIF
 70
    70
  9
$TILEMODE
 70
     1
  9
$MAXACTVP
 70
    64
  9
$PLIMCHECK
 70
     0
  9
$PEXTMIN
 10
1.0000000000000000E+20
 20
1.0000000000000000E+20
 30
1.0000000000000000E+20
  9
$PEXTMAX
 10
-1.0000000000000000E+20
 20
-1.0000000000000000E+20
 30
-1.0000000000000000E+20
  9
$PLIMMIN
 10
0.0
 20
0.0
  9
$PLIMMAX
 10
12.0
 20
9.0
  9
$UNITMODE
 70
     0
  9
$VISRETAIN
 70
     1
  9
$PLINEGEN
 70
     0
  9
$PSLTSCALE
 70
     1
  0
ENDSEC
  0
SECTION
  2
TABLES
  0
TABLE
  2
VPORT
 70
     1
  0
VPORT
  2
*ACTIVE
 70
     0
 10
0.0
 20
0.0
 11
1.0
 21
1.0
 12
174.1531204527937007
 22
-31.7635108385368312
 13
0.0
 23
0.0
 14
1.0
 24
1.0
 15
0.0
 25
0.0
 16
0.0
 26
0.0
 36
96.5995694866707311
 17
3303.693115234375
 27
195.2615115758877096
 37
0.0
 40
8.1848620978661142
 41
2.6486111111111108
 42
50.0
 43
0.0
 44
0.0
 50
0.0
 51
0.0
 71
     0
 72
   100
 73
     1
 74
     1
 75
     0
 76
     0
 77
     0
 78
     0
  0
ENDTAB
  0
TABLE
  2
LTYPE
 70
     2
  0
LTYPE
  2
CONTINUOUS
 70
     0
  3
Solid line
 72
    65
 73
     0
 40
0.0
  0
LTYPE
  2
PHANTOM2
 70
     0
  3
___ _ _ ___ _ _ ___ _ _ ___ _ _
 72
    65
 73
     6
 40
1.25
 49
0.625
 49
-0.125
 49
0.125
 49
-0.125
 49
0.125
 49
-0.125
  0
ENDTAB
  0
TABLE
  2
LAYER
 70
     2
  0
LAYER
  2
0
 70
     0
 62
   255
  6
CONTINUOUS
  0
LAYER
  2
DEFPOINTS
 70
     0
 62
     7
  6
CONTINUOUS
  0
ENDTAB
  0
TABLE
  2
STYLE
 70
     1
  0
STYLE
  2
STANDARD
 70
     0
 40
0.0
 41
0.8
 50
0.0
 71
     0
 42
0.2
  3
txt
  4

  0
ENDTAB
  0
TABLE
  2
VIEW
 70
     0
  0
ENDTAB
  0
TABLE
  2
UCS
 70
     0
  0
ENDTAB
  0
TABLE
  2
APPID
 70
     9
  0
APPID
  2
ACAD
 70
     0
  0
APPID
  2
ACAD_MLEADERVER
 70
     0
  0
APPID
  2
ACAD_EXEMPT_FROM_CAD_STANDARDS
 70
     0
  0
APPID
  2
ACAD_NAV_VCDISPLAY
 70
     0
  0
APPID
  2
ACAECLAYERSTANDARD
 70
     0
  0
APPID
  2
ACCMTRANSPARENCY
 70
     0
  0
APPID
  2
ACAD_DSTYLE_DIMJAG
 70
     0
  0
APPID
  2
ACAD_DSTYLE_DIMTALN
 70
     0
  0
APPID
  2
ACDBATTR
 70
     0
  0
ENDTAB
  0
TABLE
  2
DIMSTYLE
 70
     1
  0
DIMSTYLE
  2
STANDARD
 70
     0
  3

  4

  5

  6

  7

 40
1.0
 41
0.1875
 42
0.0625
 43
0.38
 44
0.125
 45
0.0
 46
0.0
 47
0.01
 48
0.01
140
0.15625
141
0.09
142
0.0
143
25.3999999999999986
144
1.0
145
0.0
146
1.0
147
0.09
 71
     1
 72
     0
 73
     1
 74
     1
 75
     0
 76
     0
 77
     0
 78
     4
170
     0
171
     2
172
     0
173
     0
174
     0
175
     0
176
     0
177
     0
178
     0
  0
ENDTAB
  0
ENDSEC
  0
SECTION
  2
BLOCKS
  0
BLOCK
  8
0
  2
$MODEL_SPACE
 70
     0
 10
0.0
 20
0.0
 30
0.0
  3
$MODEL_SPACE
  1

  0
ENDBLK
  5
21
  8
0
  0
BLOCK
 67
     1
  8
0
  2
$PAPER_SPACE
 70
     0
 10
0.0
 20
0.0
 30
0.0
  3
$PAPER_SPACE
  1

  0
ENDBLK
  5
1D
 67
     1
  8
0
  0
BLOCK
  8
0
  2
_FILLED
 70
     0
 10
0.0
 20
0.0
 30
0.0
  3
_FILLED
  1

  0
SOLID
  5
9E2C
  8
0
  6
BYBLOCK
 62
     0
 10
0.0
 20
0.0
 30
0.0
 11
-1.0
 21
0.1666666667
 31
0.0
 12
-1.0
 22
-0.1666666667
 32
0.0
 13
-1.0
 23
-0.1666666667
 33
0.0
  0
ENDBLK
  5
9E2D
  8
0
  6
BYBLOCK
 62
     0
  0
BLOCK
  8
0
  2
A$C6B0F1CD5
 70
     2
 10
0.0
 20
0.0
 30
0.0
  3
A$C6B0F1CD5
  1

  0
ATTDEF
  5
B779
  8
DEFPOINTS
 10
0.0005209962714616
 20
0.000347009907216
 30
0.0
 40
0.001
  1
BATH FAUCET
  3

  2
PRODUCT
 70
     0
1001
ACDBATTR
1070
     0
1070
     1
  0
ATTDEF
  5
B77A
  8
DEFPOINTS
 10
0.0005209962714616
 20
0.0020136765738812
 30
0.0
 40
0.001
  1
SINGULIER
  3

  2
TRADENAME
 70
     0
1001
ACDBATTR
1070
     0
1070
     1
  0
ATTDEF
  5
B77B
  8
DEFPOINTS
 10
0.0005209962714616
 20
0.0036803432405463
 30
0.0
 40
0.001
  1
K-10873W
  3

  2
MODELNUMBER
 70
     0
1001
ACDBATTR
1070
     0
1070
     1
  0
ENDBLK
  5
B77F
  8
0
  0
BLOCK
  8
0
  2
A$C790C4779
 70
     0
 10
0.0
 20
0.0
 30
0.0
  3
A$C790C4779
  1

  0
LINE
  5
135B8
  8
0
 62
     1
 10
0.0000000000000002
 20
-37.3954278042999988
 30
0.0
 11
0.0000000000000021
 21
167.536242088827521
 31
0.0
  0
LINE
  5
135B9
  8
0
 10
-4.232274871249996
 20
-0.0000000000500009
 30
0.0
 11
-1.6732305542500019
 21
0.0000000000500009
 31
0.0
  0
ARC
  5
135BA
  8
0
 10
-1.673230554249227
 20
-0.019685039349227
 30
0.0
 40
0.0196850393992278
 50
359.9999999977458174
 51
90.0000000022289299
  0
LINE
  5
135BB
  8
0
 10
-1.65354551485
 20
-0.0196850393500014
 30
0.0
 11
-1.6535455148548031
 21
-0.1417322834500041
 31
0.0
  0
ARC
  5
135BC
  8
0
 10
-1.8503959085783681
 20
-0.1417322834422592
 30
0.0
 40
0.1968503937235679
 50
308.0000000051189204
 51
359.9999999977458174
  0
ARC
  5
135BD
  8
0
 10
206402.867126322700642
 20
-264186.1327213866170496
 30
0.0
 40
335256.6379051808035001
 50
128.0000000051190909
 51
128.0001315430347972
  0
ARC
  5
135BE
  8
0
 10
-2.3841858483936611
 20
-0.7086672312258245
 30
0.0
 40
0.0787343436991881
 50
269.9974989648274004
 51
308.0001315430346835
  0
LINE
  5
135BF
  8
0
 10
-2.3841892852500002
 20
-0.7874015748500014
 30
0.0
 11
-3.521326940266623
 21
-0.7873519373147886
 31
0.0
  0
ARC
  5
135C0
  8
0
 10
-3.5213234946367509
 20
-0.7084166022533154
 30
0.0
 40
0.0789353351366763
 50
232.1074321309334039
 51
269.9974989648262067
  0
ARC
  5
135C1
  8
0
 10
122.5627830190684051
 20
161.2970992303251876
 30
0.0
 40
205.3665118602133077
 50
231.8926994283673935
 51
232.1074321309334039
  0
ARC
  5
135C2
  8
0
 10
-4.05438302028411
 20
-0.1413806812727074
 30
0.0
 40
0.1975826044299356
 50
180.1019590338792966
 51
231.894492101153304
  0
LINE
  5
135C3
  8
0
 10
-3.4665376408499968
 20
-0.8464569578199387
 30
0.0
 11
-3.4665376408499968
 21
-0.7873543289388536
 31
0.0
  0
LINE
  5
135C4
  8
0
 10
-2.4389785857499979
 20
-0.8464564280499971
 30
0.0
 11
-2.4389785857499979
 21
-0.7873991832258938
 31
0.0
  0
LINE
  5
135C5
  8
0
 10
-4.1763149515081661
 20
-0.2968525105499964
 30
0.0
 11
-1.729202704762441
 21
-0.2968525105499964
 31
0.0
  0
ARC
  5
135C6
  8
0
 10
-4.2322710507446732
 20
-0.0196942628668566
 30
0.0
 40
0.0196942632874289
 50
90.0111148525494258
 51
179.9731663683137128
  0
LINE
  5
135C7
  8
0
 10
-4.2519653118722616
 20
-0.0196850393500014
 30
0.0
 11
-4.2519653118722616
 21
-0.1417322834500041
 31
0.0
  0
LINE
  5
135C8
  8
0
 10
4.2322748712499969
 20
-0.0000000000500009
 30
0.0
 11
1.6732305542500019
 21
0.0000000000500009
 31
0.0
  0
ARC
  5
135C9
  8
0
 10
1.6732305542492281
 20
-0.019685039349227
 30
0.0
 40
0.0196850393992278
 50
89.9999999977710843
 51
180.0000000022540974
  0
LINE
  5
135CA
  8
0
 10
1.65354551485
 20
-0.0196850393500014
 30
0.0
 11
1.6535455148548031
 21
-0.1417322834500041
 31
0.0
  0
ARC
  5
135CB
  8
0
 10
1.8503959085783681
 20
-0.1417322834422592
 30
0.0
 40
0.1968503937235679
 50
180.0000000022540974
 51
231.999999994881108
  0
ARC
  5
135CC
  8
0
 10
-206402.867126322700642
 20
-264186.1327213866170496
 30
0.0
 40
335256.6379051808035001
 50
51.9998684569652525
 51
51.9999999948808806
  0
ARC
  5
135CD
  8
0
 10
2.3841858483936611
 20
-0.7086672312258245
 30
0.0
 40
0.0787343436991881
 50
231.9998684569652028
 51
270.0025010351724859
  0
LINE
  5
135CE
  8
0
 10
2.3841892852500002
 20
-0.7874015748500014
 30
0.0
 11
3.5213269402666239
 21
-0.7873519373147886
 31
0.0
  0
ARC
  5
135CF
  8
0
 10
3.5213234946367522
 20
-0.7084166022533154
 30
0.0
 40
0.0789353351366763
 50
270.0025010351737933
 51
307.8925678690666246
  0
ARC
  5
135D0
  8
0
 10
-122.5627830190684051
 20
161.2970992303251876
 30
0.0
 40
205.3665118602133077
 50
307.8925678690666246
 51
308.1073005716326065
  0
ARC
  5
135D1
  8
0
 10
4.0543830206346447
 20
-0.1413806814436782
 30
0.0
 40
0.1975826040790903
 50
308.1055078494570125
 51
359.8980410155184018
  0
LINE
  5
135D2
  8
0
 10
3.5236243727499978
 20
-0.8464569872500007
 30
0.0
 11
2.3818920892499991
 21
-0.8464563986499982
 31
0.0
  0
LINE
  5
135D3
  8
0
 10
2.3818920892499991
 20
-0.8464563986499982
 30
0.0
 11
2.3228369407499989
 21
-0.9055114862499991
 31
0.0
  0
LINE
  5
135D4
  8
0
 10
2.3228369407499989
 20
-0.9055114862499991
 30
0.0
 11
2.32283669621774
 21
-1.377952431149992
 31
0.0
  0
LINE
  5
135D5
  8
0
 10
2.32283669621774
 20
-1.377952431149992
 30
0.0
 11
2.3818917848499961
 21
-1.4370075797500019
 31
0.0
  0
LINE
  5
135D6
  8
0
 10
2.3818917848499961
 20
-1.4370075797500019
 30
0.0
 11
3.5236240682500002
 21
-1.4370092896499991
 31
0.0
  0
LINE
  5
135D7
  8
0
 10
3.5236240682500002
 20
-1.4370092896499991
 30
0.0
 11
3.5826792168500021
 21
-1.377954201950004
 31
0.0
  0
LINE
  5
135D8
  8
0
 10
3.5826792168500021
 20
-1.377954201950004
 30
0.0
 11
3.582679460450001
 21
-0.905512135849996
 31
0.0
  0
LINE
  5
135D9
  8
0
 10
3.582679460450001
 20
-0.905512135849996
 30
0.0
 11
3.5236243727499978
 21
-0.8464569872500007
 31
0.0
  0
LINE
  5
135DA
  8
0
 10
3.4665376408499982
 20
-0.8464569578199387
 30
0.0
 11
3.4665376408499982
 21
-0.7873543289388536
 31
0.0
  0
LINE
  5
135DB
  8
0
 10
2.4389785857499979
 20
-0.8464564280499971
 30
0.0
 11
2.4389785857499979
 21
-0.7873991832258938
 31
0.0
  0
LINE
  5
135DC
  8
0
 10
4.176314951508167
 20
-0.2968525105499964
 30
0.0
 11
1.729202704762441
 21
-0.2968525105499964
 31
0.0
  0
ARC
  5
135DD
  8
0
 10
4.2322710507446706
 20
-0.0196942628668637
 30
0.0
 40
0.01969426328744
 50
0.0268336317070377
 51
89.9888851474415361
  0
LINE
  5
135DE
  8
0
 10
4.2519653118722616
 20
-0.0196850393500014
 30
0.0
 11
4.2519653118722616
 21
-0.1417322834500041
 31
0.0
  0
LINE
  5
135DF
  8
0
 10
3.5433038938999988
 20
-0.9055123383000065
 30
0.0
 11
3.543303893900001
 21
-1.3779528689999969
 31
0.0
  0
LINE
  5
135E0
  8
0
 10
3.5826792168507078
 20
-1.377952833859438
 30
0.0
 11
3.4378639481999991
 21
-1.3779529631
 31
0.0
  0
ARC
  5
135E1
  8
0
 10
3.248028303433538
 20
-0.9399295068502055
 30
0.0
 40
0.4773909512347318
 50
246.5685011794114985
 51
293.4314988205883878
  0
LINE
  5
135E2
  8
0
 10
3.0581926583999999
 20
-1.3779529631
 30
0.0
 11
2.8473127671000542
 21
-1.3779527748999949
 31
0.0
  0
ARC
  5
135E3
  8
0
 10
2.6574772525882229
 20
-0.9398586328204601
 30
0.0
 40
0.4774560333709902
 50
246.5718688740558946
 51
293.4280970205315953
  0
LINE
  5
135E4
  8
0
 10
2.4676414772999991
 20
-1.3779529631
 30
0.0
 11
2.322837098936501
 21
-1.3779528338691589
 31
0.0
  0
LINE
  5
135E5
  8
0
 10
2.3622015316999998
 20
-1.3779528689999969
 30
0.0
 11
2.3622015316999989
 21
-0.9055123382999994
 31
0.0
  0
LINE
  5
135E6
  8
0
 10
3.582679460449878
 20
-0.9055123734407715
 30
0.0
 11
3.4378639481999991
 21
-0.9055122441999969
 31
0.0
  0
ARC
  5
135E7
  8
0
 10
3.248028303433538
 20
-1.343535700449791
 30
0.0
 40
0.4773909512347318
 50
66.5685011794114843
 51
113.4314988205885015
  0
LINE
  5
135E8
  8
0
 10
3.0581926583999999
 20
-0.9055122441999969
 30
0.0
 11
2.8473127671000542
 21
-0.9055124324000018
 31
0.0
  0
ARC
  5
135E9
  8
0
 10
2.6574772525882229
 20
-1.3436065744795369
 30
0.0
 40
0.4774560333709902
 50
66.5719029794683621
 51
113.4281311259440059
  0
LINE
  5
135EA
  8
0
 10
2.4676414772999991
 20
-0.9055122441999969
 30
0.0
 11
2.3228369407495402
 21
-0.9055123734309802
 31
0.0
  0
LINE
  5
135EB
  8
0
 10
3.4378639481999982
 20
-0.9055122441999969
 30
0.0
 11
3.4378639481999982
 21
-1.3779529631
 31
0.0
  0
LINE
  5
135EC
  8
0
 10
3.0581926583999999
 20
-0.9055122442336838
 30
0.0
 11
3.058192658399999
 21
-1.377952963066313
 31
0.0
  0
LINE
  5
135ED
  8
0
 10
2.8473127671
 20
-0.9055124324000018
 30
0.0
 11
2.8473127671
 21
-1.3779527748999949
 31
0.0
  0
LINE
  5
135EE
  8
0
 10
2.4676414772999991
 20
-0.9055122441999969
 30
0.0
 11
2.4676414772999999
 21
-1.3779529631
 31
0.0
  0
LINE
  5
135EF
  8
0
 10
-3.6169677232999988
 20
-1.523622219399996
 30
0.0
 11
3.6169677232999988
 21
-1.523622219399996
 31
0.0
  0
LINE
  5
135F0
  8
0
 10
-3.6169677232999988
 20
-1.523622219399996
 30
0.0
 11
-3.6169655664706148
 21
-1.79921328830644
 31
0.0
  0
LINE
  5
135F1
  8
0
 10
3.6169677233000002
 20
-1.523622219399996
 30
0.0
 11
3.6169655664706148
 21
-1.79921328830644
 31
0.0
  0
ARC
  5
135F2
  8
0
 10
2.6574690738000011
 20
-1.7992057790999989
 30
0.0
 40
0.9594964926999981
 50
270.0002677998999729
 51
359.9995515920693947
  0
LINE
  5
135F3
  8
0
 10
2.6574735584770042
 20
-2.7587022717895162
 30
0.0
 11
2.2392906997799491
 21
-2.7587042263720098
 31
0.0
  0
ARC
  5
135F4
  8
0
 10
1.907109920768588
 20
-4.075208196272551
 30
0.0
 40
1.3083373122455031
 50
92.8163441161551788
 51
111.9714302184384991
  0
ARC
  5
135F5
  8
0
 10
1.6844007503543561
 20
-3.5169014528423679
 30
0.0
 40
0.7072586572166115
 50
112.1620754251559049
 51
163.3646549416143046
  0
ARC
  5
135F6
  8
0
 10
2.7186311955143219
 20
-3.8197152938323948
 30
0.0
 40
1.784901853957199
 50
163.5553001483318099
 51
178.3862015974247868
  0
ARC
  5
135F7
  8
0
 10
17.0322942082439717
 20
-4.2229819411431349
 30
0.0
 40
16.1042444656422106
 50
178.3862015974247868
 51
179.0624040412432976
  0
LINE
  5
135F8
  8
0
 10
0.9302059317510785
 20
-3.9594616474315032
 30
0.0
 11
0.9302059317510789
 21
-6.2430797267999969
 31
0.0
  0
ARC
  5
135F9
  8
0
 10
-11.7908390203851798
 20
-5.718937694217189
 30
0.0
 40
12.7318384196702503
 50
355.5078398175591019
 51
357.6405908905456954
  0
ARC
  5
135FA
  8
0
 10
0.2226689771053312
 20
-6.6400791684104936
 30
0.0
 40
0.6834632913349376
 50
333.5756682723919084
 51
353.6113554237957146
  0
ARC
  5
135FB
  8
0
 10
-0.000004227200002
 20
-6.543456277899991
 30
0.0
 40
0.9259561775000049
 50
270.0002615682309965
 51
334.3531834573997799
  0
ARC
  5
135FC
  8
0
 10
-0.0039294877421534
 20
-2.5412034252165361
 30
0.0
 40
0.8186418030565732
 50
2.3872099443528429
 51
89.7249787062001758
  0
ARC
  5
135FD
  8
0
 10
-1.2042913979932119
 20
-4.5679724788304936
 30
0.0
 40
2.0296260080375919
 50
339.3436971396209856
 51
353.942414238114111
  0
ARC
  5
135FE
  8
0
 10
0.004017697323935
 20
-4.9538129150649262
 30
0.0
 40
0.7656678747152985
 50
269.6993498564817742
 51
334.446170457167284
  0
ARC
  5
135FF
  8
0
 10
2.1686245118476162
 20
-7.9508769724150801
 30
0.0
 40
5.192656081247792
 50
89.2201525049801347
 51
93.5971406112717261
  0
LINE
  5
13600
  8
0
 10
10.3808581070999999
 20
0.0000014401000001
 30
0.0
 11
12.3030732488000005
 21
0.0000014401000001
 31
0.0
  0
LINE
  5
13601
  8
0
 10
12.3030732488000005
 20
0.0000014401000001
 30
0.0
 11
12.29657102
 21
-1.033483819499998
 31
0.0
  0
ARC
  5
13602
  8
0
 10
8.1992593507892622
 20
-1.007705359971282
 30
0.0
 40
4.0973927616993393
 50
345.2166835011761918
 51
359.6395252388066979
  0
ARC
  5
13603
  8
0
 10
7.665804588572442
 20
-0.8630059943421527
 30
0.0
 40
4.6501126065208096
 50
341.9974842144903278
 51
345.1699741906389818
  0
ARC
  5
13604
  8
0
 10
12.0028788648755391
 20
-2.2764817731436571
 30
0.0
 40
0.0886059968295827
 50
318.0992830752639975
 51
344.4977818221523762
  0
ARC
  5
13605
  8
0
 10
12.0222500335543199
 20
-2.2924277543286129
 30
0.0
 40
0.0635475594357337
 50
280.4396121136027205
 51
317.1360971380005935
  0
LINE
  5
13606
  8
0
 10
12.0337647944999997
 20
-2.3549233748999958
 30
0.0
 11
11.9798079277565606
 21
-2.3627665272333331
 31
0.0
  0
ARC
  5
13607
  8
0
 10
11.9770126687480296
 20
-2.3433200881157599
 30
0.0
 40
0.0196466119684799
 50
190.154941106188403
 51
277.939795250628606
  0
LINE
  5
13608
  8
0
 10
11.95767382945
 20
-2.3467839957999952
 30
0.0
 11
11.9571443876300005
 21
-2.308943896012607
 31
0.0
  0
LINE
  5
13609
  8
0
 10
10.7521216164000002
 20
-1.210324162899993
 30
0.0
 11
11.9318097393000002
 21
-1.210324196599998
 31
0.0
  0
ARC
  5
1360A
  8
0
 10
11.9318097387331292
 20
-1.230167867049893
 30
0.0
 40
0.0198436704498946
 50
359.8147381281693242
 51
89.9999983632289542
  0
LINE
  5
1360B
  8
0
 10
11.9516533054496605
 20
-1.2302320300503231
 30
0.0
 11
11.9566201102960505
 21
-2.208815112944535
 31
0.0
  0
ARC
  5
1360C
  8
0
 10
11.8551802160073105
 20
-2.2804312542049838
 30
0.0
 40
0.1058756961608776
 50
344.3772049374097719
 51
2.5461677608355711
  0
ARC
  5
1360D
  8
0
 10
10.6067466818612992
 20
-2.3297893135268088
 30
0.0
 40
1.3552833762090479
 50
2.2861042438788921
 51
5.1211050264768181
  0
LINE
  5
1360E
  8
0
 10
11.9443278825999997
 20
-1.214818001299995
 30
0.0
 11
11.9443278825999997
 21
-2.0771530284999988
 31
0.0
  0
ARC
  5
1360F
  8
0
 10
7.7738742757910222
 20
-2.5360116965846942
 30
0.0
 40
4.1956208794196908
 50
4.4909549061469374
 51
6.2787749749526132
  0
ARC
  5
13610
  8
0
 10
8.9328028997891487
 20
-2.4084993214452619
 30
0.0
 40
3.0296985143644992
 50
6.2787749749526123
 51
11.4328692858054399
  0
ARC
  5
13611
  8
0
 10
6.2269925402716213
 20
-2.9813099462674368
 30
0.0
 40
5.7954158466209558
 50
11.6810173414004108
 51
12.6660501549976203
  0
ARC
  5
13612
  8
0
 10
11.3410135079070997
 20
-1.8142682605241871
 30
0.0
 40
0.5503239048216554
 50
10.86426564846942
 51
89.8999399818415554
  0
ARC
  5
13613
  8
0
 10
11.9403624301628604
 20
-1.271832645922472
 30
0.0
 40
0.011990444703853
 50
16.7031499675962891
 51
70.6476770153719542
  0
ARC
  5
13614
  8
0
 10
11.9403908746999896
 20
-1.8779516345999949
 30
0.0
 40
0.011811023600004
 50
289.5118474172356855
 51
0.0
  0
LINE
  5
13615
  8
0
 10
11.9522018983000002
 20
-1.8779516345999949
 30
0.0
 11
11.9528880707079601
 21
-1.4735112468700251
 31
0.0
  0
ARC
  5
13616
  8
0
 10
11.8716683941174104
 20
-2.2845554211270871
 30
0.0
 40
0.0888872497842505
 50
331.9619538346584022
 51
344.0752043370417255
  0
ARC
  5
13617
  8
0
 10
13.6448174646469802
 20
-2.6082002513809708
 30
0.0
 40
1.7179739166623069
 50
170.5569657723497983
 51
176.416341704627996
  0
ARC
  5
13618
  8
0
 10
40.6176326128047194
 20
-4.5165655329799712
 30
0.0
 40
28.7581617563696206
 50
175.9806653773430867
 51
177.8243949032508056
  0
ARC
  5
13619
  8
0
 10
11.3109454596221699
 20
-3.9843821651330771
 30
0.0
 40
2.3739108471967758
 50
270.7487131088689125
 51
304.0721119084967086
  0
ARC
  5
1361A
  8
0
 10
11.9392484018913105
 20
-4.9930688185020671
 30
0.0
 40
1.1872246568299929
 50
306.2278427815676878
 51
341.1817607006785806
  0
ARC
  5
1361B
  8
0
 10
12.2872573453760499
 20
-5.1116643625316414
 30
0.0
 40
0.8195629538895935
 50
341.1817607006785806
 51
357.4079159961017922
  0
ARC
  5
1361C
  8
0
 10
11.8011570714692908
 20
-5.0896579760327496
 30
0.0
 40
1.3061611015833281
 50
357.4079159961017922
 51
1.859337335707236
  0
LINE
  5
1361D
  8
0
 10
13.1066304719000009
 20
-5.0472784519999934
 30
0.0
 11
13.0868023329999996
 21
-4.6459973220999942
 31
0.0
  0
ARC
  5
1361E
  8
0
 10
12.1079914253851406
 20
-4.7028268321022209
 30
0.0
 40
0.9804592730312299
 50
3.322847899046351
 51
30.3415943727762816
  0
ARC
  5
1361F
  8
0
 10
11.7444886779769906
 20
-4.9405605757694451
 30
0.0
 40
1.4144290415860841
 50
31.2144213116060705
 51
59.0490585062247391
  0
ARC
  5
13620
  8
0
 10
10.8464265443629309
 20
-6.5341546809798103
 30
0.0
 40
3.2433612945695489
 50
59.9218854450547767
 51
66.9248125443956212
  0
ARC
  5
13621
  8
0
 10
12.6684623023076401
 20
-2.2204077592796159
 30
0.0
 40
1.4394475239673199
 50
236.7965187613311002
 51
247.5006852366697103
  0
ARC
  5
13622
  8
0
 10
12.0955923033801795
 20
-3.08839684311718
 30
0.0
 40
0.3994826227261367
 50
222.6214766235947025
 51
237.3723914536045925
  0
ARC
  5
13623
  8
0
 10
11.8438483531682408
 20
-3.3152100033849901
 30
0.0
 40
0.0609266116601539
 50
200.1534310629050992
 51
225.9817505718258133
  0
ARC
  5
13624
  8
0
 10
11.9762488603168809
 20
-3.3085488660547631
 30
0.0
 40
0.1916027213839594
 50
177.8119439527129089
 51
188.2980249856892101
  0
LINE
  5
13625
  8
0
 10
11.7847858370215999
 20
-3.3012335704231068
 30
0.0
 11
11.8417615188000003
 21
-1.918661399399987
 31
0.0
  0
ARC
  5
13626
  8
0
 10
12.9657332026160592
 20
-1.9649801770574551
 30
0.0
 40
1.124925675404381
 50
165.616448583165095
 51
177.6401810463889888
  0
ARC
  5
13627
  8
0
 10
11.3471134242308
 20
-3.5432079149980491
 30
0.0
 40
2.3829989295199301
 50
269.8762315409881012
 51
287.8607440399625261
  0
ARC
  5
13628
  8
0
 10
11.51442690145727
 20
-4.062436459526416
 30
0.0
 40
1.837478919699338
 50
287.8607440399622988
 51
310.9111810268066733
  0
ARC
  5
13629
  8
0
 10
11.9834054086248099
 20
-4.6036266166918827
 30
0.0
 40
1.1213590788920349
 50
310.9111810268066733
 51
334.6055649638310001
  0
ARC
  5
1362A
  8
0
 10
12.1240198547220093
 20
-4.6703785286917103
 30
0.0
 40
0.9657048460332601
 50
334.6055649638310001
 51
351.8644030939661889
  0
ARC
  5
1362B
  8
0
 10
12.2224814324441091
 20
-4.6844541034681866
 30
0.0
 40
0.866242269690127
 50
351.8644030939661889
 51
359.9718430927334225
  0
LINE
  5
1362C
  8
0
 10
10.3808581069999999
 20
0.0000014401000001
 30
0.0
 11
10.3873603358000004
 21
-1.033483819499998
 31
0.0
  0
ARC
  5
1362D
  8
0
 10
14.48467200501074
 20
-1.007705359971282
 30
0.0
 40
4.0973927616993393
 50
180.3604747611933021
 51
194.7833164988236945
  0
ARC
  5
1362E
  8
0
 10
15.0181267672275602
 20
-0.8630059943421527
 30
0.0
 40
4.6501126065208096
 50
194.8300258093609898
 51
198.0025157855097007
  0
ARC
  5
1362F
  8
0
 10
10.6810524909244595
 20
-2.2764817731436571
 30
0.0
 40
0.0886059968295827
 50
195.5022181778475101
 51
221.9007169247360025
  0
ARC
  5
13630
  8
0
 10
10.6616813222456894
 20
-2.2924277543286129
 30
0.0
 40
0.0635475594357337
 50
222.8639028619994065
 51
259.5603878863972227
  0
LINE
  5
13631
  8
0
 10
10.6501665613000007
 20
-2.3549233748999958
 30
0.0
 11
10.7041234280434399
 21
-2.3627665272333331
 31
0.0
  0
ARC
  5
13632
  8
0
 10
10.7069186870519708
 20
-2.3433200881157599
 30
0.0
 40
0.0196466119684799
 50
262.0602047493715077
 51
349.845058893811597
  0
LINE
  5
13633
  8
0
 10
10.7262575263500004
 20
-2.3467839957999952
 30
0.0
 11
10.7267869681699999
 21
-2.308943896012607
 31
0.0
  0
ARC
  5
13634
  8
0
 10
10.7521216170668694
 20
-1.230167867049893
 30
0.0
 40
0.0198436704498946
 50
90.0000016367710316
 51
180.1852618718305905
  0
LINE
  5
13635
  8
0
 10
10.7322780503503399
 20
-1.2302320300503231
 30
0.0
 11
10.7273112455039605
 21
-2.208815112944535
 31
0.0
  0
ARC
  5
13636
  8
0
 10
10.8287511397926899
 20
-2.2804312542049838
 30
0.0
 40
0.1058756961608776
 50
177.4538322391643987
 51
195.6227950625901997
  0
ARC
  5
13637
  8
0
 10
12.0771846739387101
 20
-2.3297893135268088
 30
0.0
 40
1.3552833762090479
 50
174.8788949735231881
 51
177.7138957561211043
  0
LINE
  5
13638
  8
0
 10
10.7396034732000007
 20
-1.214818001299995
 30
0.0
 11
10.7396034732000007
 21
-2.0771530284999988
 31
0.0
  0
ARC
  5
13639
  8
0
 10
14.9100570800089791
 20
-2.5360116965846942
 30
0.0
 40
4.1956208794196908
 50
173.7212250250474028
 51
175.5090450938533877
  0
ARC
  5
1363A
  8
0
 10
13.75112845601085
 20
-2.4084993214452619
 30
0.0
 40
3.0296985143644992
 50
168.5671307141944908
 51
173.7212250250474028
  0
ARC
  5
1363B
  8
0
 10
16.4569388155283782
 20
-2.9813099462674368
 30
0.0
 40
5.7954158466209558
 50
167.3339498450023086
 51
168.3189826585995093
  0
ARC
  5
1363C
  8
0
 10
11.3429178478929007
 20
-1.8142682605241871
 30
0.0
 40
0.5503239048216554
 50
90.1000600181584446
 51
169.1357343515306013
  0
ARC
  5
1363D
  8
0
 10
10.7435689256371294
 20
-1.271832645922472
 30
0.0
 40
0.011990444703853
 50
109.3523229846280032
 51
163.2968500324037109
  0
ARC
  5
1363E
  8
0
 10
10.7435404811000108
 20
-1.8779516345999949
 30
0.0
 40
0.011811023600004
 50
180.0
 51
250.4881525827642861
  0
LINE
  5
1363F
  8
0
 10
10.7317294575000002
 20
-1.8779516345999949
 30
0.0
 11
10.7310432850920296
 21
-1.4735112468700251
 31
0.0
  0
ARC
  5
13640
  8
0
 10
10.81226296168259
 20
-2.2845554211270871
 30
0.0
 40
0.0888872497842505
 50
195.9247956629581893
 51
208.0380461653415125
  0
ARC
  5
13641
  8
0
 10
9.0391138911530184
 20
-2.6082002513809708
 30
0.0
 40
1.7179739166623069
 50
3.583658295372016
 51
9.4430342276501467
  0
ARC
  5
13642
  8
0
 10
-17.9337012570047207
 20
-4.5165655329799712
 30
0.0
 40
28.7581617563696206
 50
2.1756050967491292
 51
4.0193346226568458
  0
ARC
  5
13643
  8
0
 10
11.4255435852618508
 20
-3.8167771224841109
 30
0.0
 40
2.5426871789811072
 50
237.0628215887417127
 51
268.1163533938930073
  0
ARC
  5
13644
  8
0
 10
10.7446829539086792
 20
-4.9930688185020671
 30
0.0
 40
1.1872246568299929
 50
198.8182392993213909
 51
233.7721572184323975
  0
ARC
  5
13645
  8
0
 10
10.3966740104239399
 20
-5.1116643625316414
 30
0.0
 40
0.8195629538895935
 50
182.5920840038982078
 51
198.8182392993213909
  0
ARC
  5
13646
  8
0
 10
10.8827742843307096
 20
-5.0896579760327496
 30
0.0
 40
1.3061611015833281
 50
178.1406626642927051
 51
182.5920840038982078
  0
LINE
  5
13647
  8
0
 10
9.5773008839000013
 20
-5.0472784519999934
 30
0.0
 11
9.5971290228000043
 21
-4.6459973220999942
 31
0.0
  0
ARC
  5
13648
  8
0
 10
10.5759399304148705
 20
-4.7028268321022209
 30
0.0
 40
0.9804592730312299
 50
149.6584056272236865
 51
176.6771521009536059
  0
ARC
  5
13649
  8
0
 10
10.9394426778230098
 20
-4.9405605757694451
 30
0.0
 40
1.4144290415860841
 50
120.9509414937752041
 51
148.7855786883939118
  0
ARC
  5
1364A
  8
0
 10
11.8375048114370696
 20
-6.5341546809798103
 30
0.0
 40
3.2433612945695489
 50
113.075187455604393
 51
120.0781145549451026
  0
ARC
  5
1364B
  8
0
 10
10.0154690534923603
 20
-2.2204077592796159
 30
0.0
 40
1.4394475239673199
 50
292.4993147633302897
 51
303.2034812386688145
  0
ARC
  5
1364C
  8
0
 10
10.5883390524198209
 20
-3.08839684311718
 30
0.0
 40
0.3994826227261367
 50
302.6276085463953223
 51
317.378523376405326
  0
ARC
  5
1364D
  8
0
 10
10.8400830026317703
 20
-3.3152100033849901
 30
0.0
 40
0.0609266116601539
 50
314.0182494281742152
 51
339.8465689370949008
  0
ARC
  5
1364E
  8
0
 10
10.7076824954831196
 20
-3.3085488660547631
 30
0.0
 40
0.1916027213839594
 50
351.7019750143107899
 51
2.1880560472870609
  0
LINE
  5
1364F
  8
0
 10
10.8991455187783899
 20
-3.3012335704231068
 30
0.0
 11
10.8421698370000001
 21
-1.918661399399987
 31
0.0
  0
ARC
  5
13650
  8
0
 10
9.7181981531839376
 20
-1.9649801770574551
 30
0.0
 40
1.124925675404381
 50
2.3598189536110099
 51
14.3835514168352994
  0
ARC
  5
13651
  8
0
 10
11.3368179315692004
 20
-3.5432079149980491
 30
0.0
 40
2.3829989295199301
 50
252.1392559600373886
 51
270.1237684590118988
  0
ARC
  5
13652
  8
0
 10
11.1695044543427304
 20
-4.062436459526416
 30
0.0
 40
1.837478919699338
 50
229.088818973193213
 51
252.1392559600375876
  0
ARC
  5
13653
  8
0
 10
10.7005259471751906
 20
-4.6036266166918827
 30
0.0
 40
1.1213590788920349
 50
205.3944350361689999
 51
229.088818973193213
  0
ARC
  5
13654
  8
0
 10
10.559911501078
 20
-4.6703785286917103
 30
0.0
 40
0.9657048460332601
 50
188.1355969060338111
 51
205.3944350361689999
  0
ARC
  5
13655
  8
0
 10
10.4614499233558895
 20
-4.6844541034681866
 30
0.0
 40
0.866242269690127
 50
180.0281569072666059
 51
188.1355969060338111
  0
LINE
  5
13656
  8
0
 10
10.4604561302098205
 20
-1.7786230187561849
 30
0.0
 11
0.9302059317510789
 21
-4.5311086975323072
 31
0.0
  0
LINE
  5
13657
  8
0
 10
0.9302059317510792
 20
-5.1048187572632591
 30
0.0
 11
10.5999036389994501
 21
-2.312061071976216
 31
0.0
  0
LINE
  5
13658
  8
0
 10
11.2336978269000003
 20
-0.1102346034999968
 30
0.0
 11
11.4502333625000006
 21
-0.1102346034999968
 31
0.0
  0
ARC
  5
13659
  8
0
 10
11.4502333625000006
 20
-0.1200771551352986
 30
0.0
 40
0.0098425516353018
 50
0.0048522026362922
 51
90.0000000000394493
  0
LINE
  5
1365A
  8
0
 10
11.4600759141000008
 20
-0.1200763215999956
 30
0.0
 11
11.4600909177550001
 21
-0.2972424812523968
 31
0.0
  0
ARC
  5
1365B
  8
0
 10
11.4502492180850197
 20
-0.2972433147155584
 30
0.0
 40
0.0098416997052721
 50
269.9078786402786818
 51
0.0048522026338495
  0
LINE
  5
1365C
  8
0
 10
11.4502333943999997
 20
-0.3070850016999955
 30
0.0
 11
11.2336979033999995
 21
-0.3070850016000008
 31
0.0
  0
ARC
  5
1365D
  8
0
 10
11.23369796110393
 20
-0.2972424820962374
 30
0.0
 40
0.0098425195039326
 50
179.9999994397452099
 51
269.999664090888075
  0
LINE
  5
1365E
  8
0
 10
11.2238554415999996
 20
-0.2972424819999944
 30
0.0
 11
11.2238554433323703
 21
-0.1200771232158502
 31
0.0
  0
ARC
  5
1365F
  8
0
 10
11.2336979631454099
 20
-0.1200771233120932
 30
0.0
 40
0.0098425198130396
 50
90.0007931187747943
 51
179.9999994397468015
  0
LINE
  5
13660
  8
0
 10
11.2435404810000001
 20
-0.285157346899993
 30
0.0
 11
11.4403908747000003
 21
-0.285157346899993
 31
0.0
  0
LINE
  5
13661
  8
0
 10
11.4403908747000003
 20
-0.285157346899993
 30
0.0
 11
11.4403908747000003
 21
-0.1259827065999985
 31
0.0
  0
LINE
  5
13662
  8
0
 10
11.4403908747000003
 20
-0.1259827065999985
 30
0.0
 11
11.2435404810000001
 21
-0.1259827065999985
 31
0.0
  0
LINE
  5
13663
  8
0
 10
11.2435404810000001
 20
-0.1259827065999985
 30
0.0
 11
11.2435404810000001
 21
-0.285157346899993
 31
0.0
  0
LINE
  5
13664
  8
0
 10
11.2435404810000001
 20
-0.1329247435999932
 30
0.0
 11
11.4403908747000003
 21
-0.1329247435999932
 31
0.0
  0
LINE
  5
13665
  8
0
 10
11.4403908747000003
 20
-0.1758951483000004
 30
0.0
 11
11.2435404810000001
 21
-0.1758951483000004
 31
0.0
  0
LINE
  5
13666
  8
0
 62
     1
 10
2.9527527127499957
 20
0.0
 30
0.0
 11
3481.6490867050115412
 21
0.0
 31
0.0
  0
LINE
  5
13667
  8
0
 10
-3.3740125552999989
 20
-1.437007873999995
 30
0.0
 11
-3.3740125552999989
 21
-1.5236220473000011
 31
0.0
  0
LINE
  5
13668
  8
0
 10
-2.5314928702999988
 20
-1.523622219399996
 30
0.0
 11
-2.5314928702999988
 21
-1.4370080725999941
 31
0.0
  0
LINE
  5
13669
  8
0
 10
2.5315011772
 20
-1.5236210477475041
 30
0.0
 11
2.5315013069151591
 21
-1.4370078038106859
 31
0.0
  0
LINE
  5
1366A
  8
0
 10
3.3740208622000001
 20
-1.5236209259999991
 30
0.0
 11
3.3740208622000001
 21
-1.437009065598772
 31
0.0
  0
ARC
  5
1366B
  8
0
 10
2.271510834839332
 20
-1.5234519131982931
 30
0.0
 40
0.0207238646051601
 50
359.5319609112299872
 51
56.0224196324593322
  0
ARC
  5
1366C
  8
0
 10
2.2754550412557482
 20
-1.5175994482230091
 30
0.0
 40
0.0136663784704072
 50
56.0224196324582806
 51
91.2475798736429198
  0
LINE
  5
1366D
  8
0
 10
2.2751574879000001
 20
-1.503936309399996
 30
0.0
 11
-2.2752329068285522
 21
-1.5039382334107709
 31
0.0
  0
ARC
  5
1366E
  8
0
 10
-2.2740689617853578
 20
-1.521347485033139
 30
0.0
 40
0.0174094494500777
 50
89.727221817396412
 51
153.1828808872606089
  0
ARC
  5
1366F
  8
0
 10
-2.270154145968919
 20
-1.5238287508724959
 30
0.0
 40
0.022027201329863
 50
152.016809705136609
 51
179.4627927975514012
  0
LINE
  5
13670
  8
0
 10
-1.7716502950999991
 20
-1.503936318799993
 30
0.0
 11
-1.7716502967500001
 21
-1.4842512795
 31
0.0
  0
LINE
  5
13671
  8
0
 10
-1.7716502967500001
 20
-1.4842512795
 30
0.0
 11
-1.5354298242999991
 21
-1.484251260299998
 31
0.0
  0
LINE
  5
13672
  8
0
 10
-1.5354298242999991
 20
-1.484251260299998
 30
0.0
 11
-1.5354298226999989
 21
-1.5039362989999949
 31
0.0
  0
LINE
  5
13673
  8
0
 10
-2.3818893597500002
 20
-0.8464569872500007
 30
0.0
 11
-3.5236216432499989
 21
-0.8464563986499982
 31
0.0
  0
LINE
  5
13674
  8
0
 10
-3.5236216432499989
 20
-0.8464563986499982
 30
0.0
 11
-3.5826767917499991
 21
-0.9055114862499991
 31
0.0
  0
LINE
  5
13675
  8
0
 10
-3.5826767917499991
 20
-0.9055114862499991
 30
0.0
 11
-3.5826770362822589
 21
-1.377952431149992
 31
0.0
  0
LINE
  5
13676
  8
0
 10
-3.5826770362822589
 20
-1.377952431149992
 30
0.0
 11
-3.5236219476500028
 21
-1.4370075797500019
 31
0.0
  0
LINE
  5
13677
  8
0
 10
-3.5236219476500028
 20
-1.4370075797500019
 30
0.0
 11
-2.3818896642499992
 21
-1.4370092896499991
 31
0.0
  0
LINE
  5
13678
  8
0
 10
-2.3818896642499992
 20
-1.4370092896499991
 30
0.0
 11
-2.3228345156499959
 21
-1.377954201950004
 31
0.0
  0
LINE
  5
13679
  8
0
 10
-2.3228345156499959
 20
-1.377954201950004
 30
0.0
 11
-2.322834272049997
 21
-0.905512135849996
 31
0.0
  0
LINE
  5
1367A
  8
0
 10
-2.322834272049997
 20
-0.905512135849996
 30
0.0
 11
-2.3818893597500002
 21
-0.8464569872500007
 31
0.0
  0
LINE
  5
1367B
  8
0
 10
-2.3622098386000001
 20
-0.9055123383000065
 30
0.0
 11
-2.3622098385999979
 21
-1.3779528689999969
 31
0.0
  0
LINE
  5
1367C
  8
0
 10
-2.3228345156492902
 20
-1.377952833859438
 30
0.0
 11
-2.4676497842999989
 21
-1.3779529631
 31
0.0
  0
ARC
  5
1367D
  8
0
 10
-2.65748542906646
 20
-0.9399295068502055
 30
0.0
 40
0.4773909512347318
 50
246.5685011794114985
 51
293.4314988205883878
  0
LINE
  5
1367E
  8
0
 10
-2.847321074099999
 20
-1.3779529631
 30
0.0
 11
-3.0582009653999451
 21
-1.3779527748999949
 31
0.0
  0
ARC
  5
1367F
  8
0
 10
-3.248036479911776
 20
-0.9398586328204601
 30
0.0
 40
0.4774560333709902
 50
246.5718688740558946
 51
293.4280970205315953
  0
LINE
  5
13680
  8
0
 10
-3.4378722551999989
 20
-1.3779529631
 30
0.0
 11
-3.582676633563497
 21
-1.3779528338691589
 31
0.0
  0
LINE
  5
13681
  8
0
 10
-3.5433122007999991
 20
-1.3779528689999969
 30
0.0
 11
-3.5433122007999991
 21
-0.9055123382999994
 31
0.0
  0
LINE
  5
13682
  8
0
 10
-2.3228342720501201
 20
-0.9055123734407715
 30
0.0
 11
-2.4676497842999989
 21
-0.9055122441999969
 31
0.0
  0
ARC
  5
13683
  8
0
 10
-2.65748542906646
 20
-1.343535700449791
 30
0.0
 40
0.4773909512347318
 50
66.5685011794115127
 51
113.4314988205885015
  0
LINE
  5
13684
  8
0
 10
-2.847321074099999
 20
-0.9055122441999969
 30
0.0
 11
-3.0582009653999451
 21
-0.9055124324000018
 31
0.0
  0
ARC
  5
13685
  8
0
 10
-3.248036479911776
 20
-1.3436065744795369
 30
0.0
 40
0.4774560333709902
 50
66.5719029794683905
 51
113.4281311259440059
  0
LINE
  5
13686
  8
0
 10
-3.4378722551999989
 20
-0.9055122441999969
 30
0.0
 11
-3.5826767917504578
 21
-0.9055123734309802
 31
0.0
  0
LINE
  5
13687
  8
0
 10
-2.4676497842999998
 20
-0.9055122441999969
 30
0.0
 11
-2.4676497842999998
 21
-1.3779529631
 31
0.0
  0
LINE
  5
13688
  8
0
 10
-2.847321074099999
 20
-0.9055122442336838
 30
0.0
 11
-2.847321074099999
 21
-1.377952963066313
 31
0.0
  0
LINE
  5
13689
  8
0
 10
-3.058200965399998
 20
-0.9055124324000018
 30
0.0
 11
-3.0582009653999989
 21
-1.3779527748999949
 31
0.0
  0
LINE
  5
1368A
  8
0
 10
-3.4378722551999989
 20
-0.9055122441999969
 30
0.0
 11
-3.4378722551999981
 21
-1.3779529631
 31
0.0
  0
LINE
  5
1368B
  8
0
 10
0.8140018595208253
 20
-2.5071048493476691
 30
0.0
 11
0.8140018595208253
 21
-4.7821547824318884
 31
0.0
  0
ARC
  5
1368C
  8
0
 10
-2.6574690738000011
 20
-1.7992057790999989
 30
0.0
 40
0.9594964926999981
 50
180.0004484079302074
 51
269.9997322001000271
  0
LINE
  5
1368D
  8
0
 10
-2.6574735584770042
 20
-2.7587022717895162
 30
0.0
 11
-2.2392906997799491
 21
-2.7587042263720098
 31
0.0
  0
ARC
  5
1368E
  8
0
 10
-1.907109920768588
 20
-4.075208196272551
 30
0.0
 40
1.3083373122455031
 50
68.0285697815615009
 51
87.1836558838448354
  0
ARC
  5
1368F
  8
0
 10
-1.6844007503543561
 20
-3.5169014528423679
 30
0.0
 40
0.7072586572166115
 50
16.635345058385699
 51
67.8379245748440667
  0
ARC
  5
13690
  8
0
 10
-2.718631195514321
 20
-3.8197152938323948
 30
0.0
 40
1.784901853957199
 50
1.6137984025751699
 51
16.4446998516682008
  0
ARC
  5
13691
  8
0
 10
-17.0322942082439717
 20
-4.2229819411431349
 30
0.0
 40
16.1042444656422106
 50
0.9375959587566665
 51
1.6137984025751699
  0
LINE
  5
13692
  8
0
 10
-0.930205931751078
 20
-3.9594616474315032
 30
0.0
 11
-0.9302059317510785
 21
-6.2430797267999969
 31
0.0
  0
ARC
  5
13693
  8
0
 10
11.7908390203851798
 20
-5.718937694217189
 30
0.0
 40
12.7318384196702503
 50
182.3594091094543046
 51
184.4921601824408981
  0
ARC
  5
13694
  8
0
 10
-0.2226689771053307
 20
-6.6400791684104936
 30
0.0
 40
0.6834632913349376
 50
186.3886445762043138
 51
206.4243317276082053
  0
ARC
  5
13695
  8
0
 10
0.0000042272000025
 20
-6.543456277899991
 30
0.0
 40
0.9259561775000049
 50
205.6468165426001065
 51
269.9997384317690035
  0
ARC
  5
13696
  8
0
 10
0.000001751300015
 20
-2.531514959500007
 30
0.0
 40
0.8089439065000162
 50
90.0001240408620333
 51
178.2708212361322921
  0
ARC
  5
13697
  8
0
 10
0.9295205756342417
 20
-4.6520449919252647
 30
0.0
 40
1.742957414251957
 50
184.2810471217289034
 51
201.2565944974953993
  0
ARC
  5
13698
  8
0
 10
-0.0040176973239345
 20
-4.9538129150649262
 30
0.0
 40
0.7656678747152985
 50
205.5538295428326876
 51
270.3006501435182258
  0
ARC
  5
13699
  8
0
 10
-2.1686245118476162
 20
-7.9508769724150801
 30
0.0
 40
5.192656081247792
 50
86.4028593887282739
 51
90.7798474950198369
  0
LINE
  5
1369A
  8
0
 10
-0.8085737803517024
 20
-2.5071048493476691
 30
0.0
 11
-0.8085737803517024
 21
-4.7821547824318884
 31
0.0
  0
ENDBLK
  5
1369E
  8
0
  0
ENDSEC
  0
SECTION
  2
ENTITIES
  0
ATTDEF
  5
1D3AD
  8
DEFPOINTS
 10
3479.7462835720489238
 20
159.8402957705058043
 30
0.0
 40
0.001
  1
K-98220T-E2
  3

  2
MODELNUMBER
 70
     0
1001
ACDBATTR
1070
     0
1070
     1
  0
ATTDEF
  5
1D3AE
  8
DEFPOINTS
 10
3479.7462835720489238
 20
159.8386291038391107
 30
0.0
 40
0.001
  1
CITRUS
  3

  2
TRADENAME
 70
     0
1001
ACDBATTR
1070
     0
1070
     1
  0
ATTDEF
  5
1D3AF
  8
DEFPOINTS
 10
3479.7462835720489238
 20
159.8369624371725024
 30
0.0
 40
0.001
  1
HANDSHOWER
  3

  2
PRODUCT
 70
     0
1001
ACDBATTR
1070
     0
1070
     1
  0
LINE
  5
1D8C7
  8
0
 10
3475.2177909545112016
 20
167.1474780878438935
 30
0.0
 11
3475.6309141912561245
 21
167.5327224017613901
 31
0.0
  0
ARC
  5
1D8C8
  8
0
 10
3471.1546909480111935
 20
159.6436199003441061
 30
0.0
 40
9.1120923002135097
 50
49.1992730767614006
 51
60.0717658845168216
  0
ARC
  5
1D8C9
  8
0
 10
3469.9873337524131784
 20
158.2912741925266005
 30
0.0
 40
10.8985865586633306
 50
34.7817413524873871
 51
49.1992183473321205
  0
ARC
  5
1D8CA
  8
0
 10
3473.0263635242167766
 20
160.3921247393039096
 30
0.0
 40
7.204107560434049
 50
13.7771863459228605
 51
34.8463725277526706
  0
ARC
  5
1D8CB
  8
0
 10
3470.6015475941999284
 20
159.8108512288854115
 30
0.0
 40
9.6975965480422861
 50
2.0203506834775018
 51
13.7008975274008105
  0
ARC
  5
1D8CC
  8
0
 10
3480.2339893247658438
 20
160.1507946248644032
 30
0.0
 40
0.0591583065624387
 50
290.5274789214860789
 51
1.8794306896914019
  0
LINE
  5
1D8CD
  8
0
 10
3480.2547335734398075
 20
160.0953926268653902
 30
0.0
 11
3480.1969859308169362
 21
160.0751272472616051
 31
0.0
  0
LINE
  5
1D8CE
  8
0
 10
3480.1969859308169362
 20
160.0751272472616051
 30
0.0
 11
3480.0237500377611468
 21
160.0706030311650068
 31
0.0
  0
ARC
  5
1D8CF
  8
0
 10
3094.1453727144112236
 20
14934.6602951690092596
 30
0.0
 40
14779.62796193163922
 50
271.4954164994971961
 51
271.4960941584926104
  0
ARC
  5
1D8D0
  8
0
 10
3479.8051906123550907
 20
161.7442382141412907
 30
0.0
 40
1.6787699437395689
 50
258.0127079596107933
 51
271.4955489876945762
  0
ARC
  5
1D8D1
  8
0
 10
3479.8899692307331861
 20
162.1435310909240002
 30
0.0
 40
2.0869637893354769
 50
254.0103851848741101
 51
258.0127386898599866
  0
ARC
  5
1D8D2
  8
0
 10
3479.3002303839862179
 20
160.0854594900314112
 30
0.0
 40
0.0539356996089387
 50
74.0103851848740675
 51
101.1450768219531966
  0
ARC
  5
1D8D3
  8
0
 10
3479.2919952757638384
 20
160.1272600863570972
 30
0.0
 40
0.0113316286694297
 50
101.1450768219531966
 51
129.8908493727633982
  0
ARC
  5
1D8D4
  8
0
 10
3479.2871217867827909
 20
160.1330906058028916
 30
0.0
 40
0.0037325595254573
 50
129.8908493727622897
 51
171.077496295974413
  0
ARC
  5
1D8D5
  8
0
 10
3479.2933768776838406
 20
160.1321085675344875
 30
0.0
 40
0.0100642703006507
 50
171.077496295974413
 51
183.2342189967172885
  0
LINE
  5
1D8D6
  8
0
 10
3479.2819919413677781
 20
160.0549984963157897
 30
0.0
 11
3479.2833286372738257
 21
160.1315407635663064
 31
0.0
  0
LINE
  5
1D8D7
  8
0
 10
3479.8490053160098796
 20
160.0660401341320096
 30
0.0
 11
3479.8491654465910869
 21
160.0624756928918941
 31
0.0
  0
LINE
  5
1D8D8
  8
0
 10
3479.8491654465910869
 20
160.0624756928918941
 30
0.0
 11
3479.306802080892794
 21
160.0482438894946995
 31
0.0
  0
ARC
  5
1D8D9
  8
0
 10
3479.706486548634075
 20
161.5652546570611037
 30
0.0
 40
1.5687795710888781
 50
252.4973363976104963
 51
255.2397976353611
  0
ARC
  5
1D8DA
  8
0
 10
3479.252340419921893
 20
160.1252332255257897
 30
0.0
 40
0.0588423542087083
 50
191.8925708976769045
 51
252.5303164551214081
  0
LINE
  5
1D8DB
  8
0
 10
3479.1947610748447914
 20
160.1131071515775091
 30
0.0
 11
3479.1786383529088198
 21
160.2145104038885108
 31
0.0
  0
ARC
  5
1D8DC
  8
0
 10
3479.2714787676168271
 20
160.2309682142044949
 30
0.0
 40
0.0942878683798365
 50
181.8469078002983963
 51
190.0523873437774114
  0
ARC
  5
1D8DD
  8
0
 10
3471.7498103640909903
 20
160.1443531499604092
 30
0.0
 40
7.4278997177945341
 50
0.6446866552087555
 51
7.0246696744928538
  0
ARC
  5
1D8DE
  8
0
 10
3471.7488318145810808
 20
160.1407531373741051
 30
0.0
 40
7.4293119941212913
 50
7.0513020788913314
 51
13.4385981610456593
  0
ARC
  5
1D8DF
  8
0
 10
3471.8410671445321896
 20
160.1481705993757032
 30
0.0
 40
7.3378920496054647
 50
13.5496419828508792
 51
35.5475228598350768
  0
ARC
  5
1D8E0
  8
0
 10
3476.1357651150269703
 20
163.2835366394108121
 30
0.0
 40
2.0214753132170582
 50
34.0112273262010874
 51
43.2089993512710677
  0
ARC
  5
1D8E1
  8
0
 10
3475.2580838444009714
 20
167.104299272989806
 30
0.0
 40
0.0590586744510678
 50
133.0198621264470944
 51
224.994570176142787
  0
LINE
  5
1D8E2
  8
0
 10
3475.2163190977980776
 20
167.0625424415842133
 30
0.0
 11
3477.609139830939057
 21
164.6675631523278867
 31
0.0
  0
LINE
  5
1D8E3
  8
0
 10
3477.6091398309281431
 20
164.6675631523170864
 30
0.0
 11
3477.6064466676712073
 21
164.6646751371935125
 31
0.0
  0
ARC
  5
1D8E4
  8
0
 10
3477.5920500545521463
 20
164.6781004233546923
 30
0.0
 40
0.019685039441722
 50
260.7267487397057835
 51
316.9995162790517043
  0
ARC
  5
1D8E5
  8
0
 10
3477.5961765605698019
 20
164.7033734712125863
 30
0.0
 40
0.0452927531221782
 50
245.9508978222268922
 51
260.7267487397057835
  0
LINE
  5
1D8E6
  8
0
 10
3477.5777188851197934
 20
164.6620122852725956
 30
0.0
 11
3477.391393445374888
 21
164.7488248241278939
 31
0.0
  0
LINE
  5
1D8E7
  8
0
 10
3475.2361119493398292
 20
167.0427317349719942
 30
0.0
 11
3475.2321368710481693
 21
167.0390249772408993
 31
0.0
  0
ARC
  5
1D8E8
  8
0
 10
3475.2455619141392162
 20
167.0246281374051023
 30
0.0
 40
0.0196850394779723
 50
132.9995162564700877
 51
189.2722851715539036
  0
ARC
  5
1D8E9
  8
0
 10
3475.2708350299380982
 20
167.0287542170158872
 30
0.0
 40
0.0452927515030655
 50
189.2722851715521983
 51
204.0481366644459911
  0
ARC
  5
1D8EA
  8
0
 10
3478.8108732082018832
 20
168.603197076784511
 30
0.0
 40
3.9196624237965461
 50
203.9780726860687992
 51
206.9706718563128902
  0
LINE
  5
1D8EB
  8
0
 10
3475.2935422200062021
 20
166.8734178319095065
 30
0.0
 11
3475.2539059517539499
 21
166.8243213655811132
 31
0.0
  0
ARC
  5
1D8EC
  8
0
 10
3475.2692225859382233
 20
166.8119560312370879
 30
0.0
 40
0.0196850393999959
 50
141.0855740748347955
 51
224.999516856019909
  0
LINE
  5
1D8ED
  8
0
 10
3475.2553030437161397
 20
166.7980367237647954
 30
0.0
 11
3475.3678630071481166
 21
166.685474862004213
 31
0.0
  0
ARC
  5
1D8EE
  8
0
 10
3475.3817825493702003
 20
166.6993941694765056
 30
0.0
 40
0.0196850394000969
 50
224.999516856019909
 51
282.861534577041482
  0
LINE
  5
1D8EF
  8
0
 10
3475.3274292784180943
 20
166.8377346909128107
 30
0.0
 11
3475.2885476312599167
 21
166.7897206832595032
 31
0.0
  0
ARC
  5
1D8F0
  8
0
 10
3475.3038762748042245
 20
166.7773075784429011
 30
0.0
 40
0.0197244134023572
 50
140.9995168467434894
 51
221.573171875872589
  0
ARC
  5
1D8F1
  8
0
 10
3475.3278626924479795
 20
166.8373624529818926
 30
0.0
 40
0.0005713219743607
 50
92.8717901034407021
 51
139.3423449391256099
  0
ARC
  5
1D8F2
  8
0
 10
3475.327875041085008
 20
166.8371162886836885
 30
0.0
 40
0.0008177958077266
 50
66.3606394677735807
 51
92.8717901036233258
  0
ARC
  5
1D8F3
  8
0
 10
3475.326751639811846
 20
166.8345497322015092
 30
0.0
 40
0.003619445785045
 50
55.2208377092062292
 51
66.3606394677735807
  0
ARC
  5
1D8F4
  8
0
 10
3475.3247297998627801
 20
166.8316384270218009
 30
0.0
 40
0.0071639534563184
 50
42.8584415846896505
 51
55.2208377092043818
  0
ARC
  5
1D8F5
  8
0
 10
3475.290454644194142
 20
166.7998342843320074
 30
0.0
 40
0.0539217312944679
 50
34.29353215037019
 51
42.8584415846683484
  0
ARC
  5
1D8F6
  8
0
 10
3474.6513281596371598
 20
166.394646992302512
 30
0.0
 40
0.8106360983827634
 50
22.2907482185901387
 51
32.5011821055755803
  0
ARC
  5
1D8F7
  8
0
 10
3475.405355451160176
 20
166.6758208820602931
 30
0.0
 40
0.0196850498010158
 50
140.9995384137170902
 51
225.0255434393322957
  0
LINE
  5
1D8F8
  8
0
 10
3475.3900573940090908
 20
166.6882092085434977
 30
0.0
 11
3475.4272049077121665
 21
166.7340818119535015
 31
0.0
  0
ARC
  5
1D8F9
  8
0
 10
3475.4287323071021092
 20
166.7328449279411871
 30
0.0
 40
0.0019654085976297
 50
99.4732883403682138
 51
140.9995384136298924
  0
ARC
  5
1D8FA
  8
0
 10
3475.4289444668420401
 20
166.7315734702146983
 30
0.0
 40
0.0032544456433208
 50
71.107850899488426
 51
99.4732883403419663
  0
ARC
  5
1D8FB
  8
0
 10
3475.4273151620541285
 20
166.7268125316998919
 30
0.0
 40
0.0082864601140604
 50
55.4290783548011632
 51
71.107850899541944
  0
ARC
  5
1D8FC
  8
0
 10
3475.4112647541828665
 20
166.7035208599085081
 30
0.0
 40
0.0365728096073883
 50
48.0072372108716365
 51
55.4290783547983779
  0
ARC
  5
1D8FD
  8
0
 10
3475.3984431961480368
 20
166.6892774594284958
 30
0.0
 40
0.0557370160266268
 50
38.1685775019449167
 51
48.0072372108705565
  0
ARC
  5
1D8FE
  8
0
 10
3475.1297297574060394
 20
166.4780593589069895
 30
0.0
 40
0.3975264221644432
 50
34.6633764882977218
 51
38.1685775019449167
  0
ARC
  5
1D8FF
  8
0
 10
3475.1364229534738115
 20
166.4826876208053932
 30
0.0
 40
0.3893888745122628
 50
17.6899132006455915
 51
34.6633764882977218
  0
ARC
  5
1D900
  8
0
 10
3475.4927982485050961
 20
166.5963523600140093
 30
0.0
 40
0.0153260136882945
 50
353.2199196093520754
 51
17.6899132006533399
  0
ARC
  5
1D901
  8
0
 10
3475.4992495586470795
 20
166.5955853625308976
 30
0.0
 40
0.0088292692968264
 50
339.3618858977093851
 51
353.2199196093455953
  0
ARC
  5
1D902
  8
0
 10
3475.5052679546961372
 20
166.5935337823655118
 30
0.0
 40
0.0024821734587061
 50
304.8608194404163214
 51
334.7090559536725891
  0
LINE
  5
1D903
  8
0
 10
3475.5066867275518234
 20
166.5914970524719081
 30
0.0
 11
3475.49568037976087
 21
166.5825844414524965
 31
0.0
  0
ARC
  5
1D904
  8
0
 10
3475.4832923107769602
 20
166.597882697563989
 30
0.0
 40
0.0196850423998757
 50
224.9734706398728008
 51
308.9995148012221762
  0
LINE
  5
1D905
  8
0
 10
3475.4693664402620925
 20
166.5839697171251998
 30
0.0
 11
3475.3914422339139492
 21
166.6618952376678067
 31
0.0
  0
ARC
  5
1D906
  8
0
 10
3475.5668235992438895
 20
166.5143500107581076
 30
0.0
 40
0.0196850498010158
 50
140.9995384137170902
 51
225.0255434393322957
  0
LINE
  5
1D907
  8
0
 10
3475.5515255420928042
 20
166.5267383372413121
 30
0.0
 11
3475.5886730557958799
 21
166.5726109406512876
 31
0.0
  0
ARC
  5
1D908
  8
0
 10
3475.5902004551858226
 20
166.5713740566388879
 30
0.0
 40
0.0019654085976297
 50
99.4732883403682138
 51
140.9995384136298924
  0
ARC
  5
1D909
  8
0
 10
3475.5904126149262083
 20
166.5701025989125981
 30
0.0
 40
0.0032544456433208
 50
71.107850899488426
 51
99.4732883403419663
  0
ARC
  5
1D90A
  8
0
 10
3475.5887833101378419
 20
166.5653416603977064
 30
0.0
 40
0.0082864601140604
 50
55.4290783548011632
 51
71.107850899541944
  0
ARC
  5
1D90B
  8
0
 10
3475.5727329022670347
 20
166.5420499886062942
 30
0.0
 40
0.0365728096073883
 50
48.0072372108716365
 51
55.4290783547983779
  0
ARC
  5
1D90C
  8
0
 10
3475.559911344232205
 20
166.5278065881263103
 30
0.0
 40
0.0557370160266268
 50
38.1685775019449167
 51
48.0072372108705565
  0
ARC
  5
1D90D
  8
0
 10
3475.2911979054911171
 20
166.316588487604804
 30
0.0
 40
0.3975264221644432
 50
34.6633764882977218
 51
38.1685775019449167
  0
ARC
  5
1D90E
  8
0
 10
3475.2978911015579797
 20
166.3212167495032077
 30
0.0
 40
0.3893888745122628
 50
17.6899132006455915
 51
34.6633764882977218
  0
ARC
  5
1D90F
  8
0
 10
3475.6542663965879001
 20
166.4348814887117953
 30
0.0
 40
0.0153260136882945
 50
353.2199196093520754
 51
17.6899132006533399
  0
ARC
  5
1D910
  8
0
 10
3475.660717706730793
 20
166.434114491228712
 30
0.0
 40
0.0088292692968264
 50
339.3618858977093851
 51
353.2199196093455953
  0
ARC
  5
1D911
  8
0
 10
3475.6667361027789411
 20
166.4320629110632979
 30
0.0
 40
0.0024821734587061
 50
304.8608194404163214
 51
334.7090559536725891
  0
LINE
  5
1D912
  8
0
 10
3475.6681548756359916
 20
166.4300261811696089
 30
0.0
 11
3475.6571485278450382
 21
166.421113570150311
 31
0.0
  0
ARC
  5
1D913
  8
0
 10
3475.6447604588602189
 20
166.4364118262618035
 30
0.0
 40
0.0196850423998757
 50
224.9734706398728008
 51
308.9995148012221762
  0
LINE
  5
1D914
  8
0
 10
3475.630834588345806
 20
166.4224988458229859
 30
0.0
 11
3475.5529103819990269
 21
166.5004243663655927
 31
0.0
  0
ARC
  5
1D915
  8
0
 10
3475.7772773166298066
 20
166.3038927441093904
 30
0.0
 40
0.0196850498010158
 50
140.9995384137170902
 51
225.0255434393322957
  0
LINE
  5
1D916
  8
0
 10
3475.7619792594791761
 20
166.3162810705925949
 30
0.0
 11
3475.7930017763169417
 21
166.3545900573805909
 31
0.0
  0
LINE
  5
1D917
  8
0
 10
3475.8857724474009956
 20
166.2253699777880911
 30
0.0
 11
3475.8676022452309553
 21
166.2106563035015938
 31
0.0
  0
ARC
  5
1D918
  8
0
 10
3475.8552141762470455
 20
166.2259545596130863
 30
0.0
 40
0.0196850423998757
 50
224.9734706398728008
 51
308.9995148012221762
  0
LINE
  5
1D919
  8
0
 10
3475.8412883057321778
 20
166.2120415791742971
 30
0.0
 11
3475.763364099384944
 21
166.2899670997169039
 31
0.0
  0
ARC
  5
1D91A
  8
0
 10
3475.8819393471699186
 20
166.2300730830247062
 30
0.0
 40
0.0060672774984552
 50
309.1805425666219094
 51
323.881247238344713
  0
ARC
  5
1D91B
  8
0
 10
3475.8789512104240202
 20
166.2322535682430953
 30
0.0
 40
0.0097663959076398
 50
323.881247238336698
 51
358.5514181897469825
  0
ARC
  5
1D91C
  8
0
 10
3475.8416309675549201
 20
166.2331973191994905
 30
0.0
 40
0.0470985696138309
 50
358.551418189742094
 51
15.7369493398916696
  0
ARC
  5
1D91D
  8
0
 10
3475.7394063327478761
 20
166.2043921253234089
 30
0.0
 40
0.1533041022176491
 50
15.7369493398916696
 51
36.1301321395178689
  0
ARC
  5
1D91E
  8
0
 10
3475.28989836396795
 20
165.8762430340574099
 30
0.0
 40
0.7098463199295291
 50
36.1301321395178689
 51
40.1676644132901117
  0
ARC
  5
1D91F
  8
0
 10
3475.7688452988531935
 20
166.2805214648954859
 30
0.0
 40
0.0830838321585389
 50
40.1676644132888612
 51
58.2896956421967189
  0
ARC
  5
1D920
  8
0
 10
3475.7803675882000789
 20
166.2991701386281989
 30
0.0
 40
0.06116269660889
 50
58.2896956421975716
 51
68.7489318632291315
  0
ARC
  5
1D921
  8
0
 10
3475.7987350079929456
 20
166.346399273732402
 30
0.0
 40
0.0104877194254398
 50
68.7489318632036515
 51
99.049678101638051
  0
ARC
  5
1D922
  8
0
 10
3475.7983578088228569
 20
166.3487675239622945
 30
0.0
 40
0.0080896184339554
 50
99.049678101638321
 51
116.1900509116550069
  0
ARC
  5
1D923
  8
0
 10
3475.796979777229808
 20
166.3515692819563014
 30
0.0
 40
0.0049673085629909
 50
116.1900509116550069
 51
136.997755076529387
  0
ARC
  5
1D924
  8
0
 10
3475.7503816034400188
 20
166.3950261955706083
 30
0.0
 40
0.0587499821935793
 50
316.5062929908148135
 51
316.9977550765294154
  0
ARC
  5
1D925
  8
0
 10
3476.0223435625439379
 20
166.0588223650408963
 30
0.0
 40
0.0196850498010158
 50
140.9995384137170902
 51
225.0255434393322957
  0
LINE
  5
1D926
  8
0
 10
3476.0070455053928526
 20
166.0712106915241009
 30
0.0
 11
3476.0380680222301635
 21
166.1095196783122105
 31
0.0
  0
LINE
  5
1D927
  8
0
 10
3476.1308386933151269
 20
165.980299598719597
 30
0.0
 11
3476.1126684911459961
 21
165.9655859244332134
 31
0.0
  0
ARC
  5
1D928
  8
0
 10
3476.1002804221611768
 20
165.9808841805445923
 30
0.0
 40
0.0196850423998757
 50
224.9734706398728008
 51
308.9995148012221762
  0
LINE
  5
1D929
  8
0
 10
3476.0863545516458544
 20
165.9669712001058031
 30
0.0
 11
3476.0084303452990753
 21
166.0448967206484099
 31
0.0
  0
ARC
  5
1D92A
  8
0
 10
3476.1270055930849594
 20
165.9850027039562121
 30
0.0
 40
0.0060672774984552
 50
309.1805425666219094
 51
323.881247238344713
  0
ARC
  5
1D92B
  8
0
 10
3476.1240174563381515
 20
165.9871831891746012
 30
0.0
 40
0.0097663959076398
 50
323.881247238336698
 51
358.5514181897469825
  0
ARC
  5
1D92C
  8
0
 10
3476.0866972134699608
 20
165.9881269401309964
 30
0.0
 40
0.0470985696138309
 50
358.551418189742094
 51
15.7369493398916696
  0
ARC
  5
1D92D
  8
0
 10
3475.9844725786620074
 20
165.9593217462548864
 30
0.0
 40
0.1533041022176491
 50
15.7369493398916696
 51
36.1301321395178689
  0
ARC
  5
1D92E
  8
0
 10
3475.5349646098811718
 20
165.6311726549888874
 30
0.0
 40
0.7098463199295291
 50
36.1301321395178689
 51
40.1676644132901117
  0
ARC
  5
1D92F
  8
0
 10
3476.0139115447668701
 20
166.0354510858269919
 30
0.0
 40
0.0830838321585389
 50
40.1676644132888612
 51
58.2896956421967189
  0
ARC
  5
1D930
  8
0
 10
3476.0254338341142102
 20
166.0540997595597048
 30
0.0
 40
0.06116269660889
 50
58.2896956421975716
 51
68.7489318632291315
  0
ARC
  5
1D931
  8
0
 10
3476.0438012539070769
 20
166.1013288946639079
 30
0.0
 40
0.0104877194254398
 50
68.7489318632036515
 51
99.049678101638051
  0
ARC
  5
1D932
  8
0
 10
3476.0434240547369882
 20
166.1036971448938004
 30
0.0
 40
0.0080896184339554
 50
99.049678101638321
 51
116.1900509116550069
  0
ARC
  5
1D933
  8
0
 10
3476.0420460231439392
 20
166.1064989028878927
 30
0.0
 40
0.0049673085629909
 50
116.1900509116550069
 51
136.997755076529387
  0
ARC
  5
1D934
  8
0
 10
3475.9954478493541501
 20
166.1499558165021142
 30
0.0
 40
0.0587499821935793
 50
316.5062929908148135
 51
316.9977550765294154
  0
ARC
  5
1D935
  8
0
 10
3476.2853331327191881
 20
165.795828359584192
 30
0.0
 40
0.0196850498010158
 50
140.9995384137170902
 51
225.0255434393322957
  0
LINE
  5
1D936
  8
0
 10
3476.2700350755681029
 20
165.8082166860673965
 30
0.0
 11
3476.2928855645800468
 21
165.8364342251610992
 31
0.0
  0
LINE
  5
1D937
  8
0
 10
3476.4036402121059837
 20
165.7252530001744049
 30
0.0
 11
3476.3756580613198821
 21
165.7025919189765091
 31
0.0
  0
ARC
  5
1D938
  8
0
 10
3476.3632699923350629
 20
165.7178901750878879
 30
0.0
 40
0.0196850423998757
 50
224.9734706398728008
 51
308.9995148012221762
  0
LINE
  5
1D939
  8
0
 10
3476.3493441218201951
 20
165.7039771946490987
 30
0.0
 11
3476.2714199154738708
 21
165.7819027151917055
 31
0.0
  0
ARC
  5
1D93A
  8
0
 10
3476.299544829631941
 20
165.8305277211464102
 30
0.0
 40
0.0089012696129542
 50
112.9783541265120022
 51
138.4282460222445081
  0
ARC
  5
1D93B
  8
0
 10
3476.3011329240712257
 20
165.8267824717854921
 30
0.0
 40
0.0129693080492845
 50
87.6653490690189869
 51
112.978354126512599
  0
ARC
  5
1D93C
  8
0
 10
3476.3000188542000615
 20
165.7994566863773116
 30
0.0
 40
0.0403177942935619
 50
62.6682885256353188
 51
87.6653490690189869
  0
ARC
  5
1D93D
  8
0
 10
3476.1320695954182156
 20
165.4745023710244141
 30
0.0
 40
0.4061077074839662
 50
60.5918878204167584
 51
62.6682885256345585
  0
ARC
  5
1D93E
  8
0
 10
3476.2331004907018723
 20
165.6725360211194982
 30
0.0
 40
0.1842141631699017
 50
49.7295909747176808
 51
57.7207055945864909
  0
ARC
  5
1D93F
  8
0
 10
3476.2007861231600145
 20
165.6334008017286976
 30
0.0
 40
0.2349631701001928
 50
44.9995157411164968
 51
49.8858761034954696
  0
ARC
  5
1D940
  8
0
 10
3476.2141591657850768
 20
165.6456371443412081
 30
0.0
 40
0.2168560823486679
 50
35.0511648158568434
 51
45.2118402755693296
  0
ARC
  5
1D941
  8
0
 10
3476.304677459845152
 20
165.7076439454131105
 30
0.0
 40
0.1071502389269014
 50
20.1344183094424203
 51
35.7057537280072879
  0
ARC
  5
1D942
  8
0
 10
3476.3761123153149128
 20
165.7339684638446045
 30
0.0
 40
0.0310196679284934
 50
356.9644575014735892
 51
19.9013336582559788
  0
ARC
  5
1D943
  8
0
 10
3476.3934851064868781
 20
165.7339330643310973
 30
0.0
 40
0.0136979735998142
 50
333.6774709911770742
 51
353.2616411179943725
  0
ARC
  5
1D944
  8
0
 10
3476.3980819471139512
 20
165.7319474427540058
 30
0.0
 40
0.0087011419464215
 50
309.7021870648002846
 51
331.9743025226295003
  0
ARC
  5
1D945
  8
0
 10
3476.1625627681128208
 20
165.6730600702491074
 30
0.0
 40
0.0196850498010158
 50
140.9995384137170902
 51
225.0255434393322957
  0
LINE
  5
1D946
  8
0
 10
3476.1472647109621903
 20
165.6854483967323972
 30
0.0
 11
3476.1681237029538352
 21
165.711206682329788
 31
0.0
  0
LINE
  5
1D947
  8
0
 10
3476.2786481458488197
 20
165.6006854866874107
 30
0.0
 11
3476.2528876967139695
 21
165.5798236296413961
 31
0.0
  0
ARC
  5
1D948
  8
0
 10
3476.2404996277291502
 20
165.5951218857528033
 30
0.0
 40
0.0196850423998757
 50
224.9734706398728008
 51
308.9995148012221762
  0
LINE
  5
1D949
  8
0
 10
3476.226573757215192
 20
165.5812089053140994
 30
0.0
 11
3476.1486495508670487
 21
165.6591344258567062
 31
0.0
  0
ARC
  5
1D94A
  8
0
 10
3476.1695148462968064
 20
165.7099001979422042
 30
0.0
 40
0.0019084499612619
 50
109.5812464720033006
 51
136.7975087092092963
  0
ARC
  5
1D94B
  8
0
 10
3476.1702688103091532
 20
165.7055586727911134
 30
0.0
 40
0.0062957740182265
 50
70.5527506035525533
 51
102.7883230978122953
  0
ARC
  5
1D94C
  8
0
 10
3476.1611385620190049
 20
165.6783825450476968
 30
0.0
 40
0.0349640266158682
 50
59.5733449689504724
 51
71.2715645889860951
  0
ARC
  5
1D94D
  8
0
 10
3476.1050122905239732
 20
165.5845866233256061
 30
0.0
 40
0.1442692835086517
 50
51.3097587649691675
 51
59.2179285168555509
  0
ARC
  5
1D94E
  8
0
 10
3475.9746924595160635
 20
165.4183491476269978
 30
0.0
 40
0.3554947493238789
 50
47.8155113869181889
 51
51.663892334760142
  0
ARC
  5
1D94F
  8
0
 10
3475.8818262896511442
 20
165.3146737267958031
 30
0.0
 40
0.494678978822046
 50
44.9442456756380224
 51
47.9090451044269017
  0
ARC
  5
1D950
  8
0
 10
3475.9007123696701456
 20
165.3322124104892907
 30
0.0
 40
0.4689227841159066
 50
40.7627122108949322
 51
45.057596363178213
  0
ARC
  5
1D951
  8
0
 10
3476.0774102631621645
 20
165.4825864341196962
 30
0.0
 40
0.2369094478060682
 50
34.6218250362894224
 51
41.1193553181824925
  0
ARC
  5
1D952
  8
0
 10
3476.2231259099698946
 20
165.5825694538675918
 30
0.0
 40
0.0601932212907196
 50
22.6702210340504209
 51
35.1085897372620082
  0
ARC
  5
1D953
  8
0
 10
3476.2695172607509448
 20
165.6023006700636131
 30
0.0
 40
0.0097866414637736
 50
359.8617700742277066
 51
20.7595640264650108
  0
ARC
  5
1D954
  8
0
 10
3476.2764648947058959
 20
165.6024186133718956
 30
0.0
 40
0.0028425058508037
 50
335.8459924483150871
 51
357.1455414238131993
  0
ARC
  5
1D955
  8
0
 10
3476.2773727287330985
 20
165.6020470327698888
 30
0.0
 40
0.0018623887349817
 50
318.1483140676863854
 51
334.8482756563734029
  0
ARC
  5
1D956
  8
0
 10
3476.2779645388532117
 20
165.6014402003179953
 30
0.0
 40
0.0010182883620939
 50
312.1697577189020194
 51
321.3659588075449847
  0
ARC
  5
1D957
  8
0
 10
3476.0824186265840581
 20
165.8539694500034045
 30
0.0
 40
0.0196850498010158
 50
140.9995384137170902
 51
225.0255434393322957
  0
LINE
  5
1D958
  8
0
 10
3476.0671205694329728
 20
165.8663577764866943
 30
0.0
 11
3476.0904229974858026
 21
165.895133404623806
 31
0.0
  0
LINE
  5
1D959
  8
0
 10
3476.1964567128488852
 20
165.7799286472416043
 30
0.0
 11
3476.1727435551852068
 21
165.7607330093956932
 31
0.0
  0
ARC
  5
1D95A
  8
0
 10
3476.1603554861999328
 20
165.7760312655071004
 30
0.0
 40
0.0196850423998757
 50
224.9734706398728008
 51
308.9995148012221762
  0
LINE
  5
1D95B
  8
0
 10
3476.1464296156850651
 20
165.7621182850683965
 30
0.0
 11
3476.0685054093391955
 21
165.8400438056108896
 31
0.0
  0
ARC
  5
1D95C
  8
0
 10
3476.1928314789561227
 20
165.7839892118358875
 30
0.0
 40
0.0054433910021604
 50
311.7581781413389876
 51
358.8801617271553255
  0
ARC
  5
1D95D
  8
0
 10
3476.1601081782450819
 20
165.7816838381619107
 30
0.0
 40
0.038228949163987
 50
3.2975647542568791
 51
29.7626337443232991
  0
ARC
  5
1D95E
  8
0
 10
3476.0015532200391135
 20
165.6968305579314915
 30
0.0
 40
0.2180490988457014
 50
28.436151924891611
 51
41.0159512882040218
  0
ARC
  5
1D95F
  8
0
 10
3476.1288353165177796
 20
165.8135880222507126
 30
0.0
 40
0.0456160436564156
 50
35.2720664416725782
 51
46.6409431112579469
  0
ARC
  5
1D960
  8
0
 10
3475.9424078933261626
 20
165.6541171065148035
 30
0.0
 40
0.2907270545033625
 50
41.4987346438581284
 51
52.3784542330186227
  0
ARC
  5
1D961
  8
0
 10
3476.0634572627309353
 20
165.811180701644588
 30
0.0
 40
0.0924294933780759
 50
52.3784542330186227
 51
61.1839402313496308
  0
ARC
  5
1D962
  8
0
 10
3476.0826112409581583
 20
165.8459985378266879
 30
0.0
 40
0.0526908900013824
 50
61.1839402313488634
 51
72.9308031212233203
  0
ARC
  5
1D963
  8
0
 10
3476.0949813403831286
 20
165.8862852277127047
 30
0.0
 40
0.0105478390701825
 50
72.9308031211983945
 51
96.654281437376298
  0
ARC
  5
1D964
  8
0
 10
3476.0944814228460018
 20
165.8905703284980007
 30
0.0
 40
0.006233675618733
 50
96.6542814374023749
 51
116.4926808156435953
  0
ARC
  5
1D965
  8
0
 10
3476.093295780632161
 20
165.8929491198231005
 30
0.0
 40
0.0035757825382793
 50
116.4926808156427995
 51
132.8951070954163924
  0
ARC
  5
1D966
  8
0
 10
3476.0973036728519219
 20
165.8886353754380139
 30
0.0
 40
0.009464041251042
 50
132.8951070954163924
 51
136.6382779012334083
  0
ARC
  5
1D967
  8
0
 10
3475.5066306127509961
 20
166.4297671745297009
 30
0.0
 40
0.0196850498010158
 50
140.9995384137170902
 51
225.0255434393322957
  0
LINE
  5
1D968
  8
0
 10
3475.4913325555999108
 20
166.4421555010129055
 30
0.0
 11
3475.528480069303896
 21
166.4880281044227956
 31
0.0
  0
ARC
  5
1D969
  8
0
 10
3475.5300074686929293
 20
166.4867912204105096
 30
0.0
 40
0.0019654085976297
 50
99.4732883403682138
 51
140.9995384136298924
  0
ARC
  5
1D96A
  8
0
 10
3475.5302196284328602
 20
166.4855197626841061
 30
0.0
 40
0.0032544456433208
 50
71.107850899488426
 51
99.4732883403419663
  0
ARC
  5
1D96B
  8
0
 10
3475.5285903236449485
 20
166.4807588241692997
 30
0.0
 40
0.0082864601140604
 50
55.4290783548011632
 51
71.107850899541944
  0
ARC
  5
1D96C
  8
0
 10
3475.5125399157741413
 20
166.4574671523778022
 30
0.0
 40
0.0365728096073883
 50
48.0072372108716365
 51
55.4290783547983779
  0
ARC
  5
1D96D
  8
0
 10
3475.4997183577388569
 20
166.4432237518979036
 30
0.0
 40
0.0557370160266268
 50
38.1685775019449167
 51
48.0072372108705565
  0
ARC
  5
1D96E
  8
0
 10
3475.2310049189982237
 20
166.232005651376312
 30
0.0
 40
0.3975264221644432
 50
34.6633764882977218
 51
38.1685775019449167
  0
ARC
  5
1D96F
  8
0
 10
3475.2376981150650863
 20
166.236633913274801
 30
0.0
 40
0.3893888745122628
 50
17.6899132006455915
 51
34.6633764882977218
  0
ARC
  5
1D970
  8
0
 10
3475.5940734100950067
 20
166.3502986524833887
 30
0.0
 40
0.0153260136882945
 50
353.2199196093520754
 51
17.6899132006533399
  0
ARC
  5
1D971
  8
0
 10
3475.6005247202369901
 20
166.3495316550003054
 30
0.0
 40
0.0088292692968264
 50
339.3618858977093851
 51
353.2199196093455953
  0
ARC
  5
1D972
  8
0
 10
3475.6065431162860477
 20
166.3474800748348912
 30
0.0
 40
0.0024821734587061
 50
304.8608194404163214
 51
334.7090559536725891
  0
LINE
  5
1D973
  8
0
 10
3475.6079618891440077
 20
166.3454433449412022
 30
0.0
 11
3475.5969555413521448
 21
166.3365307339219044
 31
0.0
  0
ARC
  5
1D974
  8
0
 10
3475.5845674723668708
 20
166.3518289900333116
 30
0.0
 40
0.0196850423998757
 50
224.9734706398728008
 51
308.9995148012221762
  0
LINE
  5
1D975
  8
0
 10
3475.5706416018529126
 20
166.3379160095946077
 30
0.0
 11
3475.4473814663801932
 21
166.461178223860486
 31
0.0
  0
ARC
  5
1D976
  8
0
 10
3475.6371500127888794
 20
166.2992455733262034
 30
0.0
 40
0.0196850498010158
 50
140.9995384137170902
 51
225.0255434393322957
  0
LINE
  5
1D977
  8
0
 10
3475.6218519556368847
 20
166.3116338998094079
 30
0.0
 11
3475.6522052136137972
 21
166.3491164343469109
 31
0.0
  0
LINE
  5
1D978
  8
0
 10
3475.7428660404020775
 20
166.2184688148394969
 30
0.0
 11
3475.7274749413900281
 21
166.2060091327184921
 31
0.0
  0
ARC
  5
1D979
  8
0
 10
3475.7150868724052089
 20
166.2213073888298993
 30
0.0
 40
0.0196850423998757
 50
224.9734706398728008
 51
308.9995148012221762
  0
LINE
  5
1D97A
  8
0
 10
3475.7011610018898864
 20
166.2073944083911101
 30
0.0
 11
3475.6232367955431073
 21
166.2853199289336885
 31
0.0
  0
ARC
  5
1D97B
  8
0
 10
3475.8371223185099552
 20
166.0992698950618944
 30
0.0
 40
0.0196850498010158
 50
140.9995384137170902
 51
225.0255434393322957
  0
LINE
  5
1D97C
  8
0
 10
3475.82182426135887
 20
166.111658221545099
 30
0.0
 11
3475.849038469667903
 21
166.1452644164270112
 31
0.0
  0
LINE
  5
1D97D
  8
0
 10
3475.94561744927978
 20
166.0207471287405951
 30
0.0
 11
3475.9274472471111039
 21
166.0060334544542116
 31
0.0
  0
ARC
  5
1D97E
  8
0
 10
3475.9150591781258299
 20
166.0213317105655904
 30
0.0
 40
0.0196850423998757
 50
224.9734706398728008
 51
308.9995148012221762
  0
LINE
  5
1D97F
  8
0
 10
3475.9011333076109622
 20
166.0074187301268012
 30
0.0
 11
3475.8232091012641831
 21
166.085344250669408
 31
0.0
  0
ARC
  5
1D980
  8
0
 10
3475.9417843490500672
 20
166.0254502339772102
 30
0.0
 40
0.0060672774984552
 50
309.1805425666219094
 51
323.881247238344713
  0
ARC
  5
1D981
  8
0
 10
3475.9387962123028046
 20
166.0276307191955993
 30
0.0
 40
0.0097663959076398
 50
323.881247238336698
 51
339.1732703263126041
  0
ARC
  5
1D982
  8
0
 10
3475.853944352696999
 20
166.1404624089636002
 30
0.0
 40
0.0068649081549521
 50
132.4229333565835134
 51
135.613048158542
  0
ARC
  5
1D983
  8
0
 10
3475.8515624438027771
 20
166.1430688361490979
 30
0.0
 40
0.0033340509421954
 50
98.5976059029898266
 51
132.4229333566505034
  0
ARC
  5
1D984
  8
0
 10
3475.8520893454751786
 20
166.139583876327606
 30
0.0
 40
0.0068586176289723
 50
77.8510181187349701
 51
98.5976059029895708
  0
ARC
  5
1D985
  8
0
 10
3475.8496599146478729
 20
166.1282986732489917
 30
0.0
 40
0.0184023580395365
 50
60.0180597771328834
 51
77.8510181187353112
  0
ARC
  5
1D986
  8
0
 10
3475.8173843739850781
 20
166.0723550814155089
 30
0.0
 40
0.0829887032861343
 50
50.8139117215100811
 51
60.0180597771320734
  0
ARC
  5
1D987
  8
0
 10
3475.7496363010877758
 20
165.9892465453505963
 30
0.0
 40
0.1902119757040028
 50
40.3525707281778026
 51
50.8139117215100811
  0
ARC
  5
1D988
  8
0
 10
3475.470090000860182
 20
165.7517327342669091
 30
0.0
 40
0.557034745480813
 50
34.5786530399263228
 51
40.3525707281778026
  0
ARC
  5
1D989
  8
0
 10
3475.7937689268801478
 20
165.9748459291068059
 30
0.0
 40
0.1639093903321632
 50
24.2677107190824088
 51
34.5786530399263228
  0
ARC
  5
1D98A
  8
0
 10
3475.8738121534270249
 20
166.010932540579887
 30
0.0
 40
0.0761075586672573
 50
13.5522336688873395
 51
24.2677107190809203
  0
ARC
  5
1D98B
  8
0
 10
3475.9370336549891363
 20
166.0261716514382044
 30
0.0
 40
0.0110753454227368
 50
349.5263850145624929
 51
13.5522336688984204
  0
ARC
  5
1D98C
  8
0
 10
3475.6536194391128447
 20
166.3478929460063966
 30
0.0
 40
0.0018700153690462
 50
118.9512426797061977
 51
139.1359473627732086
  0
ARC
  5
1D98D
  8
0
 10
3475.6536544503978803
 20
166.3478296570206112
 30
0.0
 40
0.0019423429973152
 50
84.2214394200108813
 51
118.9512426796504059
  0
ARC
  5
1D98E
  8
0
 10
3475.6531296758939789
 20
166.3426440490922005
 30
0.0
 40
0.0071544364219608
 50
71.2144939428604431
 51
84.2214394200110377
  0
ARC
  5
1D98F
  8
0
 10
3475.6517653732230428
 20
166.3386331107319904
 30
0.0
 40
0.0113910563373923
 50
53.4651237355555935
 51
71.2144939428594057
  0
ARC
  5
1D990
  8
0
 10
3475.6295200040472082
 20
166.3055794013914976
 30
0.0
 40
0.0512242188473471
 50
48.5687051952693878
 51
55.4825108746528812
  0
ARC
  5
1D991
  8
0
 10
3475.6185651476980638
 20
166.2894092333685876
 30
0.0
 40
0.070640645758716
 50
39.7543608281238221
 51
50.5860923343614033
  0
ARC
  5
1D992
  8
0
 10
3474.97145254775387
 20
165.7511280392394895
 30
0.0
 40
0.9123658746538916
 50
36.2931827344449331
 51
39.7543608281238221
  0
ARC
  5
1D993
  8
0
 10
3475.460139176364919
 20
166.1100145426142092
 30
0.0
 40
0.3060539555171653
 50
27.3438534254003116
 51
36.2931827344449331
  0
ARC
  5
1D994
  8
0
 10
3475.5307998580228741
 20
166.1465537573849076
 30
0.0
 40
0.2265049382481161
 50
20.4155135971262602
 51
27.3438534254017505
  0
ARC
  5
1D995
  8
0
 10
3475.7323265369168439
 20
166.2215629766137965
 30
0.0
 40
0.0114714867205902
 50
355.0644290734517199
 51
20.4155135971110013
  0
ARC
  5
1D996
  8
0
 10
3475.7400538638748912
 20
166.2208971494330001
 30
0.0
 40
0.0037155276497158
 50
319.1891562741510029
 51
355.0418248403926782
  0
ARC
  5
1D997
  8
0
 10
3475.740655091438839
 20
166.0949748624171889
 30
0.0
 40
0.0196850498010158
 50
140.9995384137170902
 51
225.0255434393322957
  0
LINE
  5
1D998
  8
0
 10
3475.7253570342882085
 20
166.1073631889003934
 30
0.0
 11
3475.7557102922642116
 21
166.1448457234378111
 31
0.0
  0
LINE
  5
1D999
  8
0
 10
3475.8463711190529466
 20
166.0141981039305108
 30
0.0
 11
3475.8309800200390782
 21
166.0017384218093923
 31
0.0
  0
ARC
  5
1D99A
  8
0
 10
3475.8185919510551685
 20
166.0170366779209132
 30
0.0
 40
0.0196850423998757
 50
224.9734706398728008
 51
308.9995148012221762
  0
LINE
  5
1D99B
  8
0
 10
3475.8046660805412102
 20
166.0031236974820956
 30
0.0
 11
3475.661466364619173
 21
166.1463258283781101
 31
0.0
  0
ARC
  5
1D99C
  8
0
 10
3475.7571245177628043
 20
166.1436222350972969
 30
0.0
 40
0.0018700153690462
 50
118.9512426797061977
 51
139.1359473627732086
  0
ARC
  5
1D99D
  8
0
 10
3475.7571595290492041
 20
166.1435589461115967
 30
0.0
 40
0.0019423429973152
 50
84.2214394200108813
 51
118.9512426796504059
  0
ARC
  5
1D99E
  8
0
 10
3475.7566347545439385
 20
166.138373338183186
 30
0.0
 40
0.0071544364219608
 50
71.2144939428604431
 51
84.2214394200110377
  0
ARC
  5
1D99F
  8
0
 10
3475.7552704518730025
 20
166.1343623998228907
 30
0.0
 40
0.0113910563373923
 50
53.4651237355555935
 51
71.2144939428594057
  0
ARC
  5
1D9A0
  8
0
 10
3475.7330250826980773
 20
166.1013086904823979
 30
0.0
 40
0.0512242188473471
 50
48.5687051952693878
 51
55.4825108746528812
  0
ARC
  5
1D9A1
  8
0
 10
3475.7220702263480234
 20
166.0851385224594878
 30
0.0
 40
0.070640645758716
 50
39.7543608281238221
 51
50.5860923343614033
  0
ARC
  5
1D9A2
  8
0
 10
3475.0749576264038296
 20
165.5468573283303897
 30
0.0
 40
0.9123658746538916
 50
36.2931827344449331
 51
39.7543608281238221
  0
ARC
  5
1D9A3
  8
0
 10
3475.5636442550148786
 20
165.9057438317051094
 30
0.0
 40
0.3060539555171653
 50
27.3438534254003116
 51
36.2931827344449331
  0
ARC
  5
1D9A4
  8
0
 10
3475.6343049366728337
 20
165.9422830464758079
 30
0.0
 40
0.2265049382481161
 50
20.4155135971262602
 51
27.3438534254017505
  0
ARC
  5
1D9A5
  8
0
 10
3475.8358316155681678
 20
166.0172922657048105
 30
0.0
 40
0.0114714867205902
 50
355.0644290734517199
 51
20.4155135971110013
  0
ARC
  5
1D9A6
  8
0
 10
3475.8435589425248509
 20
166.0166264385239003
 30
0.0
 40
0.0037155276497158
 50
319.1891562741510029
 51
355.0418248403926782
  0
ARC
  5
1D9A7
  8
0
 10
3475.6753859068307975
 20
166.1602451358604924
 30
0.0
 40
0.0196850393999997
 50
140.9995168559987064
 51
224.9995168978107074
  0
LINE
  5
1D9A8
  8
0
 10
3475.6600878624230972
 20
166.1726334615541134
 30
0.0
 11
3475.6889294014599727
 21
166.208249182020694
 31
0.0
  0
LINE
  5
1D9A9
  8
0
 10
3475.7447807269750228
 20
166.1313490566631117
 30
0.0
 11
3475.6588233445118021
 21
166.249701368373394
 31
0.0
  0
LINE
  5
1D9AA
  8
0
 10
3475.6192614167198371
 20
166.3074613700827911
 30
0.0
 11
3475.5988251262601807
 21
166.3380466435168898
 31
0.0
  0
LINE
  5
1D9AB
  8
0
 10
3475.4169540589969074
 20
166.6363829823272908
 30
0.0
 11
3475.5146984800157952
 21
166.471009508180714
 31
0.0
  0
LINE
  5
1D9AC
  8
0
 10
3475.4801014473700889
 20
166.5295441173599045
 30
0.0
 11
3475.4460029642650625
 21
166.4874858570331924
 31
0.0
  0
ARC
  5
1D9AD
  8
0
 10
3475.4612842416941021
 20
166.4750966527203957
 30
0.0
 40
0.019672565246171
 50
140.9667960498568107
 51
225.0322362380040886
  0
LINE
  5
1D9AE
  8
0
 10
3476.0876638459649257
 20
165.6649997721806926
 30
0.0
 11
3476.0097338955611121
 21
165.742931036871795
 31
0.0
  0
ARC
  5
1D9AF
  8
0
 10
3476.0236611289010398
 20
165.756858035332499
 30
0.0
 40
0.0196959161912889
 50
141.028007334897012
 51
224.9995168577171967
  0
LINE
  5
1D9B0
  8
0
 10
3476.0083484700571717
 20
165.7692455933552935
 30
0.0
 11
3476.0297300256002018
 21
165.7956484688571948
 31
0.0
  0
ARC
  5
1D9B1
  8
0
 10
3476.0299974220802142
 20
165.7953903616715081
 30
0.0
 40
0.0003716452564229
 50
82.3585442322348342
 51
136.0127082682147943
  0
ARC
  5
1D9B2
  8
0
 10
3476.0297736105799231
 20
165.7932837125198944
 30
0.0
 40
0.0024900302047551
 50
60.7839130860954029
 51
83.7002607865181147
  0
ARC
  5
1D9B3
  8
0
 10
3476.0148862942628512
 20
165.7684863596589082
 30
0.0
 40
0.0314119618962858
 50
50.3015763799582629
 51
59.1608325966623525
  0
ARC
  5
1D9B4
  8
0
 10
3475.8469072721741213
 20
165.5708162875720859
 30
0.0
 40
0.2908140569338101
 50
46.0342494131706914
 51
49.7134968806610829
  0
ARC
  5
1D9B5
  8
0
 10
3475.2459901023389648
 20
164.9557557610089873
 30
0.0
 40
1.1506938122469581
 50
40.88693386069491
 51
45.7593599374168818
  0
ARC
  5
1D9B6
  8
0
 10
3475.9504377867519906
 20
165.5597649870721
 30
0.0
 40
0.2228090240314414
 50
33.5878521110389627
 51
42.0381700058197723
  0
ARC
  5
1D9B7
  8
0
 10
3476.1320901079029682
 20
165.6812634038076055
 30
0.0
 40
0.0043311771418965
 50
10.4733359137758502
 51
24.0176058494994003
  0
ARC
  5
1D9B8
  8
0
 10
3476.1359166436191117
 20
165.6819590293634121
 30
0.0
 40
0.0004420943703309
 50
314.2922987878725962
 51
11.9695592423302593
  0
LINE
  5
1D9B9
  8
0
 10
3476.1362253665529352
 20
165.681642584136199
 30
0.0
 11
3476.1139714558858032
 21
165.6636208262910941
 31
0.0
  0
ARC
  5
1D9BA
  8
0
 10
3476.1015833881860999
 20
165.6789190796528999
 30
0.0
 40
0.0196850393999974
 50
224.9995168577148945
 51
308.9995168560233765
  0
LINE
  5
1D9BB
  8
0
 10
3475.9035205474510803
 20
165.9288473327248994
 30
0.0
 11
3475.9282165989711757
 21
165.9593463839703134
 31
0.0
  0
ARC
  5
1D9BC
  8
0
 10
3475.9299116589918413
 20
165.9574210039947957
 30
0.0
 40
0.0025652127640167
 50
113.7921914443663951
 51
131.3599445745188916
  0
ARC
  5
1D9BD
  8
0
 10
3475.9296884196542123
 20
165.9566787123937956
 30
0.0
 40
0.0031943279214012
 50
79.1146107228663737
 51
104.7191794951378938
  0
ARC
  5
1D9BE
  8
0
 10
3475.9250384793340345
 20
165.9419083034127027
 30
0.0
 40
0.0186618816741929
 50
55.2586575166839182
 51
73.650718645094571
  0
ARC
  5
1D9BF
  8
0
 10
3475.8204417204910897
 20
165.7996990433439066
 30
0.0
 40
0.1951885108111948
 50
43.3788509274951721
 51
53.817381048458401
  0
ARC
  5
1D9C0
  8
0
 10
3475.6012186717898658
 20
165.5772890377515125
 30
0.0
 40
0.5074026394783845
 50
33.5855233507239674
 51
44.6309210541099404
  0
ARC
  5
1D9C1
  8
0
 10
3475.9748343965538879
 20
165.8253645391791053
 30
0.0
 40
0.058927264198763
 50
17.9716658604780193
 51
33.6002210311105216
  0
ARC
  5
1D9C2
  8
0
 10
3476.0265861633929489
 20
165.8426570407675058
 30
0.0
 40
0.0043913803923867
 50
330.9363323785386797
 51
11.6838970746347304
  0
LINE
  5
1D9C3
  8
0
 10
3476.0304245831080152
 20
165.840523790702008
 30
0.0
 11
3476.009298728669819
 21
165.8234167059929121
 31
0.0
  0
ARC
  5
1D9C4
  8
0
 10
3475.9969106609551091
 20
165.8387149593064862
 30
0.0
 40
0.019685039399994
 50
224.9995168559808008
 51
308.9995311980886754
  0
LINE
  5
1D9C5
  8
0
 10
3475.9829911187321159
 20
165.8247956518343074
 30
0.0
 11
3475.9050542447689622
 21
165.9027338402069915
 31
0.0
  0
ARC
  5
1D9C6
  8
0
 10
3475.9189737866859105
 20
165.9166531473746033
 30
0.0
 40
0.0196850389691643
 50
141.7229506635248129
 51
224.9995168559808008
  0
LINE
  5
1D9C7
  8
0
 10
3475.9105035087641227
 20
165.8972844843056009
 30
0.0
 11
3475.8969940104898342
 21
165.8806019310437136
 31
0.0
  0
ARC
  5
1D9C8
  8
0
 10
3475.9122920548102229
 20
165.8682136053429872
 30
0.0
 40
0.019685039336654
 50
140.9995166799216122
 51
224.9995172267585986
  0
ARC
  5
1D9C9
  8
0
 10
3475.9902289286310406
 20
165.7902754176529072
 30
0.0
 40
0.0196850397154398
 50
224.9995164886574912
 51
308.999516137813373
  0
LINE
  5
1D9CA
  8
0
 10
3475.8983725127231992
 20
165.8542942978255041
 30
0.0
 11
3475.9763093859151013
 21
165.7763561102283916
 31
0.0
  0
LINE
  5
1D9CB
  8
0
 10
3476.0026169962879976
 20
165.7749771638858078
 30
0.0
 11
3476.0228537278258045
 21
165.7913642658328115
 31
0.0
  0
LINE
  5
1D9CC
  8
0
 10
3476.0246207808281724
 20
165.7893437730760127
 30
0.0
 11
3475.9985951562662194
 21
165.819102125454009
 31
0.0
  0
LINE
  5
1D9CD
  8
0
 10
3475.9035205388281611
 20
165.9288473217976048
 30
0.0
 11
3475.8388722001632232
 21
166.0081292658815926
 31
0.0
  0
LINE
  5
1D9CE
  8
0
 10
3476.1299319286258651
 20
165.6765460051105947
 30
0.0
 11
3476.2440421998549027
 21
165.5625675472892908
 31
0.0
  0
LINE
  5
1D9CF
  8
0
 10
3477.4408427069938625
 20
164.7260810470257866
 30
0.0
 11
3477.3917455706668989
 21
164.6864456086971984
 31
0.0
  0
ARC
  5
1D9D0
  8
0
 10
3477.379380495235182
 20
164.7017624519008905
 30
0.0
 40
0.0196850393999959
 50
224.9995146262118908
 51
308.9134574073917179
  0
LINE
  5
1D9D1
  8
0
 10
3477.365460952471949
 20
164.687843144970401
 30
0.0
 11
3477.2529009934200985
 21
164.800405011111593
 31
0.0
  0
ARC
  5
1D9D2
  8
0
 10
3477.2668205361851506
 20
164.8143243180421962
 30
0.0
 40
0.0196850394000969
 50
167.1374969051665005
 51
224.9995146262118908
  0
LINE
  5
1D9D3
  8
0
 10
3477.4051601388227937
 20
164.7599687086141103
 30
0.0
 11
3477.3571454739280853
 21
164.7210878730820127
 31
0.0
  0
ARC
  5
1D9D4
  8
0
 10
3477.3447326282262111
 20
164.7364167264520916
 30
0.0
 40
0.0197244134023572
 50
228.425859606345
 51
308.9995146354667099
  0
ARC
  5
1D9D5
  8
0
 10
3477.4047879082190775
 20
164.7604021289361071
 30
0.0
 40
0.0005713219743607
 50
310.6566865431017845
 51
357.1272413787759206
  0
ARC
  5
1D9D6
  8
0
 10
3477.4045417441288919
 20
164.7604144817341876
 30
0.0
 40
0.0008177958077266
 50
357.1272413785986259
 51
23.6383920144534692
  0
ARC
  5
1D9D7
  8
0
 10
3477.401975168656918
 20
164.7592911238465092
 30
0.0
 40
0.003619445785045
 50
23.6383920144534692
 51
34.7781937730164614
  0
ARC
  5
1D9D8
  8
0
 10
3477.3990638293012125
 20
164.7572693331092921
 30
0.0
 40
0.0071639534563184
 50
34.7781937730204689
 51
47.1405898975375734
  0
ARC
  5
1D9D9
  8
0
 10
3477.367259107234986
 20
164.7229947150568989
 30
0.0
 40
0.0539217312944679
 50
47.1405898975408917
 51
55.7054993318586469
  0
ARC
  5
1D9DA
  8
0
 10
3476.9620610115821364
 20
164.0838750798062051
 30
0.0
 40
0.8106360983827634
 50
57.4978493766359975
 51
67.7082832636265692
  0
ARC
  5
1D9DB
  8
0
 10
3477.2432476472440612
 20
164.8378976183078919
 30
0.0
 40
0.0196850498010158
 50
224.9734880428881922
 51
308.9994930684924839
  0
LINE
  5
1D9DC
  8
0
 10
3477.2556357151302109
 20
164.8225993517484085
 30
0.0
 11
3477.3015089464679477
 21
164.8597460900242879
 31
0.0
  0
ARC
  5
1D9DD
  8
0
 10
3477.3002720882750509
 20
164.8612735103218938
 30
0.0
 40
0.0019654085976297
 50
308.999493068589004
 51
350.5257431418613123
  0
ARC
  5
1D9DE
  8
0
 10
3477.2990006341351545
 20
164.8614856915540088
 30
0.0
 40
0.0032544456433208
 50
350.5257431418900751
 51
18.891180582720299
  0
ARC
  5
1D9DF
  8
0
 10
3477.2942396680791717
 20
164.859856467244299
 30
0.0
 40
0.0082864601140604
 50
18.8911805826718115
 51
34.5699531274126528
  0
ARC
  5
1D9E0
  8
0
 10
3477.270947724978214
 20
164.8438064530942029
 30
0.0
 40
0.0365728096073883
 50
34.5699531274207033
 51
41.9917942713327221
  0
ARC
  5
1D9E1
  8
0
 10
3477.2567041077659269
 20
164.8309851358289109
 30
0.0
 40
0.0557370160266268
 50
41.9917942713513668
 51
51.8304539802810424
  0
ARC
  5
1D9E2
  8
0
 10
3477.0454814649901891
 20
164.5622752675197091
 30
0.0
 40
0.3975264221644432
 50
51.8304539802810424
 51
55.3356549939285216
  0
ARC
  5
1D9E3
  8
0
 10
3477.0501098400291085
 20
164.568968385350388
 30
0.0
 40
0.3893888745122628
 50
55.3356549939285216
 51
72.3091182815863789
  0
ARC
  5
1D9E4
  8
0
 10
3477.1637806033259039
 20
164.9253417589617925
 30
0.0
 40
0.0153260136882945
 50
72.3091182815610694
 51
96.77911187287323
  0
ARC
  5
1D9E5
  8
0
 10
3477.1630137148949871
 20
164.9317930820681113
 30
0.0
 40
0.0088292692968264
 50
96.77911187287323
 51
110.6371455845114014
  0
ARC
  5
1D9E6
  8
0
 10
3477.1609622364640018
 20
164.9378115127952924
 30
0.0
 40
0.0024821734587061
 50
115.2899755285441046
 51
145.1382120418032002
  0
LINE
  5
1D9E7
  8
0
 10
3477.1589255305539155
 20
164.9392303200804974
 30
0.0
 11
3477.1500127334861645
 21
164.928224122948194
 31
0.0
  0
ARC
  5
1D9E8
  8
0
 10
3477.1653107801898841
 20
164.9158357953662062
 30
0.0
 40
0.0196850423998757
 50
140.9995166809970897
 51
225.0255608423441913
  0
LINE
  5
1D9E9
  8
0
 10
3477.1513975643520098
 20
164.9019101600360102
 30
0.0
 11
3477.2293217676669883
 21
164.823984636460807
 31
0.0
  0
ARC
  5
1D9EA
  8
0
 10
3477.0817795053940245
 20
164.9993684958438962
 30
0.0
 40
0.0196850498010158
 50
224.9734880428881922
 51
308.9994930684924839
  0
LINE
  5
1D9EB
  8
0
 10
3477.0941675732788099
 20
164.9840702292844128
 30
0.0
 11
3477.1400408046188204
 21
165.0212169675604059
 31
0.0
  0
ARC
  5
1D9EC
  8
0
 10
3477.1388039464250141
 20
165.0227443878578981
 30
0.0
 40
0.0019654085976297
 50
308.999493068589004
 51
350.5257431418613123
  0
ARC
  5
1D9ED
  8
0
 10
3477.1375324922851178
 20
165.0229565690900131
 30
0.0
 40
0.0032544456433208
 50
350.5257431418900751
 51
18.891180582720299
  0
ARC
  5
1D9EE
  8
0
 10
3477.1327715262300444
 20
165.0213273447803033
 30
0.0
 40
0.0082864601140604
 50
18.8911805826718115
 51
34.5699531274126528
  0
ARC
  5
1D9EF
  8
0
 10
3477.1094795831281772
 20
165.0052773306302072
 30
0.0
 40
0.0365728096073883
 50
34.5699531274207033
 51
41.9917942713327221
  0
ARC
  5
1D9F0
  8
0
 10
3477.0952359659158901
 20
164.9924560133648868
 30
0.0
 40
0.0557370160266268
 50
41.9917942713513668
 51
51.8304539802810424
  0
ARC
  5
1D9F1
  8
0
 10
3476.8840133231401524
 20
164.7237461450557134
 30
0.0
 40
0.3975264221644432
 50
51.8304539802810424
 51
55.3356549939285216
  0
ARC
  5
1D9F2
  8
0
 10
3476.8886416981790717
 20
164.7304392628863923
 30
0.0
 40
0.3893888745122628
 50
55.3356549939285216
 51
72.3091182815863789
  0
ARC
  5
1D9F3
  8
0
 10
3477.0023124614767767
 20
165.0868126364977968
 30
0.0
 40
0.0153260136882945
 50
72.3091182815610694
 51
96.77911187287323
  0
ARC
  5
1D9F4
  8
0
 10
3477.0015455730449503
 20
165.0932639596040872
 30
0.0
 40
0.0088292692968264
 50
96.77911187287323
 51
110.6371455845114014
  0
ARC
  5
1D9F5
  8
0
 10
3476.999494094613965
 20
165.0992823903312967
 30
0.0
 40
0.0024821734587061
 50
115.2899755285441046
 51
145.1382120418032002
  0
LINE
  5
1D9F6
  8
0
 10
3476.9974573887038787
 20
165.1007011976165018
 30
0.0
 11
3476.9885445916361277
 21
165.0896950004841983
 31
0.0
  0
ARC
  5
1D9F7
  8
0
 10
3477.0038426383389378
 20
165.0773066729022958
 30
0.0
 40
0.0196850423998757
 50
140.9995166809970897
 51
225.0255608423441913
  0
LINE
  5
1D9F8
  8
0
 10
3476.989929422501973
 20
165.0633810375719861
 30
0.0
 11
3477.0678536258169515
 21
164.9854555139968966
 31
0.0
  0
ARC
  5
1D9F9
  8
0
 10
3476.8713257962481293
 20
165.2098257707328059
 30
0.0
 40
0.0196850498010158
 50
224.9734880428881922
 51
308.9994930684924839
  0
LINE
  5
1D9FA
  8
0
 10
3476.8837138641338242
 20
165.1945275041732941
 30
0.0
 11
3476.9220233753148932
 21
165.2255493734384117
 31
0.0
  0
LINE
  5
1D9FB
  8
0
 10
3476.7928048639200824
 20
165.3183222288226091
 30
0.0
 11
3476.7780908824897779
 21
165.3001522753731081
 31
0.0
  0
ARC
  5
1D9FC
  8
0
 10
3476.7933889291939522
 20
165.2877639477912055
 30
0.0
 40
0.0196850423998757
 50
140.9995166809970897
 51
225.0255608423441913
  0
LINE
  5
1D9FD
  8
0
 10
3476.7794757133569874
 20
165.2738383124608958
 30
0.0
 11
3476.8573999166710564
 21
165.1959127888858063
 31
0.0
  0
ARC
  5
1D9FE
  8
0
 10
3476.7975079043621918
 20
165.3144890490922023
 30
0.0
 40
0.0060672774984552
 50
126.1177842438766987
 51
140.8184889155942869
  0
ARC
  5
1D9FF
  8
0
 10
3476.7996883390687799
 20
165.3115008754872122
 30
0.0
 40
0.0097663959076398
 50
91.4476132924728944
 51
126.117784243881502
  0
ARC
  5
1DA00
  8
0
 10
3476.8006314591711998
 20
165.2741806166710887
 30
0.0
 40
0.0470985696138309
 50
74.2620821423311241
 51
91.4476132924728944
  0
ARC
  5
1DA01
  8
0
 10
3476.771824537311204
 20
165.1719564687967079
 30
0.0
 40
0.1533041022176491
 50
53.8688993427108826
 51
74.2620821423311241
  0
ARC
  5
1DA02
  8
0
 10
3476.4436678476890847
 20
164.7224540470552085
 30
0.0
 40
0.7098463199295291
 50
49.8313670689355703
 51
53.8688993427108826
  0
ARC
  5
1DA03
  8
0
 10
3476.8479543745038427
 20
165.2013941480205119
 30
0.0
 40
0.0830838321585389
 50
31.709335840012681
 51
49.8313670689355703
  0
ARC
  5
1DA04
  8
0
 10
3476.8666032430051018
 20
165.2129161221319862
 30
0.0
 40
0.06116269660889
 50
21.2500996189988101
 51
31.709335840011299
  0
ARC
  5
1DA05
  8
0
 10
3476.913832688581806
 20
165.2312827435694089
 30
0.0
 40
0.0104877194254398
 50
350.9493533805937773
 51
21.2500996190063915
  0
ARC
  5
1DA06
  8
0
 10
3476.9162009324359133
 20
165.2309055043668025
 30
0.0
 40
0.0080896184339554
 50
333.8089805705719186
 51
350.9493533805825791
  0
ARC
  5
1DA07
  8
0
 10
3476.9190026671349187
 20
165.2295274254130106
 30
0.0
 40
0.0049673085629909
 50
313.0012764056849051
 51
333.8089805705732829
  0
ARC
  5
1DA08
  8
0
 10
3476.9624587930547932
 20
165.1829285170425123
 30
0.0
 40
0.0587499821935793
 50
133.0012764056849051
 51
133.4927384914196864
  0
ARC
  5
1DA09
  8
0
 10
3476.6262595597709151
 20
165.4548961592385012
 30
0.0
 40
0.0196850498010158
 50
224.9734880428881922
 51
308.9994930684924839
  0
LINE
  5
1DA0A
  8
0
 10
3476.6386476276570647
 20
165.4395978926789894
 30
0.0
 11
3476.6769571388390432
 21
165.4706197619439934
 31
0.0
  0
LINE
  5
1DA0B
  8
0
 10
3476.5477386274437777
 20
165.5633926173281907
 30
0.0
 11
3476.5330246460130184
 21
165.5452226638788034
 31
0.0
  0
ARC
  5
1DA0C
  8
0
 10
3476.5483226927171927
 20
165.5328343362967871
 30
0.0
 40
0.0196850423998757
 50
140.9995166809970897
 51
225.0255608423441913
  0
LINE
  5
1DA0D
  8
0
 10
3476.5344094768788636
 20
165.5189087009665911
 30
0.0
 11
3476.6123336801938422
 21
165.4409831773913879
 31
0.0
  0
ARC
  5
1DA0E
  8
0
 10
3476.552441667885887
 20
165.5595594375978976
 30
0.0
 40
0.0060672774984552
 50
126.1177842438766987
 51
140.8184889155942869
  0
ARC
  5
1DA0F
  8
0
 10
3476.5546221025929299
 20
165.5565712639929075
 30
0.0
 40
0.0097663959076398
 50
91.4476132924728944
 51
126.117784243881502
  0
ARC
  5
1DA10
  8
0
 10
3476.5555652226948951
 20
165.5192510051768124
 30
0.0
 40
0.0470985696138309
 50
74.2620821423311241
 51
91.4476132924728944
  0
ARC
  5
1DA11
  8
0
 10
3476.5267583008348993
 20
165.4170268573022895
 30
0.0
 40
0.1533041022176491
 50
53.8688993427108826
 51
74.2620821423311241
  0
ARC
  5
1DA12
  8
0
 10
3476.1986016112118705
 20
164.9675244355609038
 30
0.0
 40
0.7098463199295291
 50
49.8313670689355703
 51
53.8688993427108826
  0
ARC
  5
1DA13
  8
0
 10
3476.6028881380270832
 20
165.4464645365260935
 30
0.0
 40
0.0830838321585389
 50
31.709335840012681
 51
49.8313670689355703
  0
ARC
  5
1DA14
  8
0
 10
3476.6215370065278876
 20
165.4579865106377099
 30
0.0
 40
0.06116269660889
 50
21.2500996189988101
 51
31.709335840011299
  0
ARC
  5
1DA15
  8
0
 10
3476.6687664521050465
 20
165.4763531320751042
 30
0.0
 40
0.0104877194254398
 50
350.9493533805937773
 51
21.2500996190063915
  0
ARC
  5
1DA16
  8
0
 10
3476.6711346959577895
 20
165.4759758928724978
 30
0.0
 40
0.0080896184339554
 50
333.8089805705719186
 51
350.9493533805825791
  0
ARC
  5
1DA17
  8
0
 10
3476.6739364306581592
 20
165.4745978139187059
 30
0.0
 40
0.0049673085629909
 50
313.0012764056849051
 51
333.8089805705732829
  0
ARC
  5
1DA18
  8
0
 10
3476.7173925565789432
 20
165.4279989055482076
 30
0.0
 40
0.0587499821935793
 50
133.0012764056849051
 51
133.4927384914196864
  0
ARC
  5
1DA19
  8
0
 10
3476.4214076602611385
 20
165.5149746860670064
 30
0.0
 40
0.0196850498010158
 50
224.9734880428881922
 51
308.9994930684924839
  0
LINE
  5
1DA1A
  8
0
 10
3476.4337957281468334
 20
165.4996764195074945
 30
0.0
 11
3476.4625717501799045
 21
165.5229783611387973
 31
0.0
  0
LINE
  5
1DA1B
  8
0
 10
3476.3473687851901559
 20
165.6290140238876916
 30
0.0
 11
3476.3281727465041513
 21
165.6053011907071948
 31
0.0
  0
ARC
  5
1DA1C
  8
0
 10
3476.3434707932069614
 20
165.5929128631252922
 30
0.0
 40
0.0196850423998757
 50
140.9995166809970897
 51
225.0255608423441913
  0
LINE
  5
1DA1D
  8
0
 10
3476.3295575773699966
 20
165.5789872277950963
 30
0.0
 11
3476.4074817806849751
 21
165.501061704219893
 31
0.0
  0
ARC
  5
1DA1E
  8
0
 10
3476.3514292885029136
 20
165.6253887213563871
 30
0.0
 40
0.0054433910021604
 50
91.1188697550626756
 51
138.2408533408853089
  0
ARC
  5
1DA1F
  8
0
 10
3476.349123361680995
 20
165.5926654596196101
 30
0.0
 40
0.038228949163987
 50
60.2363977378890425
 51
86.7014667279517255
  0
ARC
  5
1DA20
  8
0
 10
3476.2642674012768111
 20
165.4341119357808054
 30
0.0
 40
0.2180490988457014
 50
48.9830801940046996
 51
61.5628795573400325
  0
ARC
  5
1DA21
  8
0
 10
3476.3810270171329648
 20
165.5613920585940093
 30
0.0
 40
0.0456160436564156
 50
43.3580883709628822
 51
54.7269650405606711
  0
ARC
  5
1DA22
  8
0
 10
3476.2215529500849698
 20
165.3749673310979915
 30
0.0
 40
0.2907270545033625
 50
37.6205772491919532
 51
48.5002968383627788
  0
ARC
  5
1DA23
  8
0
 10
3476.3786185913891131
 20
165.4960140455092983
 30
0.0
 40
0.0924294933780759
 50
28.8150912508585684
 51
37.6205772491932393
  0
ARC
  5
1DA24
  8
0
 10
3476.4134367513420329
 20
165.5151674351793076
 30
0.0
 40
0.0526908900013824
 50
17.0682283610104797
 51
28.8150912508628494
  0
ARC
  5
1DA25
  8
0
 10
3476.4537236503238091
 20
165.5275368536048006
 30
0.0
 40
0.0105478390701825
 50
353.3447500448331198
 51
17.0682283610135883
  0
ARC
  5
1DA26
  8
0
 10
3476.4580087426570572
 20
165.5270368636319063
 30
0.0
 40
0.006233675618733
 50
333.5063506665828186
 51
353.3447500448169194
  0
ARC
  5
1DA27
  8
0
 10
3476.4603875139409865
 20
165.5258511812077131
 30
0.0
 40
0.0035757825382793
 50
317.1039243867916184
 51
333.5063506665857176
  0
ARC
  5
1DA28
  8
0
 10
3476.4560738373052118
 20
165.529859146346098
 30
0.0
 40
0.009464041251042
 50
313.3607535809946967
 51
317.1039243867916184
  0
ARC
  5
1DA29
  8
0
 10
3476.9971956516860701
 20
164.9391769391328921
 30
0.0
 40
0.0196850498010158
 50
224.9734880428881922
 51
308.9994930684924839
  0
LINE
  5
1DA2A
  8
0
 10
3477.0095837195708555
 20
164.9238786725734087
 30
0.0
 11
3477.0554569509099565
 21
164.9610254108494019
 31
0.0
  0
ARC
  5
1DA2B
  8
0
 10
3477.0542200927170597
 20
164.9625528311468941
 30
0.0
 40
0.0019654085976297
 50
308.999493068589004
 51
350.5257431418613123
  0
ARC
  5
1DA2C
  8
0
 10
3477.0529486385771634
 20
164.962765012379009
 30
0.0
 40
0.0032544456433208
 50
350.5257431418900751
 51
18.891180582720299
  0
ARC
  5
1DA2D
  8
0
 10
3477.0481876725211805
 20
164.9611357880694129
 30
0.0
 40
0.0082864601140604
 50
18.8911805826718115
 51
34.5699531274126528
  0
ARC
  5
1DA2E
  8
0
 10
3477.0248957294202228
 20
164.9450857739192031
 30
0.0
 40
0.0365728096073883
 50
34.5699531274207033
 51
41.9917942713327221
  0
ARC
  5
1DA2F
  8
0
 10
3477.0106521122088452
 20
164.9322644566539111
 30
0.0
 40
0.0557370160266268
 50
41.9917942713513668
 51
51.8304539802810424
  0
ARC
  5
1DA30
  8
0
 10
3476.7994294694331074
 20
164.6635545883447094
 30
0.0
 40
0.3975264221644432
 50
51.8304539802810424
 51
55.3356549939285216
  0
ARC
  5
1DA31
  8
0
 10
3476.8040578444702078
 20
164.6702477061755019
 30
0.0
 40
0.3893888745122628
 50
55.3356549939285216
 51
72.3091182815863789
  0
ARC
  5
1DA32
  8
0
 10
3476.9177286077688223
 20
165.0266210797867927
 30
0.0
 40
0.0153260136882945
 50
72.3091182815610694
 51
96.77911187287323
  0
ARC
  5
1DA33
  8
0
 10
3476.9169617193369959
 20
165.0330724028931115
 30
0.0
 40
0.0088292692968264
 50
96.77911187287323
 51
110.6371455845114014
  0
ARC
  5
1DA34
  8
0
 10
3476.9149102409060106
 20
165.0390908336204063
 30
0.0
 40
0.0024821734587061
 50
115.2899755285441046
 51
145.1382120418032002
  0
LINE
  5
1DA35
  8
0
 10
3476.9128735349959243
 20
165.0405096409054977
 30
0.0
 11
3476.9039607379281733
 21
165.0295034437731942
 31
0.0
  0
ARC
  5
1DA36
  8
0
 10
3476.9192587846318929
 20
165.0171151161912917
 30
0.0
 40
0.0196850423998757
 50
140.9995166809970897
 51
225.0255608423441913
  0
LINE
  5
1DA37
  8
0
 10
3476.9053455687940186
 20
165.0031894808610105
 30
0.0
 11
3477.0286056994750652
 21
164.8799272618028908
 31
0.0
  0
ARC
  5
1DA38
  8
0
 10
3476.8666762567781916
 20
165.0696985454657977
 30
0.0
 40
0.0196850498010158
 50
224.9734880428881922
 51
308.9994930684924839
  0
LINE
  5
1DA39
  8
0
 10
3476.879064324662977
 20
165.0544002789062858
 30
0.0
 11
3476.9165473722819115
 21
165.0847529032807017
 31
0.0
  0
LINE
  5
1DA3A
  8
0
 10
3476.7859012853077729
 20
165.1754159385002083
 30
0.0
 11
3476.7734413430198401
 21
165.1600250501059861
 31
0.0
  0
ARC
  5
1DA3B
  8
0
 10
3476.7887393897240145
 20
165.147636722524112
 30
0.0
 40
0.0196850423998757
 50
140.9995166809970897
 51
225.0255608423441913
  0
LINE
  5
1DA3C
  8
0
 10
3476.7748261738861402
 20
165.1337110871938023
 30
0.0
 11
3476.8527503772011187
 21
165.0557855636187128
 31
0.0
  0
ARC
  5
1DA3D
  8
0
 10
3476.6667039588392072
 20
165.269674231512397
 30
0.0
 40
0.0196850498010158
 50
224.9734880428881922
 51
308.9994930684924839
  0
LINE
  5
1DA3E
  8
0
 10
3476.6790920267249021
 20
165.2543759649529136
 30
0.0
 11
3476.7126986816260796
 21
165.2815896051853031
 31
0.0
  0
LINE
  5
1DA3F
  8
0
 10
3476.5881830265120698
 20
165.3781706896020864
 30
0.0
 11
3476.5734690450808557
 21
165.3600007361526139
 31
0.0
  0
ARC
  5
1DA40
  8
0
 10
3476.5887670917850301
 20
165.3476124085707113
 30
0.0
 40
0.0196850423998757
 50
140.9995166809970897
 51
225.0255608423441913
  0
LINE
  5
1DA41
  8
0
 10
3476.5748538759480653
 20
165.3336867732404016
 30
0.0
 11
3476.6527780792612248
 21
165.2557612496653121
 31
0.0
  0
ARC
  5
1DA42
  8
0
 10
3476.5928860669528149
 20
165.3743375098717081
 30
0.0
 40
0.0060672774984552
 50
126.1177842438766987
 51
140.8184889155942869
  0
ARC
  5
1DA43
  8
0
 10
3476.595066501661222
 20
165.3713493362668032
 30
0.0
 40
0.0097663959076398
 50
110.8257611559121045
 51
126.117784243881502
  0
ARC
  5
1DA44
  8
0
 10
3476.7078967570910208
 20
165.2864955693862044
 30
0.0
 40
0.0068649081549521
 50
314.3859833236643908
 51
317.5760981256378841
  0
ARC
  5
1DA45
  8
0
 10
3476.7105031440128187
 20
165.2841136164331033
 30
0.0
 40
0.0033340509421954
 50
317.5760981255691036
 51
351.4014255792291124
  0
ARC
  5
1DA46
  8
0
 10
3476.7070181930980652
 20
165.2846405770141018
 30
0.0
 40
0.0068586176289723
 50
351.4014255792387758
 51
12.1480133634804908
  0
ARC
  5
1DA47
  8
0
 10
3476.695732948955083
 20
165.2822113369506098
 30
0.0
 40
0.0184023580395365
 50
12.1480133634757106
 51
29.9809717050945288
  0
ARC
  5
1DA48
  8
0
 10
3476.6397888115488968
 20
165.2499367419530927
 30
0.0
 40
0.0829887032861343
 50
29.9809717050959286
 51
39.1851197606943913
  0
ARC
  5
1DA49
  8
0
 10
3476.5566791302949241
 20
165.1821900739186901
 30
0.0
 40
0.1902119757040028
 50
39.1851197606943913
 51
49.6464607540378893
  0
ARC
  5
1DA4A
  8
0
 10
3476.3191605938441171
 20
164.9026477886220903
 30
0.0
 40
0.557034745480813
 50
49.6464607540378893
 51
55.4203784422947905
  0
ARC
  5
1DA4B
  8
0
 10
3476.5422792600638786
 20
165.2263229431291052
 30
0.0
 40
0.1639093903321632
 50
55.4203784422947905
 51
65.7313207631381289
  0
ARC
  5
1DA4C
  8
0
 10
3476.5783672245679554
 20
165.3063655596633055
 30
0.0
 40
0.0761075586672573
 50
65.7313207631381289
 51
76.446797813339046
  0
ARC
  5
1DA4D
  8
0
 10
3476.593607404109207
 20
165.3695868036168122
 30
0.0
 40
0.0110753454227368
 50
76.4467978133129549
 51
100.4726464676603968
  0
ARC
  5
1DA4E
  8
0
 10
3476.9153239078477782
 20
165.0861671494608061
 30
0.0
 40
0.0018700153690462
 50
310.863084119435598
 51
331.0477888025292827
  0
ARC
  5
1DA4F
  8
0
 10
3476.9152606194538748
 20
165.0862021618158906
 30
0.0
 40
0.0019423429973152
 50
331.0477888025649236
 51
5.7775920622216006
  0
ARC
  5
1DA50
  8
0
 10
3476.9100750026550486
 20
165.0856774749684064
 30
0.0
 40
0.0071544364219608
 50
5.7775920622037793
 51
18.7845375393493015
  0
ARC
  5
1DA51
  8
0
 10
3476.9060640412340035
 20
165.0843132400977993
 30
0.0
 40
0.0113910563373923
 50
18.7845375393585492
 51
36.5339077466502431
  0
ARC
  5
1DA52
  8
0
 10
3476.8730099558661095
 20
165.0620684296592913
 30
0.0
 40
0.0512242188473471
 50
34.5165206075763535
 51
41.4303262869596907
  0
ARC
  5
1DA53
  8
0
 10
3476.8568396026671508
 20
165.0511138466488035
 30
0.0
 40
0.070640645758716
 50
39.4129391478602429
 51
50.2446706540895178
  0
ARC
  5
1DA54
  8
0
 10
3476.3185474699371298
 20
164.4040103458083877
 30
0.0
 40
0.9123658746538916
 50
50.2446706540895178
 51
53.705848747779612
  0
ARC
  5
1DA55
  8
0
 10
3476.6774422339331068
 20
164.8926909077947869
 30
0.0
 40
0.3060539555171653
 50
53.7058487477786528
 51
62.6551780568312111
  0
ARC
  5
1DA56
  8
0
 10
3476.7139826431339316
 20
164.9633509717905042
 30
0.0
 40
0.2265049382481161
 50
62.6551780568312111
 51
69.5835178851026512
  0
ARC
  5
1DA57
  8
0
 10
3476.7889952689238271
 20
165.1648763827141977
 30
0.0
 40
0.0114714867205902
 50
69.5835178851043565
 51
94.9346024087577263
  0
ARC
  5
1DA58
  8
0
 10
3476.7883295723650008
 20
165.1726037209255935
 30
0.0
 40
0.0037155276497158
 50
94.9572066418372742
 51
130.8098752080842075
  0
ARC
  5
1DA59
  8
0
 10
3476.6624072955301017
 20
165.1732070770574978
 30
0.0
 40
0.0196850498010158
 50
224.9734880428881922
 51
308.9994930684924839
  0
LINE
  5
1DA5A
  8
0
 10
3476.6747953634148871
 20
165.157908810497986
 30
0.0
 11
3476.7122784110338216
 21
165.1882614348724871
 31
0.0
  0
LINE
  5
1DA5B
  8
0
 10
3476.5816323240601378
 20
165.2789244700919937
 30
0.0
 11
3476.569172381772205
 21
165.2635335816977999
 31
0.0
  0
ARC
  5
1DA5C
  8
0
 10
3476.5844704284759246
 20
165.2511452541158974
 30
0.0
 40
0.0196850423998757
 50
140.9995166809970897
 51
225.0255608423441913
  0
LINE
  5
1DA5D
  8
0
 10
3476.5705572126380503
 20
165.2372196187855877
 30
0.0
 11
3476.7137569228912071
 21
165.0940174822214033
 31
0.0
  0
ARC
  5
1DA5E
  8
0
 10
3476.7110549465987788
 20
165.1896756810525915
 30
0.0
 40
0.0018700153690462
 50
310.863084119435598
 51
331.0477888025292827
  0
ARC
  5
1DA5F
  8
0
 10
3476.7109916582048754
 20
165.1897106934077044
 30
0.0
 40
0.0019423429973152
 50
331.0477888025649236
 51
5.7775920622216006
  0
ARC
  5
1DA60
  8
0
 10
3476.7058060414069587
 20
165.1891860065601918
 30
0.0
 40
0.0071544364219608
 50
5.7775920622037793
 51
18.7845375393493015
  0
ARC
  5
1DA61
  8
0
 10
3476.7017950799859136
 20
165.1878217716896131
 30
0.0
 40
0.0113910563373923
 50
18.7845375393585492
 51
36.5339077466502431
  0
ARC
  5
1DA62
  8
0
 10
3476.6687409946180196
 20
165.1655769612509914
 30
0.0
 40
0.0512242188473471
 50
34.5165206075763535
 51
41.4303262869596907
  0
ARC
  5
1DA63
  8
0
 10
3476.6525706414190608
 20
165.1546223782405036
 30
0.0
 40
0.070640645758716
 50
39.4129391478602429
 51
50.2446706540895178
  0
ARC
  5
1DA64
  8
0
 10
3476.1142785086881304
 20
164.5075188774002015
 30
0.0
 40
0.9123658746538916
 50
50.2446706540895178
 51
53.705848747779612
  0
ARC
  5
1DA65
  8
0
 10
3476.4731732726850169
 20
164.996199439386487
 30
0.0
 40
0.3060539555171653
 50
53.7058487477786528
 51
62.6551780568312111
  0
ARC
  5
1DA66
  8
0
 10
3476.5097136818858417
 20
165.0668595033822896
 30
0.0
 40
0.2265049382481161
 50
62.6551780568312111
 51
69.5835178851026512
  0
ARC
  5
1DA67
  8
0
 10
3476.5847263076761919
 20
165.2683849143058978
 30
0.0
 40
0.0114714867205902
 50
69.5835178851043565
 51
94.9346024087577263
  0
ARC
  5
1DA68
  8
0
 10
3476.5840606111160014
 20
165.2761122525174073
 30
0.0
 40
0.0037155276497158
 50
94.9572066418372742
 51
130.8098752080842075
  0
ARC
  5
1DA69
  8
0
 10
3476.7276764656648993
 20
165.107936789141803
 30
0.0
 40
0.0196850393999997
 50
224.9995145844015099
 51
308.9995146262377261
  0
LINE
  5
1DA6A
  8
0
 10
3476.7400645327611528
 20
165.0926385353265005
 30
0.0
 11
3476.7756807407549786
 21
165.1214794723165085
 31
0.0
  0
LINE
  5
1DA6B
  8
0
 10
3476.698781559508916
 20
165.1773320977297885
 30
0.0
 11
3476.8171324181939781
 21
165.0913727146725876
 31
0.0
  0
LINE
  5
1DA6C
  8
0
 10
3476.8748917511479704
 20
165.0518098105208935
 30
0.0
 11
3476.9054766791268776
 21
165.0313730030559043
 31
0.0
  0
LINE
  5
1DA6D
  8
0
 10
3477.2038099435781078
 20
164.8494968927942068
 30
0.0
 11
3477.0384381217081682
 21
164.9472441092426891
 31
0.0
  0
LINE
  5
1DA6E
  8
0
 10
3477.0969721460569417
 20
164.9126460871434006
 30
0.0
 11
3477.0549133093418277
 21
164.8785483149889899
 31
0.0
  0
ARC
  5
1DA6F
  8
0
 10
3477.042524363343091
 20
164.8938298018406954
 30
0.0
 40
0.019672565246171
 50
224.966795244214893
 51
309.032235432356174
  0
LINE
  5
1DA70
  8
0
 10
3476.2324380711288541
 20
165.5202230997568051
 30
0.0
 11
3476.3103680184949553
 21
165.4422918320283031
 31
0.0
  0
ARC
  5
1DA71
  8
0
 10
3476.3242952523778513
 20
165.4562188299460956
 30
0.0
 40
0.0196959161912889
 50
224.9995146245146032
 51
308.9710241473202927
  0
LINE
  5
1DA72
  8
0
 10
3476.3366825515558958
 20
165.4409059617080118
 30
0.0
 11
3476.3630857884841134
 21
165.462287070937208
 31
0.0
  0
ARC
  5
1DA73
  8
0
 10
3476.362827685818047
 20
165.4625544717798107
 30
0.0
 40
0.0003716452564229
 50
313.9863232140050968
 51
7.6404872499881833
  0
ARC
  5
1DA74
  8
0
 10
3476.360721032885067
 20
165.46233069589141
 30
0.0
 40
0.0024900302047551
 50
6.2987706956940102
 51
29.2151183961321408
  0
ARC
  5
1DA75
  8
0
 10
3476.335923428373917
 20
165.4474437987468036
 30
0.0
 40
0.0314119618962858
 50
30.8381988855638411
 51
39.6974551022647404
  0
ARC
  5
1DA76
  8
0
 10
3476.1382505168280659
 20
165.2794681180619989
 30
0.0
 40
0.2908140569338101
 50
40.2855346015636115
 51
43.9647820690512532
  0
ARC
  5
1DA77
  8
0
 10
3475.523179832554888
 20
164.6785613451878021
 30
0.0
 40
1.1506938122469581
 50
44.2396715448003874
 51
49.112097621526793
  0
ARC
  5
1DA78
  8
0
 10
3476.1272009663907738
 20
165.3829988194351017
 30
0.0
 40
0.2228090240314414
 50
47.9608614764021866
 51
56.4111793711752725
  0
ARC
  5
1DA79
  8
0
 10
3476.2487024537281286
 20
165.564649086770487
 30
0.0
 40
0.0043311771418965
 50
65.9814256327274791
 51
79.5256955684442914
  0
ARC
  5
1DA7A
  8
0
 10
3476.2493981439670279
 20
165.5684756107280009
 30
0.0
 40
0.0004420943703309
 50
78.0294722398887046
 51
135.7067326943478065
  0
LINE
  5
1DA7B
  8
0
 10
3476.2490817039579269
 20
165.5687843390118985
 30
0.0
 11
3476.2310595699391342
 21
165.546530732983797
 31
0.0
  0
ARC
  5
1DA7C
  8
0
 10
3476.2463576138939061
 20
165.5341424066874083
 30
0.0
 40
0.0196850393999974
 50
140.9995146261960031
 51
224.9995146245157116
  0
LINE
  5
1DA7D
  8
0
 10
3476.4962825189099931
 20
165.3360753412368069
 30
0.0
 11
3476.5267819876098656
 21
165.3607708772024125
 31
0.0
  0
ARC
  5
1DA7E
  8
0
 10
3476.5248566362870406
 20
165.3624659697694028
 30
0.0
 40
0.0025652127640167
 50
318.6390869077135903
 51
336.2068400378536239
  0
ARC
  5
1DA7F
  8
0
 10
3476.5241143409120923
 20
165.3622427429799018
 30
0.0
 40
0.0031943279214012
 50
345.2798519870784162
 51
10.8844207593497107
  0
ARC
  5
1DA80
  8
0
 10
3476.5093438533322114
 20
165.3575930523358011
 30
0.0
 40
0.0186618816741929
 50
16.3483128371131308
 51
34.740373965540833
  0
ARC
  5
1DA81
  8
0
 10
3476.3671328251980412
 20
165.2529986973885912
 30
0.0
 40
0.1951885108111948
 50
36.1816504337581009
 51
46.6201805547210384
  0
ARC
  5
1DA82
  8
0
 10
3476.1447191139291135
 20
165.0337794082981873
 30
0.0
 40
0.5074026394783845
 50
45.3681104281117626
 51
56.4135081314918096
  0
ARC
  5
1DA83
  8
0
 10
3476.3928009308560831
 20
165.4073909395845021
 30
0.0
 40
0.058927264198763
 50
56.3988104511063568
 51
72.0273656217377436
  0
ARC
  5
1DA84
  8
0
 10
3476.4100943072439804
 20
165.4591424141071059
 30
0.0
 40
0.0043913803923867
 50
78.3151344075741633
 51
119.0626991036838973
  0
LINE
  5
1DA85
  8
0
 10
3476.4079611220631705
 20
165.4629808698815907
 30
0.0
 11
3476.3908536802491653
 21
165.4418553046216118
 31
0.0
  0
ARC
  5
1DA86
  8
0
 10
3476.4061517241548245
 20
165.4294669783085112
 30
0.0
 40
0.019685039399994
 50
140.9995002841330063
 51
224.9995146262509991
  0
LINE
  5
1DA87
  8
0
 10
3476.3922321813911367
 20
165.4155476713779933
 30
0.0
 11
3476.4701690523211255
 21
165.3376094799722011
 31
0.0
  0
ARC
  5
1DA88
  8
0
 10
3476.4840885947801326
 20
165.3515287865982089
 30
0.0
 40
0.0196850389691643
 50
224.9995146262509991
 51
308.2760808186923214
  0
LINE
  5
1DA89
  8
0
 10
3476.4647197885337846
 20
165.3430588360808997
 30
0.0
 11
3476.4480370069131823
 21
165.3295496198084891
 31
0.0
  0
ARC
  5
1DA8A
  8
0
 10
3476.4356489398091981
 20
165.3448478735365086
 30
0.0
 40
0.019685039336654
 50
224.999514255453704
 51
308.9995148022954936
  0
ARC
  5
1DA8B
  8
0
 10
3476.3577120695608755
 20
165.4227860647999933
 30
0.0
 40
0.0196850397154398
 50
140.9995153444058928
 51
224.9995149935558914
  0
LINE
  5
1DA8C
  8
0
 10
3476.4217293970000355
 20
165.3309285667407096
 30
0.0
 11
3476.3437925268449362
 21
165.408866757375506
 31
0.0
  0
LINE
  5
1DA8D
  8
0
 10
3476.3424140252018333
 20
165.435174391054403
 30
0.0
 11
3476.3588014692249999
 21
165.4554108455843959
 31
0.0
  0
LINE
  5
1DA8E
  8
0
 10
3476.3567810063391335
 20
165.4571779327407057
 30
0.0
 11
3476.3865389187799337
 21
165.4311518051518135
 31
0.0
  0
LINE
  5
1DA8F
  8
0
 10
3476.496282507982869
 20
165.336075332614314
 30
0.0
 11
3476.5755633592511913
 21
165.2714256537902031
 31
0.0
  0
LINE
  5
1DA90
  8
0
 10
3479.3068597089149989
 20
160.048245401673995
 30
0.0
 11
3479.306861748656047
 21
159.8561109044615023
 31
0.0
  0
ARC
  5
1DA91
  8
0
 10
3479.3265469274801944
 20
159.8561110438851074
 30
0.0
 40
0.0196851788241936
 50
180.0004058072360067
 51
269.9995843802636273
  0
LINE
  5
1DA92
  8
0
 10
3479.3265467846849788
 20
159.8364258650613863
 30
0.0
 11
3480.1656480859510339
 21
159.8364258650613863
 31
0.0
  0
ARC
  5
1DA93
  8
0
 10
3480.1656480862270655
 20
159.8561109042906878
 30
0.0
 40
0.0196850392292918
 50
269.9999991988836996
 51
0.0000002058043808
  0
LINE
  5
1DA94
  8
0
 10
3480.1853331254560544
 20
159.856110904361401
 30
0.0
 11
3480.1853331254560544
 21
160.071362044884097
 31
0.0
  0
ARC
  5
1DA95
  8
0
 10
3480.1333560404750642
 20
160.071362044884097
 30
0.0
 40
0.0519770849808943
 50
359.9999999999984084
 51
3.814524575054306
  0
ARC
  5
1DA96
  8
0
 10
3480.2258140468770762
 20
162.7889603864541925
 30
0.0
 40
2.7179114026342179
 50
267.766475877007224
 51
269.1465977485070198
  0
ARC
  5
1DA97
  8
0
 10
3479.340585458813166
 20
159.7970557177985995
 30
0.0
 40
0.0393702442432664
 50
0.0000996344439283
 51
89.8728267759950938
  0
LINE
  5
1DA98
  8
0
 10
3479.3799557030561118
 20
159.79705578626141
 30
0.0
 11
3479.3799557030561118
 21
159.7616635909191132
 31
0.0
  0
LINE
  5
1DA99
  8
0
 10
3479.3805712665562169
 20
159.7619845323615095
 30
0.0
 11
3479.3401414974559884
 21
159.7409053286615119
 31
0.0
  0
ARC
  5
1DA9A
  8
0
 10
3479.3446843538040412
 20
159.7315990482908035
 30
0.0
 40
0.0103558871245978
 50
116.0192948831969062
 51
241.3767395658269095
  0
LINE
  5
1DA9B
  8
0
 10
3479.3397233841560592
 20
159.7225087689614043
 30
0.0
 11
3479.3799557030561118
 21
159.7015139828978931
 31
0.0
  0
LINE
  5
1DA9C
  8
0
 10
3479.3799557030561118
 20
159.7018403742555108
 30
0.0
 11
3479.3799557030561118
 21
159.69014367846151
 31
0.0
  0
LINE
  5
1DA9D
  8
0
 10
3479.3806542972552052
 20
159.6905081921615022
 30
0.0
 11
3479.3402584319060225
 21
159.6694339636216
 31
0.0
  0
ARC
  5
1DA9E
  8
0
 10
3479.344941205114992
 20
159.6601669356674051
 30
0.0
 40
0.010382975105017
 50
116.8081790511123046
 51
238.5850547184620041
  0
ARC
  5
1DA9F
  8
0
 10
3479.3849550566387734
 20
159.7525230503565865
 30
0.0
 40
0.0104277158196466
 50
100.4962801624851068
 51
114.859712640304096
  0
ARC
  5
1DAA0
  8
0
 10
3479.4108051084222097
 20
159.6129980987840895
 30
0.0
 40
0.1523271072506327
 50
96.4159479185921953
 51
100.4962801624851068
  0
ARC
  5
1DAA1
  8
0
 10
3480.1783057415009353
 20
145.6851184454189081
 30
0.0
 40
14.1010933101304801
 50
91.3447435782088348
 51
93.1893307122773678
  0
ARC
  5
1DAA2
  8
0
 10
3479.7197579720650538
 20
165.2559462057390078
 30
0.0
 40
5.4751056881391387
 50
271.3356637886449221
 51
273.9868832629848043
  0
ARC
  5
1DAA3
  8
0
 10
3480.0937660748331837
 20
159.8468211624237938
 30
0.0
 40
0.0531504748920052
 50
277.2044206797153265
 51
290.3332266603782159
  0
ARC
  5
1DAA4
  8
0
 10
3480.1516110201341689
 20
159.7970495647799964
 30
0.0
 40
0.0393763023654122
 50
90.0186409708815063
 51
180.0974072732670948
  0
LINE
  5
1DAA5
  8
0
 10
3480.1122347746731975
 20
159.7969826220412983
 30
0.0
 11
3480.1525753373261978
 21
159.7759579641088976
 31
0.0
  0
ARC
  5
1DAA6
  8
0
 10
3480.1479785578640076
 20
159.7671489268080052
 30
0.0
 40
0.0099362729226489
 50
293.9497786621931823
 51
62.4433030434349803
  0
LINE
  5
1DAA7
  8
0
 10
3480.15201204615596
 20
159.7580681508615044
 30
0.0
 11
3480.111618147056106
 21
159.7369959961615109
 31
0.0
  0
LINE
  5
1DAA8
  8
0
 10
3480.1122391676558436
 20
159.737319931663194
 30
0.0
 11
3480.1122391676558436
 21
159.7255688498615029
 31
0.0
  0
ARC
  5
1DAA9
  8
0
 10
3480.1117528301110724
 20
159.7256029390590868
 30
0.0
 40
0.0004875307998007
 50
308.8471470435080164
 51
355.9904846984036908
  0
ARC
  5
1DAAA
  8
0
 10
3480.1088947496009496
 20
159.729879377360902
 30
0.0
 40
0.0056293666706178
 50
283.3754163100510937
 51
304.1964102073022218
  0
ARC
  5
1DAAB
  8
0
 10
3480.0299407242218876
 20
160.2575472025185093
 30
0.0
 40
0.5391512987759824
 50
272.0200536592598155
 51
278.5606750125979261
  0
ARC
  5
1DAAC
  8
0
 10
3479.1521365603121012
 20
179.8764475964422047
 30
0.0
 40
20.1776561120302986
 50
271.5420844411235066
 51
272.5473868114902984
  0
ARC
  5
1DAAD
  8
0
 10
3479.851845172882804
 20
152.686169290792094
 30
0.0
 40
7.0216787797620972
 50
91.2787829061776961
 51
93.7585324724065288
  0
ARC
  5
1DAAE
  8
0
 10
3479.3957420278798054
 20
159.6446613684620104
 30
0.0
 40
0.0482656281293784
 50
94.9683220451336325
 51
108.2158577436048006
  0
ARC
  5
1DAAF
  8
0
 10
3479.3803878375811109
 20
159.7018403742584951
 30
0.0
 40
0.0004321345251768
 50
132.0211513128016918
 51
180.0000003927058003
  0
ARC
  5
1DAB0
  8
0
 10
3479.3821542401169609
 20
159.6998800413061019
 30
0.0
 40
0.0030708999943107
 50
122.0384112698346968
 51
132.0211513128028002
  0
ARC
  5
1DAB1
  8
0
 10
3479.3828175726848713
 20
159.6988200692040891
 30
0.0
 40
0.0043213203050916
 50
101.8661143047230979
 51
122.0384112698346968
  0
ARC
  5
1DAB2
  8
0
 10
3479.3923115186112227
 20
159.6668153883948094
 30
0.0
 40
0.0376918381882205
 50
99.4295087325235727
 51
105.9893113454802034
  0
ARC
  5
1DAB3
  8
0
 10
3479.7962820747720798
 20
154.0486507511288892
 30
0.0
 40
5.6702002851728057
 50
91.1656353950335472
 51
94.1480301634735639
  0
ARC
  5
1DAB4
  8
0
 10
3471.2786004923359542
 20
424.8515222947102075
 30
0.0
 40
265.2669500370478772
 50
271.8151481503845162
 51
271.8676760146387892
  0
ARC
  5
1DAB5
  8
0
 10
3479.7963198702568661
 20
163.957387447573808
 30
0.0
 40
4.233820948069476
 50
271.7281609265135103
 51
274.0475293332272031
  0
ARC
  5
1DAB6
  8
0
 10
3480.088874230248166
 20
159.818807151045803
 30
0.0
 40
0.0849137846010296
 50
274.2450661983439772
 51
285.536200930360792
  0
ARC
  5
1DAB7
  8
0
 10
3479.3537960926701089
 20
159.6879100962136135
 30
0.0
 40
0.0380121155973427
 50
90.4859562850113264
 51
112.8462824720549946
  0
ARC
  5
1DAB8
  8
0
 10
3479.440424153047843
 20
158.8132202550733894
 30
0.0
 40
0.9168329990767752
 50
92.5833940142323968
 51
95.4419863641082031
  0
ARC
  5
1DAB9
  8
0
 10
3480.4145530171440441
 20
135.0369491051104092
 30
0.0
 40
24.7130435503875816
 50
91.4070402035884229
 51
92.3549343600734289
  0
ARC
  5
1DABA
  8
0
 10
3479.5362465926568802
 20
171.490005331477704
 30
0.0
 40
11.7506005734837604
 50
271.3238373894797064
 51
272.8273471237886838
  0
ARC
  5
1DABB
  8
0
 10
3480.1084801690990389
 20
159.959395108554304
 30
0.0
 40
0.2058188725294457
 50
272.0555299144859873
 51
282.3854030066050882
  0
LINE
  5
1DABC
  8
0
 10
3479.3395292635559599
 20
159.6513059503614897
 30
0.0
 11
3479.3799557030561118
 21
159.6301675519100058
 31
0.0
  0
LINE
  5
1DABD
  8
0
 10
3479.3799557030561118
 20
159.6304532679615136
 30
0.0
 11
3479.3799557030561118
 21
159.6187102241362084
 31
0.0
  0
LINE
  5
1DABE
  8
0
 10
3479.3805522631560052
 20
159.619021343961407
 30
0.0
 11
3479.3401481609371331
 21
159.5979496745351867
 31
0.0
  0
ARC
  5
1DABF
  8
0
 10
3479.3449882417630761
 20
159.5886690087988882
 30
0.0
 40
0.0104669546150525
 50
117.5430779065051041
 51
242.9432739955049101
  0
LINE
  5
1DAC0
  8
0
 10
3479.3402271127561107
 20
159.5793475931614012
 30
0.0
 11
3479.3799557030561118
 21
159.5586287807404062
 31
0.0
  0
LINE
  5
1DAC1
  8
0
 10
3479.3799557030561118
 20
159.5589762727614129
 30
0.0
 11
3479.3799557030561118
 21
159.4702818840613929
 31
0.0
  0
ARC
  5
1DAC2
  8
0
 10
3479.399640742371048
 20
159.4702818840260932
 30
0.0
 40
0.0196850393146377
 50
179.9999998970903903
 51
270.0000002484613901
  0
LINE
  5
1DAC3
  8
0
 10
3479.3996407424560857
 20
159.4505968447114981
 30
0.0
 11
3480.0925541282558697
 21
159.4505968447114981
 31
0.0
  0
ARC
  5
1DAC4
  8
0
 10
3480.0925541283409075
 20
159.4702818840262069
 30
0.0
 40
0.0196850393147466
 50
269.9999997518772261
 51
0.000000102600114
  0
LINE
  5
1DAC5
  8
0
 10
3480.1122391676558436
 20
159.4702818840613929
 30
0.0
 11
3480.1122391676558436
 21
159.5229942137397074
 31
0.0
  0
LINE
  5
1DAC6
  8
0
 10
3480.1115628745560571
 20
159.522603808461497
 30
0.0
 11
3480.1523522753059297
 21
159.5439499034615096
 31
0.0
  0
ARC
  5
1DAC7
  8
0
 10
3480.1472687565069464
 20
159.5529813930897944
 30
0.0
 40
0.0103638780524518
 50
299.3736827020600799
 51
61.787171909280751
  0
LINE
  5
1DAC8
  8
0
 10
3480.1521682598558982
 20
159.5621140178614041
 30
0.0
 11
3480.1122391676558436
 21
159.5829550000271979
 31
0.0
  0
LINE
  5
1DAC9
  8
0
 10
3480.1122391676558436
 20
159.5826582777615101
 30
0.0
 11
3480.1122391676558436
 21
159.5943747793157002
 31
0.0
  0
LINE
  5
1DACA
  8
0
 10
3480.1116453876561536
 20
159.5940651624615043
 30
0.0
 11
3480.1520629089559407
 21
159.6151402168613913
 31
0.0
  0
ARC
  5
1DACB
  8
0
 10
3480.1472137386281247
 20
159.624439905550787
 30
0.0
 40
0.0104880247230632
 50
297.5390507284728869
 51
62.7394757363584574
  0
LINE
  5
1DACC
  8
0
 10
3480.152017644155876
 20
159.6337630570712065
 30
0.0
 11
3480.1122391676558436
 21
159.6545042129721992
 31
0.0
  0
LINE
  5
1DACD
  8
0
 10
3480.1122391676558436
 20
159.6541570639614065
 30
0.0
 11
3480.1122391676558436
 21
159.6658259820000012
 31
0.0
  0
LINE
  5
1DACE
  8
0
 10
3480.1115287330558203
 20
159.6654296458615079
 30
0.0
 11
3480.151942980556214
 21
159.6865363284615
 31
0.0
  0
ARC
  5
1DACF
  8
0
 10
3480.1470878819541213
 20
159.6958326807238961
 30
0.0
 40
0.0104878094864218
 50
297.5761952377740727
 51
58.2984063822509029
  0
LINE
  5
1DAD0
  8
0
 10
3480.1525991767061896
 20
159.7047556722615127
 30
0.0
 11
3480.1122391676558436
 21
159.7258520571641895
 31
0.0
  0
ARC
  5
1DAD1
  8
0
 10
3480.1117882323169397
 20
159.6543344860409093
 30
0.0
 40
0.0004845848540921
 50
303.9176896549662956
 51
338.5222961409687059
  0
ARC
  5
1DAD2
  8
0
 10
3480.1088947496009496
 20
159.6585884961801867
 30
0.0
 40
0.0056293666706178
 50
283.3754163100510937
 51
304.1964102073022218
  0
ARC
  5
1DAD3
  8
0
 10
3480.0299407242218876
 20
160.1862563213377939
 30
0.0
 40
0.5391512987759824
 50
272.0200536592598155
 51
278.5606750125979261
  0
ARC
  5
1DAD4
  8
0
 10
3479.1521365603121012
 20
179.8051567152614894
 30
0.0
 40
20.1776561120302986
 50
271.5420844411235066
 51
272.5473868114902984
  0
ARC
  5
1DAD5
  8
0
 10
3479.851845172882804
 20
152.6148784096114071
 30
0.0
 40
7.0216787797620972
 50
91.2787829061776961
 51
93.7585324724065288
  0
ARC
  5
1DAD6
  8
0
 10
3479.3944427299511517
 20
159.5822984421602087
 30
0.0
 40
0.0392621520615042
 50
94.2076895085519368
 51
110.7191640990263011
  0
ARC
  5
1DAD7
  8
0
 10
3479.3804167516950656
 20
159.6305284979738133
 30
0.0
 40
0.00046714601742
 50
132.9319942026490082
 51
189.2673683053646982
  0
ARC
  5
1DAD8
  8
0
 10
3479.3821542401169609
 20
159.6285891601253866
 30
0.0
 40
0.0030708999943107
 50
122.0384112698346968
 51
132.0211513128028002
  0
ARC
  5
1DAD9
  8
0
 10
3479.3828175726848713
 20
159.6275291880234022
 30
0.0
 40
0.0043213203050916
 50
101.8661143047230979
 51
122.0384112698346968
  0
ARC
  5
1DADA
  8
0
 10
3479.3923115186112227
 20
159.595524507214094
 30
0.0
 40
0.0376918381882205
 50
99.4295087325235727
 51
105.9893113454802034
  0
ARC
  5
1DADB
  8
0
 10
3479.7962820747720798
 20
153.9773598699482022
 30
0.0
 40
5.6702002851728057
 50
91.1656353950335472
 51
94.1480301634735639
  0
ARC
  5
1DADC
  8
0
 10
3471.2786004923359542
 20
424.7802314135295205
 30
0.0
 40
265.2669500370478772
 50
271.8151481503845162
 51
271.8676760146387892
  0
ARC
  5
1DADD
  8
0
 10
3479.7963198702568661
 20
163.8860965663930926
 30
0.0
 40
4.233820948069476
 50
271.7281609265135103
 51
274.0475293332272031
  0
ARC
  5
1DADE
  8
0
 10
3480.0843631355178331
 20
159.7838999411708016
 30
0.0
 40
0.1215449734060772
 50
275.0962044954991939
 51
282.9148315826628846
  0
ARC
  5
1DADF
  8
0
 10
3480.1118475617299737
 20
159.5828286221787096
 30
0.0
 40
0.0004270508420241
 50
299.6202614704113216
 51
336.4914716435558262
  0
ARC
  5
1DAE0
  8
0
 10
3480.1088947496009496
 20
159.5871135163108931
 30
0.0
 40
0.0056293666706178
 50
283.3754163100510937
 51
304.1964102073022218
  0
ARC
  5
1DAE1
  8
0
 10
3480.0299407242218876
 20
160.1147813414685004
 30
0.0
 40
0.5391512987759824
 50
272.0200536592598155
 51
278.5606750125979261
  0
ARC
  5
1DAE2
  8
0
 10
3479.1521365603121012
 20
179.7336817353921958
 30
0.0
 40
20.1776561120302986
 50
271.5420844411235066
 51
272.5473868114902984
  0
ARC
  5
1DAE3
  8
0
 10
3479.3804177025790523
 20
159.5590528276485998
 30
0.0
 40
0.0004682992737946
 50
132.9596342384178058
 51
189.4086138213106949
  0
ARC
  5
1DAE4
  8
0
 10
3479.3821542401169609
 20
159.5571141802560931
 30
0.0
 40
0.0030708999943107
 50
122.0384112698346968
 51
132.0211513128028002
  0
ARC
  5
1DAE5
  8
0
 10
3479.3828175726848713
 20
159.5560542081541939
 30
0.0
 40
0.0043213203050916
 50
101.8661143047230979
 51
122.0384112698346968
  0
ARC
  5
1DAE6
  8
0
 10
3479.3923115186112227
 20
159.5240495273448005
 30
0.0
 40
0.0376918381882205
 50
99.4295087325235727
 51
105.9893113454802034
  0
ARC
  5
1DAE7
  8
0
 10
3479.7962820747720798
 20
153.9058848900789087
 30
0.0
 40
5.6702002851728057
 50
91.1656353950335472
 51
94.1480301634735639
  0
ARC
  5
1DAE8
  8
0
 10
3471.2786004923359542
 20
424.7087564336601986
 30
0.0
 40
265.2669500370478772
 50
271.8151481503845162
 51
271.8676760146387892
  0
ARC
  5
1DAE9
  8
0
 10
3479.7963198702568661
 20
163.8146215865237991
 30
0.0
 40
4.233820948069476
 50
271.7281609265135103
 51
274.0475293332272031
  0
ARC
  5
1DAEA
  8
0
 10
3480.086111389288817
 20
159.6983246387898134
 30
0.0
 40
0.1073462087485495
 50
274.8352891191867116
 51
283.7599681897049209
  0
ARC
  5
1DAEB
  8
0
 10
3479.2618410206600856
 20
171.5728611291951893
 30
0.0
 40
12.0173418647817698
 50
271.7040152014891987
 51
272.0663199204170724
  0
ARC
  5
1DAEC
  8
0
 10
3479.6426555300799919
 20
158.7721356869446083
 30
0.0
 40
0.7890468353345037
 50
91.7040152014892556
 51
98.0692151954957438
  0
ARC
  5
1DAED
  8
0
 10
3479.6403161630692011
 20
158.7886364877317931
 30
0.0
 40
0.7723810300844837
 50
98.0692151954957438
 51
104.8656586319200983
  0
ARC
  5
1DAEE
  8
0
 10
3479.5140398077878672
 20
159.2643652314191911
 30
0.0
 40
0.2801782715862211
 50
104.8656586319200983
 51
117.2053385990484031
  0
ARC
  5
1DAEF
  8
0
 10
3479.5114191946518076
 20
160.1677348566626904
 30
0.0
 40
0.6661103277743877
 50
259.1426486530090756
 51
269.8370745077040169
  0
ARC
  5
1DAF0
  8
0
 10
3479.5683277446069042
 20
161.0391484622462031
 30
0.0
 40
1.538645287458849
 50
267.8097832940630951
 51
271.8944242333745933
  0
ARC
  5
1DAF1
  8
0
 10
3478.6063879099501719
 20
194.3990943690658924
 30
0.0
 40
34.9124439629200864
 50
271.662374337784172
 51
272.3585064706866774
  0
ARC
  5
1DAF2
  8
0
 10
3480.0106607715861173
 20
160.3410227984464882
 30
0.0
 40
0.8254358323307918
 50
272.2528025517074752
 51
276.5409569360392084
  0
ARC
  5
1DAF3
  8
0
 10
3480.1004986709590412
 20
159.5536765158504124
 30
0.0
 40
0.0329837800398701
 50
277.2986878543900957
 51
289.5995257532351843
  0
ARC
  5
1DAF4
  8
0
 10
3479.3486056814031144
 20
159.6317857297214005
 30
0.0
 40
0.0219248370245186
 50
92.5730369155348569
 51
115.541172311054595
  0
ARC
  5
1DAF5
  8
0
 10
3479.4493110065391193
 20
158.7018043157860063
 30
0.0
 40
0.9573004762737765
 50
92.3830055621545085
 51
96.0977697601403236
  0
ARC
  5
1DAF6
  8
0
 10
3480.8680432578589716
 20
121.2094646284944019
 30
0.0
 40
38.4764667646331517
 50
91.4522840412857789
 51
92.1724445849339986
  0
ARC
  5
1DAF7
  8
0
 10
3479.7468746641829966
 20
166.097853333235804
 30
0.0
 40
6.425940319702927
 50
271.3019375692072117
 51
273.5782663223075133
  0
ARC
  5
1DAF8
  8
0
 10
3479.3437788697410724
 20
159.5743923382090088
 30
0.0
 40
0.0071545715186764
 50
97.574101340340917
 51
129.330559619951913
  0
ARC
  5
1DAF9
  8
0
 10
3479.3709975316578493
 20
159.4274859610686121
 30
0.0
 40
0.1565523146037964
 50
94.1577657086610742
 51
100.3631659763088066
  0
ARC
  5
1DAFA
  8
0
 10
3479.6641960653969363
 20
154.8910935449009969
 30
0.0
 40
4.7024050662628296
 50
91.4557381566607859
 51
93.7133331790218165
  0
ARC
  5
1DAFB
  8
0
 10
3478.1879768492758558
 20
211.1383267918866125
 30
0.0
 40
51.5641984463670084
 50
271.5077393152333229
 51
272.1081740142249146
  0
ARC
  5
1DAFC
  8
0
 10
3480.0635156278990507
 20
160.1272344862113073
 30
0.0
 40
0.518643442927411
 50
272.3554990819948216
 51
280.0660879563579897
  0
ARC
  5
1DAFD
  8
0
 10
3479.6516016307159589
 20
155.6691924623993089
 30
0.0
 40
3.8535236991002728
 50
90.6897425450698051
 51
93.952987741622465
  0
ARC
  5
1DAFE
  8
0
 10
3479.4915165668730879
 20
168.9665532003992894
 30
0.0
 40
9.4448006248199938
 50
270.6897425450696915
 51
272.588398471327821
  0
ARC
  5
1DAFF
  8
0
 10
3480.422094578711949
 20
148.3816562967674031
 30
0.0
 40
11.1611197858114206
 50
91.7288412879579766
 51
92.5883984713277641
  0
ARC
  5
1DB00
  8
0
 10
3480.0704317514109789
 20
160.032627751600586
 30
0.0
 40
0.4951576038805186
 50
271.7288412879578914
 51
279.6064036736192975
  0
ARC
  5
1DB02
  8
0
 10
3475.6712860984130202
 20
167.4893404995808908
 30
0.0
 40
0.0592611279096213
 50
89.5427791870746574
 51
132.9383774000679068
  0
ARC
  5
1DB03
  8
0
 10
3475.6711851731351999
 20
167.4894690943087028
 30
0.0
 40
0.0591334305336923
 50
59.8909913076825333
 51
89.4439990765264241
  0
ENDSEC
  0
EOF
