  0
SECTION
  2
HEADER
  9
$ACADVER
  1
AC1009
  9
$INSBASE
 10
10107.2615352797802188
 20
3125.3893449386609973
 30
0.0
  9
$EXTMIN
 10
10091.355112118049874
 20
3125.229012721169056
 30
-0.0000000349181948
  9
$EXTMAX
 10
10123.021886292110139
 20
3153.8641881156017917
 30
0.0000000814935746
  9
$LIMMIN
 10
0.0
 20
0.0
  9
$LIMMAX
 10
11.6929133858000007
 20
8.2677165353999982
  9
$ORTHOMODE
 70
     0
  9
$REGENMODE
 70
     1
  9
$FILLMODE
 70
     1
  9
$QTEXTMODE
 70
     0
  9
$MIRRTEXT
 70
     0
  9
$DRAGMODE
 70
     2
  9
$LTSCALE
 40
0.6431102362
  9
$OSMODE
 70
  4063
  9
$ATTMODE
 70
     1
  9
$TEXTSIZE
 40
0.2
  9
$TRACEWID
 40
0.05
  9
$TEXTSTYLE
  7
STANDARD
  9
$CLAYER
  8
0
  9
$CELTYPE
  6
BYLAYER
  9
$CECOLOR
 62
   256
  9
$DIMSCALE
 40
1.0
  9
$DIMASZ
 40
0.1875
  9
$DIMEXO
 40
0.0625
  9
$DIMDLI
 40
0.4443307087
  9
$DIMRND
 40
0.0
  9
$DIMDLE
 40
0.0
  9
$DIMEXE
 40
0.125
  9
$DIMTP
 40
0.01
  9
$DIMTM
 40
0.01
  9
$DIMTXT
 40
2.0
  9
$DIMCEN
 40
0.1052362205
  9
$DIMTSZ
 40
0.0
  9
$DIMTOL
 70
     1
  9
$DIMLIM
 70
     0
  9
$DIMTIH
 70
     1
  9
$DIMTOH
 70
     1
  9
$DIMSE1
 70
     0
  9
$DIMSE2
 70
     0
  9
$DIMTAD
 70
     0
  9
$DIMZIN
 70
     0
  9
$DIMBLK
  1

  9
$DIMASO
 70
     1
  9
$DIMSHO
 70
     1
  9
$DIMPOST
  1
\X
  9
$DIMAPOST
  1

  9
$DIMALT
 70
     1
  9
$DIMALTD
 70
     2
  9
$DIMALTF
 40
25.3999999999999986
  9
$DIMLFAC
 40
1.0
  9
$DIMTOFL
 70
     0
  9
$DIMTVP
 40
0.0
  9
$DIMTIX
 70
     0
  9
$DIMSOXD
 70
     0
  9
$DIMSAH
 70
     0
  9
$DIMBLK1
  1

  9
$DIMBLK2
  1

  9
$DIMSTYLE
  2
STANDARD
  9
$DIMCLRD
 70
     0
  9
$DIMCLRE
 70
     0
  9
$DIMCLRT
 70
     0
  9
$DIMTFAC
 40
1.0
  9
$DIMGAP
 40
0.09
  9
$LUNITS
 70
     2
  9
$LUPREC
 70
     4
  9
$SKETCHINC
 40
0.1
  9
$FILLETRAD
 40
0.0
  9
$AUNITS
 70
     0
  9
$AUPREC
 70
     0
  9
$MENU
  1
.
  9
$ELEVATION
 40
0.0
  9
$PELEVATION
 40
0.0
  9
$THICKNESS
 40
0.0
  9
$LIMCHECK
 70
     0
  9
$BLIPMODE
 70
     0
  9
$CHAMFERA
 40
0.0
  9
$CHAMFERB
 40
0.0
  9
$SKPOLY
 70
     0
  9
$TDCREATE
 40
2458060.468368056230247
  9
$TDUPDATE
 40
2459398.0047569437883794
  9
$TDINDWG
 40
0.5532362269
  9
$TDUSRTIMER
 40
0.5532362269
  9
$USRTIMER
 70
     1
  9
$ANGBASE
 50
0.0
  9
$ANGDIR
 70
     0
  9
$PDMODE
 70
     0
  9
$PDSIZE
 40
0.3125
  9
$PLINEWID
 40
0.0
  9
$COORDS
 70
     1
  9
$SPLFRAME
 70
     0
  9
$SPLINETYPE
 70
     6
  9
$SPLINESEGS
 70
     8
  9
$ATTDIA
 70
     1
  9
$ATTREQ
 70
     1
  9
$HANDLING
 70
     1
  9
$HANDSEED
  5
E85C
  9
$SURFTAB1
 70
     6
  9
$SURFTAB2
 70
     6
  9
$SURFTYPE
 70
     6
  9
$SURFU
 70
     6
  9
$SURFV
 70
     6
  9
$UCSNAME
  2

  9
$UCSORG
 10
0.0
 20
0.0
 30
0.0
  9
$UCSXDIR
 10
1.0
 20
0.0
 30
0.0
  9
$UCSYDIR
 10
0.0
 20
1.0
 30
0.0
  9
$PUCSNAME
  2

  9
$PUCSORG
 10
0.0
 20
0.0
 30
0.0
  9
$PUCSXDIR
 10
1.0
 20
0.0
 30
0.0
  9
$PUCSYDIR
 10
0.0
 20
1.0
 30
0.0
  9
$USERI1
 70
     0
  9
$USERI2
 70
     0
  9
$USERI3
 70
     0
  9
$USERI4
 70
     0
  9
$USERI5
 70
     0
  9
$USERR1
 40
0.0
  9
$USERR2
 40
0.0
  9
$USERR3
 40
0.0
  9
$USERR4
 40
0.0
  9
$USERR5
 40
0.0
  9
$WORLDVIEW
 70
     1
  9
$SHADEDGE
 70
     3
  9
$SHADEDIF
 70
    70
  9
$TILEMODE
 70
     1
  9
$MAXACTVP
 70
    64
  9
$PLIMCHECK
 70
     0
  9
$PEXTMIN
 10
1.0000000000000000E+20
 20
1.0000000000000000E+20
 30
1.0000000000000000E+20
  9
$PEXTMAX
 10
-1.0000000000000000E+20
 20
-1.0000000000000000E+20
 30
-1.0000000000000000E+20
  9
$PLIMMIN
 10
0.0
 20
0.0
  9
$PLIMMAX
 10
12.0
 20
9.0
  9
$UNITMODE
 70
     0
  9
$VISRETAIN
 70
     1
  9
$PLINEGEN
 70
     0
  9
$PSLTSCALE
 70
     1
  0
ENDSEC
  0
SECTION
  2
TABLES
  0
TABLE
  2
VPORT
 70
     1
  0
VPORT
  2
*ACTIVE
 70
     0
 10
0.0
 20
0.0
 11
1.0
 21
1.0
 12
5291.890159361336373
 22
2891.7379761508068441
 13
0.0
 23
0.0
 14
1.0
 24
1.0
 15
0.0
 25
0.0
 16
0.0
 26
0.0
 36
9.5192988075487186
 17
4815.2983398437490905
 27
247.8086242675780966
 37
0.0
 40
28.8526577392003709
 41
2.0798479087452471
 42
50.0
 43
0.0
 44
0.0
 50
0.0
 51
0.0
 71
     0
 72
   100
 73
     1
 74
     1
 75
     0
 76
     0
 77
     0
 78
     0
  0
ENDTAB
  0
TABLE
  2
LTYPE
 70
     2
  0
LTYPE
  2
CONTINUOUS
 70
     0
  3
Solid line
 72
    65
 73
     0
 40
0.0
  0
LTYPE
  2
PHANTOM2
 70
     0
  3
___ _ _ ___ _ _ ___ _ _ ___ _ _
 72
    65
 73
     6
 40
1.25
 49
0.625
 49
-0.125
 49
0.125
 49
-0.125
 49
0.125
 49
-0.125
  0
ENDTAB
  0
TABLE
  2
LAYER
 70
     2
  0
LAYER
  2
0
 70
     0
 62
   255
  6
CONTINUOUS
  0
LAYER
  2
DEFPOINTS
 70
     0
 62
     7
  6
CONTINUOUS
  0
ENDTAB
  0
TABLE
  2
STYLE
 70
     1
  0
STYLE
  2
STANDARD
 70
     0
 40
0.0
 41
0.8
 50
0.0
 71
     0
 42
0.2
  3
txt
  4

  0
ENDTAB
  0
TABLE
  2
VIEW
 70
     1
  0
ENDTAB
  0
TABLE
  2
UCS
 70
     0
  0
ENDTAB
  0
TABLE
  2
APPID
 70
    10
  0
APPID
  2
ACAD
 70
     0
  0
APPID
  2
ACAD_MLEADERVER
 70
     0
  0
APPID
  2
ACAD_EXEMPT_FROM_CAD_STANDARDS
 70
     0
  0
APPID
  2
ACAD_NAV_VCDISPLAY
 70
     0
  0
APPID
  2
ACAECLAYERSTANDARD
 70
     0
  0
APPID
  2
ACCMTRANSPARENCY
 70
     0
  0
APPID
  2
ACAD_DSTYLE_DIMJAG
 70
     0
  0
APPID
  2
ACAD_DSTYLE_DIMTALN
 70
     0
  0
APPID
  2
ACDBATTR
 70
     0
  0
APPID
  2
ACADANNOTATIVE
 70
     0
  0
ENDTAB
  0
TABLE
  2
DIMSTYLE
 70
     2
  0
DIMSTYLE
  2
STANDARD
 70
     0
  3

  4

  5

  6

  7

 40
1.0
 41
0.1875
 42
0.0625
 43
0.38
 44
0.125
 45
0.0
 46
0.0
 47
0.01
 48
0.01
140
0.15625
141
0.09
142
0.0
143
25.3999999999999986
144
1.0
145
0.0
146
1.0
147
0.09
 71
     1
 72
     0
 73
     1
 74
     1
 75
     0
 76
     0
 77
     0
 78
     4
170
     0
171
     2
172
     0
173
     0
174
     0
175
     0
176
     0
177
     0
178
     0
  0
DIMSTYLE
  2
ANNOTATIVE
 70
     0
  3

  4

  5

  6

  7

 40
0.0
 41
0.18
 42
0.0625
 43
0.38
 44
0.18
 45
0.0
 46
0.0
 47
0.0
 48
0.0
140
0.18
141
0.09
142
0.0
143
25.3999999999999986
144
1.0
145
0.0
146
1.0
147
0.09
 71
     0
 72
     0
 73
     1
 74
     1
 75
     0
 76
     0
 77
     0
 78
     0
170
     0
171
     2
172
     0
173
     0
174
     0
175
     0
176
     0
177
     0
178
     0
  0
ENDTAB
  0
ENDSEC
  0
SECTION
  2
BLOCKS
  0
BLOCK
  8
0
  2
$MODEL_SPACE
 70
     0
 10
0.0
 20
0.0
 30
0.0
  3
$MODEL_SPACE
  1

  0
ENDBLK
  5
21
  8
0
  0
BLOCK
 67
     1
  8
0
  2
$PAPER_SPACE
 70
     0
 10
0.0
 20
0.0
 30
0.0
  3
$PAPER_SPACE
  1

  0
ENDBLK
  5
1D
 67
     1
  8
0
  0
BLOCK
  8
0
  2
_FILLED
 70
     0
 10
0.0
 20
0.0
 30
0.0
  3
_FILLED
  1

  0
SOLID
  5
D8EA
  8
0
  6
BYBLOCK
 62
     0
 10
0.0
 20
0.0
 30
0.0
 11
-1.0
 21
0.1666666667
 31
0.0
 12
-1.0
 22
-0.1666666667
 32
0.0
 13
-1.0
 23
-0.1666666667
 33
0.0
  0
ENDBLK
  5
D8EB
  8
0
  6
BYBLOCK
 62
     0
  0
ENDSEC
  0
SECTION
  2
ENTITIES
  0
ATTDEF
  5
3930
  8
DEFPOINTS
 10
10107.2505745573307649
 20
3125.38751022448605
 30
0.0
 40
0.001
  1
K-98154T-GR58
  3

  2
MODELNUMBER
 70
     0
1001
ACDBATTR
1070
     0
1070
     1
  0
ATTDEF
  5
3931
  8
DEFPOINTS
 10
10107.2505745573307649
 20
3125.3858435578199533
 30
0.0
 40
0.001
  1
COMFORTABLE
  3

  2
TRADENAME
 70
     0
1001
ACDBATTR
1070
     0
1070
     1
  0
ATTDEF
  5
3932
  8
DEFPOINTS
 10
10107.2505745573307649
 20
3125.3841768911529471
 30
0.0
 40
0.001
  1
BATH
  3

  2
PRODUCT
 70
     0
1001
ACDBATTR
1070
     0
1070
     1
  0
LINE
  5
E7CD
  8
0
 10
10120.4497170108606952
 20
3125.610216490512812
 30
0.0
 11
10122.5951303406000079
 21
3146.8157280862869811
 31
0.0
  0
ARC
  5
E7CE
  8
0
 10
10120.2030487278698274
 20
3125.6372637277818285
 30
0.0
 40
0.2481467204710473
 50
272.4559450229273239
 51
353.7425022596024178
  0
LINE
  5
E7CF
  8
0
 10
10094.0760577619603282
 20
3125.5826962595128862
 30
0.0
 11
10091.5135037835298135
 21
3149.3991030426118414
 31
0.0
  0
ARC
  5
E7D0
  8
0
 10
10094.3439638240706699
 20
3125.6685334494459312
 30
0.0
 40
0.2813213132550163
 50
197.7654756775457088
 51
262.9402976474422076
  0
ARC
  5
E7D1
  8
0
 10
10119.6558953613293852
 20
3125.645144385977801
 30
0.0
 40
0.2571329231883026
 50
275.8376658425173105
 51
346.7022700648818159
  0
ARC
  5
E7D2
  8
0
 10
10097.8268085022191372
 20
3125.7106295349549328
 30
0.0
 40
0.3223455865101079
 50
235.8181932471950972
 51
265.3500139513491263
  0
ARC
  5
E7D3
  8
0
 10
10097.8069830265594646
 20
3125.6189315423289372
 30
0.0
 40
0.2379547583825322
 50
185.8587730959197017
 51
227.3315645919290944
  0
ARC
  5
E7D4
  8
0
 10
9789.5764014358774148
 20
3097.3550056208077876
 30
0.0
 40
309.2857915919022957
 50
5.2387424874053012
 51
9.6873568997445396
  0
ARC
  5
E7D5
  8
0
 10
10776.8080751919605973
 20
3053.1667513749798673
 30
0.0
 40
660.8817655266728934
 50
171.6272764910318926
 51
173.7089102187823073
  0
LINE
  5
E7D6
  8
0
 10
10094.3093884464597068
 20
3125.3893449386609973
 30
0.0
 11
10120.2136821131007309
 21
3125.3893449386609973
 31
0.0
  0
LINE
  5
E7D7
  8
0
 10
10091.5135037837299024
 20
3149.3991030426118414
 30
0.0
 11
10123.0095667758305353
 21
3149.3991030426118414
 31
0.0
  0
LINE
  5
E7D8
  8
0
 10
10123.0095667758305353
 20
3149.3991030426118414
 30
0.0
 11
10122.7902770551299909
 21
3153.5834001777129743
 31
0.0
  0
ARC
  5
E7D9
  8
0
 10
10119.8202572973295901
 20
3208.3076204256090023
 30
0.0
 40
54.5628271731055534
 50
271.9984263687845214
 51
272.8629095189510281
  0
ARC
  5
E7DA
  8
0
 10
10122.5412730094594735
 20
3153.563098171414822
 30
0.0
 40
0.249830314857745
 50
4.6611771520658287
 51
89.0363900161084558
  0
ARC
  5
E7DB
  8
0
 10
10120.8208450669008016
 20
3150.4351564198777851
 30
0.0
 40
0.1633792391508301
 50
299.9701322801270749
 51
334.0333261965005249
  0
ARC
  5
E7DC
  8
0
 10
10120.3352617463697243
 20
3151.2330189283129585
 30
0.0
 40
1.09735093629756
 50
280.5487023819868
 51
301.1232253753339023
  0
ARC
  5
E7DD
  8
0
 10
10121.7345332185705047
 20
3152.5936833678861149
 30
0.0
 40
1.184352207685951
 50
70.6686982110196027
 51
93.3765326775473312
  0
ARC
  5
E7DE
  8
0
 10
10122.144598047279942
 20
3153.5737665687179287
 30
0.0
 40
0.1178941360348083
 50
325.2587208159069974
 51
65.44495188226594
  0
ARC
  5
E7DF
  8
0
 10
10122.0255072798609035
 20
3153.3981707950010787
 30
0.0
 40
0.3290041469521521
 50
59.2771150512355689
 51
72.1072468057506057
  0
ARC
  5
E7E0
  8
0
 10
10320.6162575430098514
 20
3071.2818470801798867
 30
0.0
 40
214.7404506322598081
 50
157.4863905448920889
 51
158.3912353133104887
  0
ARC
  5
E7E1
  8
0
 10
10121.7084415564095252
 20
3153.2161579007861292
 30
0.0
 40
0.5615218924655343
 50
94.4598003681316669
 51
133.042981122160711
  0
ARC
  5
E7E2
  8
0
 10
10122.0773437004700099
 20
3152.7671065737031313
 30
0.0
 40
1.1420963046972521
 50
131.1920206739864909
 51
143.6460893354118866
  0
ARC
  5
E7E3
  8
0
 10
10118.2946196562206751
 20
3156.9405665501958538
 30
0.0
 40
4.5332907971780454
 50
290.7067736823194082
 51
307.7636447240528241
  0
ARC
  5
E7E4
  8
0
 10
10120.5885644664704159
 20
3153.922423760177935
 30
0.0
 40
0.7433103645473782
 50
310.4519905051496949
 51
319.9471862337908874
  0
ARC
  5
E7E5
  8
0
 10
10113.913989880349618
 20
3164.7193718351140888
 30
0.0
 40
13.4262876977189407
 50
276.5051230336886761
 51
296.4654586387044901
  0
ARC
  5
E7E6
  8
0
 10
10113.1483277505594742
 20
3167.8927917314240403
 30
0.0
 40
16.67084824924655
 50
270.7858648226030027
 51
277.8841663197928824
  0
LINE
  5
E7E7
  8
0
 10
10113.3769767460307776
 20
3151.2235115734129067
 30
0.0
 11
10105.0831024016006268
 21
3151.2235115736380067
 31
0.0
  0
ARC
  5
E7E8
  8
0
 10
10105.1887161319500592
 20
3169.7949309267200988
 30
0.0
 40
18.5717196578036408
 50
251.3472444066235028
 51
269.6741683735048127
  0
ARC
  5
E7E9
  8
0
 10
10102.7155777868301811
 20
3161.7986401940188443
 30
0.0
 40
10.20669968626048
 50
240.9792521813077997
 51
250.144547586052596
  0
LINE
  5
E7EA
  8
0
 10
10093.2593969892295718
 20
3153.1202320055131167
 30
0.0
 11
10097.3831025956205849
 21
3152.9759216800848662
 31
0.0
  0
ARC
  5
E7EB
  8
0
 10
10097.3943927710697608
 20
3152.265697354724125
 30
0.0
 40
0.7113397292054957
 50
58.691332901924909
 51
84.6070410831605813
  0
ARC
  5
E7EC
  8
0
 10
10094.6231145435995131
 20
3151.3978579377749156
 30
0.0
 40
2.298791713818721
 50
133.4745580361114037
 51
154.5476979557523975
  0
ARC
  5
E7ED
  8
0
 10
10093.2661063488703803
 20
3152.627935775899914
 30
0.0
 40
0.4923419474292264
 50
90.7808188838327936
 51
117.1459122007099012
  0
ARC
  5
E7EE
  8
0
 10
10211.2127019131003181
 20
3106.7703936600291854
 30
0.0
 40
127.1306782970336968
 50
158.9730450256843142
 51
160.0395765423573948
  0
ARC
  5
E7EF
  8
0
 10
10097.8360666571097681
 20
3149.9680960319060432
 30
0.0
 40
1.2855807362330569
 50
155.0658381611434038
 51
172.2395433848978996
  0
ARC
  5
E7F0
  8
0
 10
10089.0541308416704851
 20
3153.1372990979321003
 30
0.0
 40
8.0565845383882522
 50
340.9679178184135822
 51
354.5117027086047869
  0
ARC
  5
E7F1
  8
0
 10
10099.2004613867902663
 20
3152.1865818996470807
 30
0.0
 40
2.1342972753442551
 50
163.5830146291010863
 51
175.1576385811162879
  0
ARC
  5
E7F2
  8
0
 10
10097.3773060764797265
 20
3152.7464424655058792
 30
0.0
 40
0.2282804082806656
 50
94.720584790212115
 51
169.0539383469536858
  0
ARC
  5
E7F3
  8
0
 10
10097.4096016014391353
 20
3152.4916504422731123
 30
0.0
 40
0.4849957000648097
 50
83.8869896294638693
 51
96.0458971694567367
  0
LINE
  5
E7F4
  8
0
 10
10091.5135037837299024
 20
3149.3991030426118414
 30
0.0
 11
10091.5425454385494959
 21
3149.9532508276120097
 31
0.0
  0
ARC
  5
E7F5
  8
0
 10
10089.2943926844491216
 20
3149.6462047597888159
 30
0.0
 40
5.3859209283325082
 50
357.3703940360306888
 51
3.8940928661792902
  0
ARC
  5
E7F6
  8
0
 10
10094.6341079072608409
 20
3150.1306032552020042
 30
0.0
 40
0.0107195964357382
 50
28.7292613542823787
 51
80.945838743553054
  0
ARC
  5
E7F7
  8
0
 10
10094.2609624715205427
 20
3149.9961470060661668
 30
0.0
 40
0.4072243355262732
 50
2.2276372229708969
 51
20.0494070649430896
  0
ARC
  5
E7F8
  8
0
 10
10094.6389420306295506
 20
3149.871694828480031
 30
0.0
 40
0.2695128333786338
 50
90.6690792916739241
 51
110.8663962521409019
  0
ARC
  5
E7F9
  8
0
 10
10094.353595304339251
 20
3150.6036451783979828
 30
0.0
 40
0.5161030787020797
 50
269.1214899752487781
 51
291.5234516342521829
  0
ARC
  5
E7FA
  8
0
 10
10062.5021820401398145
 20
2274.8938230616099645
 30
0.0
 40
875.7728932430212581
 50
87.9162401074696191
 51
88.0837596575812967
  0
ARC
  5
E7FB
  8
0
 10
10091.778442641849324
 20
3149.9408878228491631
 30
0.0
 40
0.2362209440603265
 50
88.0000353808266169
 51
176.9999621656089062
  0
LINE
  5
E7FC
  8
0
 10
10094.6357948292297806
 20
3150.1411892857131534
 30
0.0
 11
10120.3270587671304384
 21
3150.1478703345128451
 31
0.0
  0
ARC
  5
E7FD
  8
0
 10
10120.5033335377393087
 20
3147.7866841007980838
 30
0.0
 40
2.3677570029535939
 50
89.2057462545201503
 51
94.2695062975357132
  0
ENDSEC
  0
EOF
