  0
SECTION
  2
HEADER
  9
$ACADVER
  1
AC1009
  9
$INSBASE
 10
9823.1984534847852046
 20
2953.5201524121998773
 30
0.0
  9
$EXTMIN
 10
9789.7046064116912021
 20
2936.1529036198721769
 30
-0.0000000349181948
  9
$EXTMAX
 10
9857.3878401208603464
 20
2967.8544568980778422
 30
0.0000000814935746
  9
$LIMMIN
 10
0.0
 20
0.0
  9
$LIMMAX
 10
11.6929133858000007
 20
8.2677165353999982
  9
$ORTHOMODE
 70
     0
  9
$REGENMODE
 70
     1
  9
$FILLMODE
 70
     1
  9
$QTEXTMODE
 70
     0
  9
$MIRRTEXT
 70
     0
  9
$DRAGMODE
 70
     2
  9
$LTSCALE
 40
0.6431102362
  9
$OSMODE
 70
  4063
  9
$ATTMODE
 70
     1
  9
$TEXTSIZE
 40
0.2
  9
$TRACEWID
 40
0.05
  9
$TEXTSTYLE
  7
STANDARD
  9
$CLAYER
  8
0
  9
$CELTYPE
  6
BYLAYER
  9
$CECOLOR
 62
   256
  9
$DIMSCALE
 40
1.0
  9
$DIMASZ
 40
0.1875
  9
$DIMEXO
 40
0.0625
  9
$DIMDLI
 40
0.4443307087
  9
$DIMRND
 40
0.0
  9
$DIMDLE
 40
0.0
  9
$DIMEXE
 40
0.125
  9
$DIMTP
 40
0.01
  9
$DIMTM
 40
0.01
  9
$DIMTXT
 40
2.0
  9
$DIMCEN
 40
0.1052362205
  9
$DIMTSZ
 40
0.0
  9
$DIMTOL
 70
     1
  9
$DIMLIM
 70
     0
  9
$DIMTIH
 70
     1
  9
$DIMTOH
 70
     1
  9
$DIMSE1
 70
     0
  9
$DIMSE2
 70
     0
  9
$DIMTAD
 70
     0
  9
$DIMZIN
 70
     0
  9
$DIMBLK
  1

  9
$DIMASO
 70
     1
  9
$DIMSHO
 70
     1
  9
$DIMPOST
  1
\X
  9
$DIMAPOST
  1

  9
$DIMALT
 70
     1
  9
$DIMALTD
 70
     2
  9
$DIMALTF
 40
25.3999999999999986
  9
$DIMLFAC
 40
1.0
  9
$DIMTOFL
 70
     0
  9
$DIMTVP
 40
0.0
  9
$DIMTIX
 70
     0
  9
$DIMSOXD
 70
     0
  9
$DIMSAH
 70
     0
  9
$DIMBLK1
  1

  9
$DIMBLK2
  1

  9
$DIMSTYLE
  2
STANDARD
  9
$DIMCLRD
 70
     0
  9
$DIMCLRE
 70
     0
  9
$DIMCLRT
 70
     0
  9
$DIMTFAC
 40
1.0
  9
$DIMGAP
 40
0.09
  9
$LUNITS
 70
     2
  9
$LUPREC
 70
     4
  9
$SKETCHINC
 40
0.1
  9
$FILLETRAD
 40
0.0
  9
$AUNITS
 70
     0
  9
$AUPREC
 70
     0
  9
$MENU
  1
.
  9
$ELEVATION
 40
0.0
  9
$PELEVATION
 40
0.0
  9
$THICKNESS
 40
0.0
  9
$LIMCHECK
 70
     0
  9
$BLIPMODE
 70
     0
  9
$CHAMFERA
 40
0.0
  9
$CHAMFERB
 40
0.0
  9
$SKPOLY
 70
     0
  9
$TDCREATE
 40
2458060.468368056230247
  9
$TDUPDATE
 40
2459398.0049421298317611
  9
$TDINDWG
 40
0.5861065972
  9
$TDUSRTIMER
 40
0.5861065972
  9
$USRTIMER
 70
     1
  9
$ANGBASE
 50
0.0
  9
$ANGDIR
 70
     0
  9
$PDMODE
 70
     0
  9
$PDSIZE
 40
0.3125
  9
$PLINEWID
 40
0.0
  9
$COORDS
 70
     1
  9
$SPLFRAME
 70
     0
  9
$SPLINETYPE
 70
     6
  9
$SPLINESEGS
 70
     8
  9
$ATTDIA
 70
     1
  9
$ATTREQ
 70
     1
  9
$HANDLING
 70
     1
  9
$HANDSEED
  5
E6F1
  9
$SURFTAB1
 70
     6
  9
$SURFTAB2
 70
     6
  9
$SURFTYPE
 70
     6
  9
$SURFU
 70
     6
  9
$SURFV
 70
     6
  9
$UCSNAME
  2

  9
$UCSORG
 10
0.0
 20
0.0
 30
0.0
  9
$UCSXDIR
 10
1.0
 20
0.0
 30
0.0
  9
$UCSYDIR
 10
0.0
 20
1.0
 30
0.0
  9
$PUCSNAME
  2

  9
$PUCSORG
 10
0.0
 20
0.0
 30
0.0
  9
$PUCSXDIR
 10
1.0
 20
0.0
 30
0.0
  9
$PUCSYDIR
 10
0.0
 20
1.0
 30
0.0
  9
$USERI1
 70
     0
  9
$USERI2
 70
     0
  9
$USERI3
 70
     0
  9
$USERI4
 70
     0
  9
$USERI5
 70
     0
  9
$USERR1
 40
0.0
  9
$USERR2
 40
0.0
  9
$USERR3
 40
0.0
  9
$USERR4
 40
0.0
  9
$USERR5
 40
0.0
  9
$WORLDVIEW
 70
     1
  9
$SHADEDGE
 70
     3
  9
$SHADEDIF
 70
    70
  9
$TILEMODE
 70
     1
  9
$MAXACTVP
 70
    64
  9
$PLIMCHECK
 70
     0
  9
$PEXTMIN
 10
1.0000000000000000E+20
 20
1.0000000000000000E+20
 30
1.0000000000000000E+20
  9
$PEXTMAX
 10
-1.0000000000000000E+20
 20
-1.0000000000000000E+20
 30
-1.0000000000000000E+20
  9
$PLIMMIN
 10
0.0
 20
0.0
  9
$PLIMMAX
 10
12.0
 20
9.0
  9
$UNITMODE
 70
     0
  9
$VISRETAIN
 70
     1
  9
$PLINEGEN
 70
     0
  9
$PSLTSCALE
 70
     1
  0
ENDSEC
  0
SECTION
  2
TABLES
  0
TABLE
  2
VPORT
 70
     1
  0
VPORT
  2
*ACTIVE
 70
     0
 10
0.0
 20
0.0
 11
1.0
 21
1.0
 12
5008.2478834225257742
 22
2704.1950559913971119
 13
0.0
 23
0.0
 14
1.0
 24
1.0
 15
0.0
 25
0.0
 16
0.0
 26
0.0
 36
9.5192988075487186
 17
4815.2983398437490905
 27
247.8086242675780966
 37
0.0
 40
32.6612301118169412
 41
2.0798479087452471
 42
50.0
 43
0.0
 44
0.0
 50
0.0
 51
0.0
 71
     0
 72
   100
 73
     1
 74
     1
 75
     0
 76
     0
 77
     0
 78
     0
  0
ENDTAB
  0
TABLE
  2
LTYPE
 70
     2
  0
LTYPE
  2
CONTINUOUS
 70
     0
  3
Solid line
 72
    65
 73
     0
 40
0.0
  0
LTYPE
  2
PHANTOM2
 70
     0
  3
___ _ _ ___ _ _ ___ _ _ ___ _ _
 72
    65
 73
     6
 40
1.25
 49
0.625
 49
-0.125
 49
0.125
 49
-0.125
 49
0.125
 49
-0.125
  0
ENDTAB
  0
TABLE
  2
LAYER
 70
     2
  0
LAYER
  2
0
 70
     0
 62
   255
  6
CONTINUOUS
  0
LAYER
  2
DEFPOINTS
 70
     0
 62
     7
  6
CONTINUOUS
  0
ENDTAB
  0
TABLE
  2
STYLE
 70
     1
  0
STYLE
  2
STANDARD
 70
     0
 40
0.0
 41
0.8
 50
0.0
 71
     0
 42
0.2
  3
txt
  4

  0
ENDTAB
  0
TABLE
  2
VIEW
 70
     1
  0
ENDTAB
  0
TABLE
  2
UCS
 70
     0
  0
ENDTAB
  0
TABLE
  2
APPID
 70
    10
  0
APPID
  2
ACAD
 70
     0
  0
APPID
  2
ACAD_MLEADERVER
 70
     0
  0
APPID
  2
ACAD_EXEMPT_FROM_CAD_STANDARDS
 70
     0
  0
APPID
  2
ACAD_NAV_VCDISPLAY
 70
     0
  0
APPID
  2
ACAECLAYERSTANDARD
 70
     0
  0
APPID
  2
ACCMTRANSPARENCY
 70
     0
  0
APPID
  2
ACAD_DSTYLE_DIMJAG
 70
     0
  0
APPID
  2
ACAD_DSTYLE_DIMTALN
 70
     0
  0
APPID
  2
ACDBATTR
 70
     0
  0
APPID
  2
ACADANNOTATIVE
 70
     0
  0
ENDTAB
  0
TABLE
  2
DIMSTYLE
 70
     2
  0
DIMSTYLE
  2
STANDARD
 70
     0
  3

  4

  5

  6

  7

 40
1.0
 41
0.1875
 42
0.0625
 43
0.38
 44
0.125
 45
0.0
 46
0.0
 47
0.01
 48
0.01
140
0.15625
141
0.09
142
0.0
143
25.3999999999999986
144
1.0
145
0.0
146
1.0
147
0.09
 71
     1
 72
     0
 73
     1
 74
     1
 75
     0
 76
     0
 77
     0
 78
     4
170
     0
171
     2
172
     0
173
     0
174
     0
175
     0
176
     0
177
     0
178
     0
  0
DIMSTYLE
  2
ANNOTATIVE
 70
     0
  3

  4

  5

  6

  7

 40
0.0
 41
0.18
 42
0.0625
 43
0.38
 44
0.18
 45
0.0
 46
0.0
 47
0.0
 48
0.0
140
0.18
141
0.09
142
0.0
143
25.3999999999999986
144
1.0
145
0.0
146
1.0
147
0.09
 71
     0
 72
     0
 73
     1
 74
     1
 75
     0
 76
     0
 77
     0
 78
     0
170
     0
171
     2
172
     0
173
     0
174
     0
175
     0
176
     0
177
     0
178
     0
  0
ENDTAB
  0
ENDSEC
  0
SECTION
  2
BLOCKS
  0
BLOCK
  8
0
  2
$MODEL_SPACE
 70
     0
 10
0.0
 20
0.0
 30
0.0
  3
$MODEL_SPACE
  1

  0
ENDBLK
  5
21
  8
0
  0
BLOCK
 67
     1
  8
0
  2
$PAPER_SPACE
 70
     0
 10
0.0
 20
0.0
 30
0.0
  3
$PAPER_SPACE
  1

  0
ENDBLK
  5
1D
 67
     1
  8
0
  0
BLOCK
  8
0
  2
_FILLED
 70
     0
 10
0.0
 20
0.0
 30
0.0
  3
_FILLED
  1

  0
SOLID
  5
D8EA
  8
0
  6
BYBLOCK
 62
     0
 10
0.0
 20
0.0
 30
0.0
 11
-1.0
 21
0.1666666667
 31
0.0
 12
-1.0
 22
-0.1666666667
 32
0.0
 13
-1.0
 23
-0.1666666667
 33
0.0
  0
ENDBLK
  5
D8EB
  8
0
  6
BYBLOCK
 62
     0
  0
ENDSEC
  0
SECTION
  2
ENTITIES
  0
ATTDEF
  5
3930
  8
DEFPOINTS
 10
9823.1874741728352092
 20
2953.5202693458509202
 30
0.0
 40
0.001
  1
K-98154T-GR58
  3

  2
MODELNUMBER
 70
     0
1001
ACDBATTR
1070
     0
1070
     1
  0
ATTDEF
  5
3931
  8
DEFPOINTS
 10
9823.1874741728352092
 20
2953.5186026791848235
 30
0.0
 40
0.001
  1
COMFORTABLE
  3

  2
TRADENAME
 70
     0
1001
ACDBATTR
1070
     0
1070
     1
  0
ATTDEF
  5
3932
  8
DEFPOINTS
 10
9823.1874741728352092
 20
2953.5169360125191815
 30
0.0
 40
0.001
  1
BATH
  3

  2
PRODUCT
 70
     0
1001
ACDBATTR
1070
     0
1070
     1
  0
LINE
  5
E673
  8
0
 10
9789.7345465972466627
 20
2967.5835464786528064
 30
0.0
 11
9789.7345465972466627
 21
2939.4567583457469482
 31
0.0
  0
LINE
  5
E674
  8
0
 10
9856.6623603723255655
 20
2967.5710165204759505
 30
0.0
 11
9856.6623603723255655
 21
2939.477074639321927
 31
0.0
  0
LINE
  5
E675
  8
0
 10
9789.9611138462405506
 20
2967.8126260628428099
 30
0.0
 11
9856.4273721477238723
 21
2967.8126260628428099
 31
0.0
  0
ARC
  5
E676
  8
0
 10
9856.40490052752466
 20
2967.5556913248428828
 30
0.0
 40
0.2579155546018246
 50
3.4064891867141709
 51
85.0016059239475794
  0
ARC
  5
E677
  8
0
 10
9789.9996704583954852
 20
2967.5479112788270868
 30
0.0
 40
0.2675079984176771
 50
98.2870507908054378
 51
172.3447751509700936
  0
ARC
  5
E678
  8
0
 10
9790.0126639828486077
 20
2939.4848853253220113
 30
0.0
 40
0.2795360569827441
 50
185.7748866153351912
 51
259.7857805327350889
  0
ARC
  5
E679
  8
0
 10
9811.1538755811543524
 20
3021.0921697729991138
 30
0.0
 40
84.5799920886189511
 50
255.4904539756346935
 51
267.4783701470174719
  0
ARC
  5
E67A
  8
0
 10
9818.173369992253356
 20
3144.2564559936449768
 30
0.0
 40
207.9399585793701135
 50
267.0391839284666275
 51
275.2508185162571976
  0
ARC
  5
E67B
  8
0
 10
9784.7662738469171018
 20
3519.802619934212089
 30
0.0
 40
584.9685039370690447
 50
275.142928406084593
 51
277.0394081203137944
  0
ARC
  5
E67C
  8
0
 10
9856.4248943328730093
 20
2939.4790692978649531
 30
0.0
 40
0.2374744166351984
 50
277.3629319244221278
 51
359.5187403265534272
  0
LINE
  5
E67D
  8
0
 10
9791.4712942086243856
 20
2958.1800360329420982
 30
0.0
 11
9791.4712942086243856
 21
2949.8861609747418697
 31
0.0
  0
ARC
  5
E67E
  8
0
 10
9799.6259973427622754
 20
2958.0539941168499354
 30
0.0
 40
8.1556771497237417
 50
97.4399363756792525
 51
179.1144870984080057
  0
ARC
  5
E67F
  8
0
 10
9810.6312640751111758
 20
2928.6492750342249565
 30
0.0
 40
38.4157130409941914
 50
88.1289697763962181
 51
94.8048508409655994
  0
ARC
  5
E680
  8
0
 10
9861.1031720073497127
 20
2315.1718816334059738
 30
0.0
 40
653.9657562512570621
 50
94.7092053170496371
 51
95.4870955537791417
  0
ARC
  5
E681
  8
0
 10
8587.4496588341935421
 20
-32179.2532392824796261
 30
0.0
 40
35167.6198862223391188
 50
87.9459840874642254
 51
88.0047216801222874
  0
ARC
  5
E682
  8
0
 10
9847.2340386087107618
 20
2957.3101812427721597
 30
0.0
 40
8.488018022307795
 50
2.8528632252759398
 51
85.3942757184556456
  0
ARC
  5
E683
  8
0
 10
9845.1769174634828232
 20
2955.8117142388450702
 30
0.0
 40
8.2573598300898201
 50
2.907299527410077
 51
85.5908204270945987
  0
ARC
  5
E684
  8
0
 10
9818.6706889025717828
 20
2956.2313188581929353
 30
0.0
 40
8.5932765579263783
 50
96.2434497603024255
 51
174.4229899599750979
  0
LINE
  5
E685
  8
0
 10
9817.736142317258782
 20
2964.7736267829218377
 30
0.0
 11
9845.8117331201156048
 21
2964.0446359830179972
 31
0.0
  0
ARC
  5
E686
  8
0
 10
9799.889069489114263
 20
2950.3359468044768619
 30
0.0
 40
8.4297833878138348
 50
183.0585689153361955
 51
261.0596809751892238
  0
ARC
  5
E687
  8
0
 10
9810.5351913074373442
 20
2985.4166876383119416
 30
0.0
 40
44.0513598263995334
 50
265.9437962232548216
 51
271.7644540152401191
  0
ARC
  5
E688
  8
0
 10
9755.7505949040987616
 20
2157.9574621667497922
 30
0.0
 40
785.2199876068874573
 50
86.2271278947429636
 51
86.8733511778718963
  0
ARC
  5
E689
  8
0
 10
10011.1644493006497214
 20
-4240.084777679945546
 30
0.0
 40
7184.2351921226982085
 50
91.3020557032725293
 51
91.5894468464543081
  0
ARC
  5
E68A
  8
0
 10
9847.2202006130391965
 20
2950.7694367578051242
 30
0.0
 40
8.5025163559993491
 50
274.6914109681114837
 51
357.0614501535438876
  0
ARC
  5
E68B
  8
0
 10
9845.3305899494007463
 20
2952.1053164741720138
 30
0.0
 40
8.0975502180325911
 50
273.4017812624340991
 51
358.091697481769188
  0
ARC
  5
E68C
  8
0
 10
9818.3326557608415897
 20
2951.50075417224798
 30
0.0
 40
8.2298306181919045
 50
183.4901099597705922
 51
265.8434503199678147
  0
LINE
  5
E68D
  8
0
 10
9817.736142317258782
 20
2943.2925702247630397
 30
0.0
 11
9845.8110775882232701
 21
2944.0220342718421307
 31
0.0
  0
LINE
  5
E68E
  8
0
 10
9853.4236492746240401
 20
2951.8356680142428559
 30
0.0
 11
9853.4236492746240401
 21
2956.2305289934420216
 31
0.0
  0
LINE
  5
E68F
  8
0
 10
9855.7115369346247462
 20
2950.3335562033430506
 30
0.0
 11
9855.7115369346247462
 21
2957.7326408043418269
 31
0.0
  0
LINE
  5
E690
  8
0
 10
9810.118088833625734
 20
2950.9997529722418221
 30
0.0
 11
9810.118088833625734
 21
2957.0664440354430553
 31
0.0
  0
CIRCLE
  5
E691
  8
0
 10
9830.6794284892257565
 20
2954.0330985038431209
 30
0.0
 40
1.1220472441
  0
CIRCLE
  5
E692
  8
0
 10
9830.6794284892257565
 20
2954.0330985038431209
 30
0.0
 40
2.1306187680000011
  0
ENDSEC
  0
EOF
