  0
SECTION
  2
HEADER
  9
$ACADVER
  1
AC1009
  9
$INSBASE
 10
3325.9840241827218961
 20
134.0097100349834989
 30
0.0
  9
$EXTMIN
 10
3324.2123608061119739
 20
134.0097100349834136
 30
0.0
  9
$EXTMAX
 10
3327.7556775387220114
 20
138.9037370478586126
 30
0.0
  9
$LIMMIN
 10
0.0
 20
0.0
  9
$LIMMAX
 10
11.6929133858000007
 20
8.2677165353999982
  9
$ORTHOMODE
 70
     1
  9
$REGENMODE
 70
     1
  9
$FILLMODE
 70
     1
  9
$QTEXTMODE
 70
     0
  9
$MIRRTEXT
 70
     0
  9
$DRAGMODE
 70
     2
  9
$LTSCALE
 40
0.6431102362
  9
$OSMODE
 70
  4095
  9
$ATTMODE
 70
     1
  9
$TEXTSIZE
 40
0.2
  9
$TRACEWID
 40
0.05
  9
$TEXTSTYLE
  7
STANDARD
  9
$CLAYER
  8
0
  9
$CELTYPE
  6
BYLAYER
  9
$CECOLOR
 62
   256
  9
$DIMSCALE
 40
1.0
  9
$DIMASZ
 40
0.1875
  9
$DIMEXO
 40
0.0625
  9
$DIMDLI
 40
0.4443307087
  9
$DIMRND
 40
0.0
  9
$DIMDLE
 40
0.0
  9
$DIMEXE
 40
0.125
  9
$DIMTP
 40
0.01
  9
$DIMTM
 40
0.01
  9
$DIMTXT
 40
2.0
  9
$DIMCEN
 40
0.1052362205
  9
$DIMTSZ
 40
0.0
  9
$DIMTOL
 70
     1
  9
$DIMLIM
 70
     0
  9
$DIMTIH
 70
     1
  9
$DIMTOH
 70
     1
  9
$DIMSE1
 70
     0
  9
$DIMSE2
 70
     0
  9
$DIMTAD
 70
     0
  9
$DIMZIN
 70
     0
  9
$DIMBLK
  1

  9
$DIMASO
 70
     1
  9
$DIMSHO
 70
     1
  9
$DIMPOST
  1
\X
  9
$DIMAPOST
  1

  9
$DIMALT
 70
     1
  9
$DIMALTD
 70
     2
  9
$DIMALTF
 40
25.3999999999999986
  9
$DIMLFAC
 40
1.0
  9
$DIMTOFL
 70
     0
  9
$DIMTVP
 40
0.0
  9
$DIMTIX
 70
     0
  9
$DIMSOXD
 70
     0
  9
$DIMSAH
 70
     0
  9
$DIMBLK1
  1

  9
$DIMBLK2
  1

  9
$DIMSTYLE
  2
STANDARD
  9
$DIMCLRD
 70
     0
  9
$DIMCLRE
 70
     0
  9
$DIMCLRT
 70
     0
  9
$DIMTFAC
 40
1.0
  9
$DIMGAP
 40
0.09
  9
$LUNITS
 70
     2
  9
$LUPREC
 70
     4
  9
$SKETCHINC
 40
0.1
  9
$FILLETRAD
 40
0.0
  9
$AUNITS
 70
     0
  9
$AUPREC
 70
     0
  9
$MENU
  1
.
  9
$ELEVATION
 40
0.0
  9
$PELEVATION
 40
0.0
  9
$THICKNESS
 40
0.0
  9
$LIMCHECK
 70
     0
  9
$BLIPMODE
 70
     0
  9
$CHAMFERA
 40
0.0
  9
$CHAMFERB
 40
0.0
  9
$SKPOLY
 70
     0
  9
$TDCREATE
 40
2458060.468368056230247
  9
$TDUPDATE
 40
2459545.6008101850748062
  9
$TDINDWG
 40
0.3971019676
  9
$TDUSRTIMER
 40
0.3971019676
  9
$USRTIMER
 70
     1
  9
$ANGBASE
 50
0.0
  9
$ANGDIR
 70
     0
  9
$PDMODE
 70
     0
  9
$PDSIZE
 40
0.3125
  9
$PLINEWID
 40
0.0
  9
$COORDS
 70
     1
  9
$SPLFRAME
 70
     0
  9
$SPLINETYPE
 70
     6
  9
$SPLINESEGS
 70
     8
  9
$ATTDIA
 70
     1
  9
$ATTREQ
 70
     1
  9
$HANDLING
 70
     1
  9
$HANDSEED
  5
1BE27
  9
$SURFTAB1
 70
     6
  9
$SURFTAB2
 70
     6
  9
$SURFTYPE
 70
     6
  9
$SURFU
 70
     6
  9
$SURFV
 70
     6
  9
$UCSNAME
  2

  9
$UCSORG
 10
0.0
 20
0.0
 30
0.0
  9
$UCSXDIR
 10
1.0
 20
0.0
 30
0.0
  9
$UCSYDIR
 10
0.0
 20
1.0
 30
0.0
  9
$PUCSNAME
  2

  9
$PUCSORG
 10
0.0
 20
0.0
 30
0.0
  9
$PUCSXDIR
 10
1.0
 20
0.0
 30
0.0
  9
$PUCSYDIR
 10
0.0
 20
1.0
 30
0.0
  9
$USERI1
 70
     0
  9
$USERI2
 70
     0
  9
$USERI3
 70
     0
  9
$USERI4
 70
     0
  9
$USERI5
 70
     0
  9
$USERR1
 40
0.0
  9
$USERR2
 40
0.0
  9
$USERR3
 40
0.0
  9
$USERR4
 40
0.0
  9
$USERR5
 40
0.0
  9
$WORLDVIEW
 70
     1
  9
$SHADEDGE
 70
     3
  9
$SHADEDIF
 70
    70
  9
$TILEMODE
 70
     1
  9
$MAXACTVP
 70
    64
  9
$PLIMCHECK
 70
     0
  9
$PEXTMIN
 10
1.0000000000000000E+20
 20
1.0000000000000000E+20
 30
1.0000000000000000E+20
  9
$PEXTMAX
 10
-1.0000000000000000E+20
 20
-1.0000000000000000E+20
 30
-1.0000000000000000E+20
  9
$PLIMMIN
 10
0.0
 20
0.0
  9
$PLIMMAX
 10
12.0
 20
9.0
  9
$UNITMODE
 70
     0
  9
$VISRETAIN
 70
     1
  9
$PLINEGEN
 70
     0
  9
$PSLTSCALE
 70
     1
  0
ENDSEC
  0
SECTION
  2
TABLES
  0
TABLE
  2
VPORT
 70
     1
  0
VPORT
  2
*ACTIVE
 70
     0
 10
0.0
 20
0.0
 11
1.0
 21
1.0
 12
-477.5600482103956779
 22
10.46146134467112
 13
0.0
 23
0.0
 14
1.0
 24
1.0
 15
0.0
 25
0.0
 16
0.0
 26
0.0
 36
17.1152628219792007
 17
3803.5440673828129547
 27
125.9952621967499056
 37
0.0
 40
4.9300125056169293
 41
2.344785276073619
 42
50.0
 43
0.0
 44
0.0
 50
0.0
 51
0.0
 71
     0
 72
   100
 73
     1
 74
     1
 75
     0
 76
     0
 77
     0
 78
     0
  0
ENDTAB
  0
TABLE
  2
LTYPE
 70
     2
  0
LTYPE
  2
CONTINUOUS
 70
     0
  3
Solid line
 72
    65
 73
     0
 40
0.0
  0
LTYPE
  2
PHANTOM2
 70
     0
  3
___ _ _ ___ _ _ ___ _ _ ___ _ _
 72
    65
 73
     6
 40
1.25
 49
0.625
 49
-0.125
 49
0.125
 49
-0.125
 49
0.125
 49
-0.125
  0
ENDTAB
  0
TABLE
  2
LAYER
 70
     2
  0
LAYER
  2
0
 70
     0
 62
   255
  6
CONTINUOUS
  0
LAYER
  2
DEFPOINTS
 70
     0
 62
     7
  6
CONTINUOUS
  0
ENDTAB
  0
TABLE
  2
STYLE
 70
     1
  0
STYLE
  2
STANDARD
 70
     0
 40
0.0
 41
0.8
 50
0.0
 71
     0
 42
0.2
  3
txt
  4

  0
ENDTAB
  0
TABLE
  2
VIEW
 70
     0
  0
ENDTAB
  0
TABLE
  2
UCS
 70
     0
  0
ENDTAB
  0
TABLE
  2
APPID
 70
     9
  0
APPID
  2
ACAD
 70
     0
  0
APPID
  2
ACAD_MLEADERVER
 70
     0
  0
APPID
  2
ACAD_EXEMPT_FROM_CAD_STANDARDS
 70
     0
  0
APPID
  2
ACAD_NAV_VCDISPLAY
 70
     0
  0
APPID
  2
ACAECLAYERSTANDARD
 70
     0
  0
APPID
  2
ACCMTRANSPARENCY
 70
     0
  0
APPID
  2
ACAD_DSTYLE_DIMJAG
 70
     0
  0
APPID
  2
ACAD_DSTYLE_DIMTALN
 70
     0
  0
APPID
  2
ACDBATTR
 70
     0
  0
ENDTAB
  0
TABLE
  2
DIMSTYLE
 70
     1
  0
DIMSTYLE
  2
STANDARD
 70
     0
  3

  4

  5

  6

  7

 40
1.0
 41
0.1875
 42
0.0625
 43
0.38
 44
0.125
 45
0.0
 46
0.0
 47
0.01
 48
0.01
140
0.15625
141
0.09
142
0.0
143
25.3999999999999986
144
1.0
145
0.0
146
1.0
147
0.09
 71
     1
 72
     0
 73
     1
 74
     1
 75
     0
 76
     0
 77
     0
 78
     4
170
     0
171
     2
172
     0
173
     0
174
     0
175
     0
176
     0
177
     0
178
     0
  0
ENDTAB
  0
ENDSEC
  0
SECTION
  2
BLOCKS
  0
BLOCK
  8
0
  2
$MODEL_SPACE
 70
     0
 10
0.0
 20
0.0
 30
0.0
  3
$MODEL_SPACE
  1

  0
ENDBLK
  5
21
  8
0
  0
BLOCK
 67
     1
  8
0
  2
$PAPER_SPACE
 70
     0
 10
0.0
 20
0.0
 30
0.0
  3
$PAPER_SPACE
  1

  0
ENDBLK
  5
1D
 67
     1
  8
0
  0
ENDSEC
  0
SECTION
  2
ENTITIES
  0
ATTDEF
  5
1BAF0
  8
DEFPOINTS
 10
3325.9868825519288293
 20
134.0141915156578136
 30
0.0
 40
0.001
  1
K-98153T-4
  3

  2
MODELNUMBER
 70
     0
1001
ACDBATTR
1070
     0
1070
     1
  0
ATTDEF
  5
1BAF1
  8
DEFPOINTS
 10
3325.9868825519288293
 20
134.0125248489912053
 30
0.0
 40
0.001
  1
AIRFOIL
  3

  2
TRADENAME
 70
     0
1001
ACDBATTR
1070
     0
1070
     1
  0
ATTDEF
  5
1BAF2
  8
DEFPOINTS
 10
3325.9868825519288293
 20
134.0108581823245117
 30
0.0
 40
0.001
  1
DECK-MOUNT BATH SHOWER CONTROL
  3

  2
PRODUCT
 70
     0
1001
ACDBATTR
1070
     0
1070
     1
  0
LINE
  5
1BD5E
  8
0
 10
3324.2222126811211638
 20
134.0097100349834989
 30
0.0
 11
3327.7458356843208094
 21
134.0097100349834989
 31
0.0
  0
LINE
  5
1BD5F
  8
0
 10
3324.2256801333160183
 20
134.0525684983298049
 30
0.0
 11
3327.7423402238068775
 21
134.0525684983298049
 31
0.0
  0
ARC
  5
1BD60
  8
0
 10
3327.7457699188721563
 20
134.0196188629716119
 30
0.0
 40
0.0099090462301871
 50
270.3802697356475164
 51
358.6214812595121089
  0
LINE
  5
1BD61
  8
0
 10
3327.7556760972220218
 20
134.0193804773834927
 30
0.0
 11
3327.7556775387220114
 21
134.0339489716834862
 31
0.0
  0
ARC
  5
1BD62
  8
0
 10
3327.7358795175850901
 20
134.0338540674582077
 30
0.0
 40
0.0197982486028447
 50
0.2746521927229006
 51
70.9540000774932338
  0
ARC
  5
1BD63
  8
0
 10
3325.9198531503238883
 20
127.1572468532215936
 30
0.0
 40
7.1321048591921041
 50
75.1948387622612131
 51
84.901684943969002
  0
ARC
  5
1BD64
  8
0
 10
3324.2222126809328984
 20
134.0195525545948954
 30
0.0
 40
0.0098425196114127
 50
179.999907508326686
 51
270.0001582716768098
  0
LINE
  5
1BD65
  8
0
 10
3324.2123701613218145
 20
134.019552570483512
 30
0.0
 11
3324.2123702681210489
 21
134.0331761945834899
 31
0.0
  0
ARC
  5
1BD66
  8
0
 10
3324.2322584241092045
 20
134.0337897525436972
 30
0.0
 40
0.0198976179971519
 50
109.3056187459517048
 51
181.7670383978770872
  0
ARC
  5
1BD67
  8
0
 10
3324.2316663369078924
 20
134.0354799568137025
 30
0.0
 40
0.0181067082481189
 50
104.8563055293801938
 51
109.3056187459522022
  0
ARC
  5
1BD68
  8
0
 10
3326.0311108419218726
 20
127.2518554592309954
 30
0.0
 40
7.0363373863344032
 50
95.0263374875722775
 51
104.8563055293801938
  0
LINE
  5
1BD69
  8
0
 10
3325.4146315691550626
 20
134.2611348173801105
 30
0.0
 11
3326.5536476873749052
 21
134.2611348173801105
 31
0.0
  0
ARC
  5
1BD6A
  8
0
 10
3325.9826412041870753
 20
133.617744245384614
 30
0.0
 40
0.7459562753647228
 50
104.7804267279067005
 51
120.401049144610198
  0
ARC
  5
1BD6B
  8
0
 10
3325.7873185748198921
 20
134.3580346265619028
 30
0.0
 40
0.0196681612923886
 50
284.7804267279067858
 51
0.0378453246789356
  0
LINE
  5
1BD6C
  8
0
 10
3325.8069867318217803
 20
134.3580476178834999
 30
0.0
 11
3325.8069848219220148
 21
134.6660124550834894
 31
0.0
  0
ARC
  5
1BD6D
  8
0
 10
3325.7872452242290819
 20
134.6659992122916947
 30
0.0
 40
0.0197415044161892
 50
0.0383562027846093
 51
27.531291994723901
  0
ARC
  5
1BD6E
  8
0
 10
3326.0750846207170071
 20
134.8160387782550913
 30
0.0
 40
0.3048557684084034
 50
194.1297056283247002
 51
207.5312919947238868
  0
ARC
  5
1BD6F
  8
0
 10
3326.7799606601261075
 20
134.9934799603024089
 30
0.0
 40
1.0317227466227661
 50
180.9425496346327975
 51
194.1297056283247002
  0
ARC
  5
1BD70
  8
0
 10
3343.47040196323087
 20
135.5018129924299899
 30
0.0
 40
17.7298081104518097
 50
177.5216001915246977
 51
181.6978270949327907
  0
ARC
  5
1BD71
  8
0
 10
3364.3441588279679308
 20
135.1076776755720914
 30
0.0
 40
38.6044370937871619
 50
175.5393417951734989
 51
178.2768776518219909
  0
ARC
  5
1BD72
  8
0
 10
3333.6065826015710627
 20
137.5055420362405982
 30
0.0
 40
7.7734730192438901
 50
170.4354663183956973
 51
175.5393417951734989
  0
ARC
  5
1BD73
  8
0
 10
3326.292195505098789
 20
138.7380213394633017
 30
0.0
 40
0.3559758787048064
 50
153.4409461848267995
 51
170.4354663183956973
  0
ARC
  5
1BD74
  8
0
 10
3325.9843841067859103
 20
138.891886766025209
 30
0.0
 40
0.0118502818334413
 50
26.565832362193909
 51
153.4409461848281921
  0
LINE
  5
1BD75
  8
0
 10
3325.9843840821708909
 20
138.9037370478586126
 30
0.0
 11
3325.9843840821708909
 21
134.5839286182865919
 31
0.0
  0
ARC
  5
1BD76
  8
0
 10
3326.0043172963078177
 20
134.9041081856991866
 30
0.0
 40
0.3036532226452426
 50
228.882397863994612
 51
238.9058266980347014
  0
ARC
  5
1BD77
  8
0
 10
3326.1244063492131318
 20
135.1032278641214077
 30
0.0
 40
0.5361828486338704
 50
238.9058266980347014
 51
247.7055871630716126
  0
ARC
  5
1BD78
  8
0
 10
3324.8389727454641616
 20
131.9681461218339962
 30
0.0
 40
2.852190961982497
 50
66.6843173797180242
 51
67.7055871630715984
  0
ARC
  5
1BD79
  8
0
 10
3325.9848010286618774
 20
134.6267263254025011
 30
0.0
 40
0.0427997380687443
 50
246.68431737971801
 51
269.4418271418409176
  0
LINE
  5
1BD7A
  8
0
 10
3325.7923368351598583
 20
134.3390174335046083
 30
0.0
 11
3326.1759673534961621
 21
134.3390174335046083
 31
0.0
  0
ARC
  5
1BD7B
  8
0
 10
3325.9861269601551612
 20
133.617744245384614
 30
0.0
 40
0.7459562753647228
 50
59.5989508553897807
 51
75.2195732720932142
  0
ARC
  5
1BD7C
  8
0
 10
3326.1814495895209802
 20
134.3580346265619028
 30
0.0
 40
0.0196681612923886
 50
179.9621546753211021
 51
255.2195732720932142
  0
LINE
  5
1BD7D
  8
0
 10
3326.1617814325200015
 20
134.3580476178834999
 30
0.0
 11
3326.1617833424202217
 21
134.6660124550834894
 31
0.0
  0
ARC
  5
1BD7E
  8
0
 10
3326.1815229401117904
 20
134.6659992122916947
 30
0.0
 40
0.0197415044161892
 50
152.4687080052761132
 51
179.9616437972154017
  0
ARC
  5
1BD7F
  8
0
 10
3325.8936835436238653
 20
134.8160387782550913
 30
0.0
 40
0.3048557684084034
 50
332.4687080052761985
 51
345.8702943716754135
  0
ARC
  5
1BD80
  8
0
 10
3325.1888075042152195
 20
134.9934799603024089
 30
0.0
 40
1.0317227466227661
 50
345.8702943716754135
 51
359.0574503653655256
  0
ARC
  5
1BD81
  8
0
 10
3308.4983662011100023
 20
135.5018129924299899
 30
0.0
 40
17.7298081104518097
 50
358.3021729050670956
 51
2.4783998084753089
  0
ARC
  5
1BD82
  8
0
 10
3287.6246093363729415
 20
135.1076776755720914
 30
0.0
 40
38.6044370937871619
 50
1.7231223481779641
 51
4.4606582048265384
  0
ARC
  5
1BD83
  8
0
 10
3318.3621855627711739
 20
137.5055420362405982
 30
0.0
 40
7.7734730192438901
 50
4.4606582048265384
 51
9.5645336816042406
  0
ARC
  5
1BD84
  8
0
 10
3325.6765726592429928
 20
138.7380213394633017
 30
0.0
 40
0.3559758787048064
 50
9.5645336816042406
 51
26.5590538151732112
  0
ARC
  5
1BD85
  8
0
 10
3325.9644508680330546
 20
134.9041081856991866
 30
0.0
 40
0.3036532226452426
 50
301.094173301965327
 51
311.1176021360054165
  0
ARC
  5
1BD86
  8
0
 10
3325.8443618151281953
 20
135.1032278641214077
 30
0.0
 40
0.5361828486338704
 50
292.2944128369284158
 51
301.094173301965327
  0
ARC
  5
1BD87
  8
0
 10
3327.129795418878075
 20
131.9681461218339962
 30
0.0
 40
2.852190961982497
 50
112.2944128369284016
 51
113.3156826202820042
  0
ARC
  5
1BD88
  8
0
 10
3325.983967135678995
 20
134.6267263254025011
 30
0.0
 40
0.0427997380687443
 50
270.5581728581590824
 51
293.3156826202820184
  0
ARC
  5
1BD89
  8
0
 10
3325.9850766461568128
 20
134.2132797728245919
 30
0.0
 40
0.0262608317589078
 50
53.6997011996700735
 51
132.4108002867862979
  0
ARC
  5
1BD8A
  8
0
 10
3325.9841117925111575
 20
134.2161493888833945
 30
0.0
 40
0.0246440904650076
 50
6.3350512654298337
 51
47.9323655368500994
  0
ARC
  5
1BD8B
  8
0
 10
3325.9864978169280221
 20
134.214287818333105
 30
0.0
 40
0.0265314678922184
 50
136.1476362862757128
 51
178.0283214340718985
  0
ARC
  5
1BD8C
  8
0
 10
3326.0067508504889702
 20
134.2108662278812972
 30
0.0
 40
0.0469692159255233
 50
174.7050907755391904
 51
193.1806681513307922
  0
ARC
  5
1BD8D
  8
0
 10
3325.9911768631741324
 20
134.2053965040219055
 30
0.0
 40
0.0306097655295667
 50
189.8574374927989936
 51
230.6907895419531087
  0
ARC
  5
1BD8E
  8
0
 10
3326.0008748930790716
 20
134.2172412958873906
 30
0.0
 40
0.045918288592998
 50
230.6907895419531087
 51
241.9785828535646885
  0
ARC
  5
1BD8F
  8
0
 10
3325.9838622390079763
 20
134.1868621955883043
 30
0.0
 40
0.0111329285578047
 50
245.8215158720796012
 51
272.4913805851230109
  0
ARC
  5
1BD90
  8
0
 10
3325.9842231346328845
 20
134.201621319926403
 30
0.0
 40
0.0258818222182079
 50
270.272386264434374
 51
283.798500712063003
  0
ARC
  5
1BD91
  8
0
 10
3325.9883925683061534
 20
134.1912343921698039
 30
0.0
 40
0.0148834354703786
 50
277.7365733728954069
 51
312.3439785817703864
  0
ARC
  5
1BD92
  8
0
 10
3325.9639995132260992
 20
134.2092182689387982
 30
0.0
 40
0.0449968089560447
 50
319.8984539677019825
 51
337.653940766631024
  0
ARC
  5
1BD93
  8
0
 10
3325.963859085401964
 20
134.2090464162471903
 30
0.0
 40
0.0450618531932886
 50
337.923927725167573
 51
355.835937208073176
  0
ARC
  5
1BD94
  8
0
 10
3325.9333000371038906
 20
134.2111894645015013
 30
0.0
 40
0.0756958886206505
 50
355.8976884998161268
 51
5.8225701728899342
  0
ARC
  5
1BD95
  8
0
 10
3325.8059740349131062
 20
134.2044964496716091
 30
0.0
 40
0.2030283217721582
 50
359.5353660173174148
 51
1.2067776532953141
  0
ARC
  5
1BD96
  8
0
 10
3325.342309009300152
 20
134.2082565739237054
 30
0.0
 40
0.6667085936303283
 50
358.4802528546364897
 51
359.5353660173174148
  0
ARC
  5
1BD97
  8
0
 10
3325.963529874312826
 20
134.1940972830691976
 30
0.0
 40
0.0453901218677043
 50
339.2592772115809794
 51
355.548695449426873
  0
ARC
  5
1BD98
  8
0
 10
3325.9646152431319024
 20
134.1938290174057897
 30
0.0
 40
0.0442802907403183
 50
324.6545121496397996
 51
339.0865470358834273
  0
ARC
  5
1BD99
  8
0
 10
3325.9884027971661453
 20
134.1760945451005114
 30
0.0
 40
0.0146347670451943
 50
287.9101627403205157
 51
327.4133393791561843
  0
ARC
  5
1BD9A
  8
0
 10
3325.9841069899530339
 20
134.1877935490796858
 30
0.0
 40
0.0270923351606796
 50
270.505847832544589
 51
288.9462570538510136
  0
ARC
  5
1BD9B
  8
0
 10
3326.3964264051519422
 20
134.2032149281504019
 30
0.0
 40
0.4367001144032504
 50
179.0643605274767083
 51
181.658680175716114
  0
ARC
  5
1BD9C
  8
0
 10
3326.0051624801299113
 20
134.1940972830691976
 30
0.0
 40
0.0453901218677043
 50
184.4513045505730986
 51
200.7407227884189922
  0
ARC
  5
1BD9D
  8
0
 10
3326.0040771113108349
 20
134.1938290174057897
 30
0.0
 40
0.0442802907403183
 50
200.9134529641166012
 51
215.3454878503588077
  0
ARC
  5
1BD9E
  8
0
 10
3325.9802895572770467
 20
134.1760945451005114
 30
0.0
 40
0.0146347670451943
 50
212.586660620843702
 51
252.089837259679598
  0
ARC
  5
1BD9F
  8
0
 10
3325.9845853644901581
 20
134.1877935490796858
 30
0.0
 40
0.0270923351606796
 50
251.0537429461489864
 51
269.494152167455411
  0
ENDSEC
  0
EOF
