  0
SECTION
  2
HEADER
  9
$ACADVER
  1
AC1009
  9
$INSBASE
 10
490.5390229658534054
 20
84.0922938686477153
 30
0.0
  9
$EXTMIN
 10
486.898183419654913
 20
80.3334832455325909
 30
-0.0000000000000058
  9
$EXTMAX
 10
490.5788307141655764
 20
87.8541722508811063
 30
0.0000000000000104
  9
$LIMMIN
 10
0.0
 20
0.0
  9
$LIMMAX
 10
11.6929133858000007
 20
8.2677165353999982
  9
$ORTHOMODE
 70
     0
  9
$REGENMODE
 70
     1
  9
$FILLMODE
 70
     1
  9
$QTEXTMODE
 70
     0
  9
$MIRRTEXT
 70
     0
  9
$DRAGMODE
 70
     2
  9
$LTSCALE
 40
0.6431102362
  9
$OSMODE
 70
  4095
  9
$ATTMODE
 70
     1
  9
$TEXTSIZE
 40
0.2
  9
$TRACEWID
 40
0.05
  9
$TEXTSTYLE
  7
STANDARD
  9
$CLAYER
  8
0
  9
$CELTYPE
  6
BYLAYER
  9
$CECOLOR
 62
   256
  9
$DIMSCALE
 40
1.0
  9
$DIMASZ
 40
0.1875
  9
$DIMEXO
 40
0.0625
  9
$DIMDLI
 40
0.4443307087
  9
$DIMRND
 40
0.0
  9
$DIMDLE
 40
0.0
  9
$DIMEXE
 40
0.125
  9
$DIMTP
 40
0.01
  9
$DIMTM
 40
0.01
  9
$DIMTXT
 40
1.0
  9
$DIMCEN
 40
0.1052362205
  9
$DIMTSZ
 40
0.0
  9
$DIMTOL
 70
     1
  9
$DIMLIM
 70
     0
  9
$DIMTIH
 70
     0
  9
$DIMTOH
 70
     1
  9
$DIMSE1
 70
     0
  9
$DIMSE2
 70
     0
  9
$DIMTAD
 70
     0
  9
$DIMZIN
 70
     0
  9
$DIMBLK
  1

  9
$DIMASO
 70
     1
  9
$DIMSHO
 70
     1
  9
$DIMPOST
  1
\X
  9
$DIMAPOST
  1

  9
$DIMALT
 70
     1
  9
$DIMALTD
 70
     2
  9
$DIMALTF
 40
25.3999999999999986
  9
$DIMLFAC
 40
1.0
  9
$DIMTOFL
 70
     0
  9
$DIMTVP
 40
0.0
  9
$DIMTIX
 70
     0
  9
$DIMSOXD
 70
     0
  9
$DIMSAH
 70
     0
  9
$DIMBLK1
  1

  9
$DIMBLK2
  1

  9
$DIMSTYLE
  2
STANDARD
  9
$DIMCLRD
 70
     0
  9
$DIMCLRE
 70
     0
  9
$DIMCLRT
 70
     0
  9
$DIMTFAC
 40
1.0
  9
$DIMGAP
 40
0.09
  9
$LUNITS
 70
     2
  9
$LUPREC
 70
     4
  9
$SKETCHINC
 40
0.1
  9
$FILLETRAD
 40
0.0
  9
$AUNITS
 70
     0
  9
$AUPREC
 70
     0
  9
$MENU
  1
.
  9
$ELEVATION
 40
0.0
  9
$PELEVATION
 40
0.0
  9
$THICKNESS
 40
0.0
  9
$LIMCHECK
 70
     0
  9
$BLIPMODE
 70
     0
  9
$CHAMFERA
 40
0.0
  9
$CHAMFERB
 40
0.0
  9
$SKPOLY
 70
     0
  9
$TDCREATE
 40
2458172.5207638889551163
  9
$TDUPDATE
 40
2459387.999027777928859
  9
$TDINDWG
 40
0.3155411806
  9
$TDUSRTIMER
 40
0.3155411806
  9
$USRTIMER
 70
     1
  9
$ANGBASE
 50
0.0
  9
$ANGDIR
 70
     0
  9
$PDMODE
 70
     0
  9
$PDSIZE
 40
0.3125
  9
$PLINEWID
 40
0.0
  9
$COORDS
 70
     1
  9
$SPLFRAME
 70
     0
  9
$SPLINETYPE
 70
     6
  9
$SPLINESEGS
 70
     8
  9
$ATTDIA
 70
     1
  9
$ATTREQ
 70
     1
  9
$HANDLING
 70
     1
  9
$HANDSEED
  5
10B2D
  9
$SURFTAB1
 70
     6
  9
$SURFTAB2
 70
     6
  9
$SURFTYPE
 70
     6
  9
$SURFU
 70
     6
  9
$SURFV
 70
     6
  9
$UCSNAME
  2

  9
$UCSORG
 10
0.0
 20
0.0
 30
0.0
  9
$UCSXDIR
 10
1.0
 20
0.0
 30
0.0
  9
$UCSYDIR
 10
0.0
 20
1.0
 30
0.0
  9
$PUCSNAME
  2

  9
$PUCSORG
 10
0.0
 20
0.0
 30
0.0
  9
$PUCSXDIR
 10
1.0
 20
0.0
 30
0.0
  9
$PUCSYDIR
 10
0.0
 20
1.0
 30
0.0
  9
$USERI1
 70
     0
  9
$USERI2
 70
     0
  9
$USERI3
 70
     0
  9
$USERI4
 70
     0
  9
$USERI5
 70
     0
  9
$USERR1
 40
0.0
  9
$USERR2
 40
0.0
  9
$USERR3
 40
0.0
  9
$USERR4
 40
0.0
  9
$USERR5
 40
0.0
  9
$WORLDVIEW
 70
     1
  9
$SHADEDGE
 70
     3
  9
$SHADEDIF
 70
    70
  9
$TILEMODE
 70
     1
  9
$MAXACTVP
 70
    64
  9
$PLIMCHECK
 70
     0
  9
$PEXTMIN
 10
1.0000000000000000E+20
 20
1.0000000000000000E+20
 30
1.0000000000000000E+20
  9
$PEXTMAX
 10
-1.0000000000000000E+20
 20
-1.0000000000000000E+20
 30
-1.0000000000000000E+20
  9
$PLIMMIN
 10
0.0
 20
0.0
  9
$PLIMMAX
 10
12.0
 20
9.0
  9
$UNITMODE
 70
     0
  9
$VISRETAIN
 70
     1
  9
$PLINEGEN
 70
     0
  9
$PSLTSCALE
 70
     1
  0
ENDSEC
  0
SECTION
  2
TABLES
  0
TABLE
  2
VPORT
 70
     1
  0
VPORT
  2
*ACTIVE
 70
     0
 10
0.0
 20
0.0
 11
1.0
 21
1.0
 12
59.1092179588565614
 22
14.3912862359881597
 13
0.0
 23
0.0
 14
1.0
 24
1.0
 15
0.0
 25
0.0
 16
0.0
 26
0.0
 36
14.6338572656650907
 17
429.6292891080536833
 27
69.7025415122186871
 37
0.0
 40
7.5784663856712964
 41
1.619230769230769
 42
50.0
 43
0.0
 44
0.0
 50
0.0
 51
0.0
 71
     0
 72
   100
 73
     1
 74
     1
 75
     0
 76
     0
 77
     0
 78
     0
  0
ENDTAB
  0
TABLE
  2
LTYPE
 70
     2
  0
LTYPE
  2
CONTINUOUS
 70
     0
  3
Solid line
 72
    65
 73
     0
 40
0.0
  0
LTYPE
  2
PHANTOM2
 70
     0
  3
___ _ _ ___ _ _ ___ _ _ ___ _ _
 72
    65
 73
     6
 40
1.25
 49
0.625
 49
-0.125
 49
0.125
 49
-0.125
 49
0.125
 49
-0.125
  0
ENDTAB
  0
TABLE
  2
LAYER
 70
     2
  0
LAYER
  2
0
 70
     0
 62
   255
  6
CONTINUOUS
  0
LAYER
  2
DEFPOINTS
 70
     0
 62
     7
  6
CONTINUOUS
  0
ENDTAB
  0
TABLE
  2
STYLE
 70
     1
  0
STYLE
  2
STANDARD
 70
     0
 40
0.0
 41
0.8
 50
0.0
 71
     0
 42
0.2
  3
txt
  4

  0
ENDTAB
  0
TABLE
  2
VIEW
 70
     1
  0
ENDTAB
  0
TABLE
  2
UCS
 70
     0
  0
ENDTAB
  0
TABLE
  2
APPID
 70
    10
  0
APPID
  2
ACAD
 70
     0
  0
APPID
  2
ACAD_MLEADERVER
 70
     0
  0
APPID
  2
ACAD_EXEMPT_FROM_CAD_STANDARDS
 70
     0
  0
APPID
  2
ACAD_DSTYLE_DIMJAG
 70
     0
  0
APPID
  2
ACAD_DSTYLE_DIMTALN
 70
     0
  0
APPID
  2
ACAD_NAV_VCDISPLAY
 70
     0
  0
APPID
  2
ACAECLAYERSTANDARD
 70
     0
  0
APPID
  2
ACCMTRANSPARENCY
 70
     0
  0
APPID
  2
DCO15
 70
     0
  0
APPID
  2
ACDBATTR
 70
     0
  0
ENDTAB
  0
TABLE
  2
DIMSTYLE
 70
     1
  0
DIMSTYLE
  2
STANDARD
 70
     0
  3

  4

  5

  6

  7

 40
1.0
 41
0.1875
 42
0.0625
 43
0.38
 44
0.125
 45
0.0
 46
0.0
 47
0.01
 48
0.01
140
0.15625
141
0.09
142
0.0
143
25.3999999999999986
144
1.0
145
0.0
146
1.0
147
0.09
 71
     1
 72
     0
 73
     1
 74
     1
 75
     0
 76
     0
 77
     0
 78
     4
170
     0
171
     2
172
     0
173
     0
174
     0
175
     0
176
     0
177
     0
178
     0
  0
ENDTAB
  0
ENDSEC
  0
SECTION
  2
BLOCKS
  0
BLOCK
  8
0
  2
$MODEL_SPACE
 70
     0
 10
0.0
 20
0.0
 30
0.0
  3
$MODEL_SPACE
  1

  0
ENDBLK
  5
21
  8
0
  0
BLOCK
 67
     1
  8
0
  2
$PAPER_SPACE
 70
     0
 10
0.0
 20
0.0
 30
0.0
  3
$PAPER_SPACE
  1

  0
ENDBLK
  5
1D
 67
     1
  8
0
  0
ENDSEC
  0
SECTION
  2
ENTITIES
  0
ATTDEF
  5
E04D
  8
DEFPOINTS
 10
490.5436545042182956
 20
84.0926630585069859
 30
0.0
 40
0.001
  1
K-98152T-7
  3

  2
MODELNUMBER
 70
     0
1001
ACDBATTR
1070
     0
1070
     1
  0
ATTDEF
  5
E04E
  8
DEFPOINTS
 10
490.5436545042182956
 20
84.0909963918403349
 30
0.0
 40
0.001
  1
AIRFOIL
  3

  2
TRADENAME
 70
     0
1001
ACDBATTR
1070
     0
1070
     1
  0
ATTDEF
  5
E04F
  8
DEFPOINTS
 10
490.5436545042182956
 20
84.0893297251736556
 30
0.0
 40
0.001
  1
VALVE TRIM
  3

  2
PRODUCT
 70
     0
1001
ACDBATTR
1070
     0
1070
     1
  0
LINE
  5
10A9E
  8
0
 10
490.5390229658534054
 20
87.8504212690998969
 30
0.0
 11
490.5390229658534054
 21
80.3341664681955052
 31
0.0
  0
LINE
  5
10A9F
  8
0
 10
488.314613652753394
 20
86.6808965483632505
 30
0.0
 11
488.314613652753394
 21
84.6533645695501775
 31
0.0
  0
LINE
  5
10AA0
  8
0
 10
488.3343073120939266
 20
86.6808965483632505
 30
0.0
 11
488.3342986920533235
 21
84.653337493263237
 31
0.0
  0
LINE
  5
10AA1
  8
0
 10
487.0072775914533167
 20
86.5950735199955233
 30
0.0
 11
488.3047776956706798
 21
86.689821303759075
 31
0.0
  0
ARC
  5
10AA2
  8
0
 10
488.1319337249383921
 20
89.4204667437498131
 30
0.0
 40
2.7365695461483042
 50
274.434720489165727
 51
291.7795760528188111
  0
LINE
  5
10AA3
  8
0
 10
489.1610703433534013
 20
86.8795435179676048
 30
0.0
 11
489.1610703433534013
 21
84.4539753644016287
 31
0.0
  0
ARC
  5
10AA4
  8
0
 10
488.2149857778146043
 20
88.8801050384820996
 30
0.0
 40
2.2072830432366142
 50
295.5435135271703757
 51
323.8716150582166051
  0
ARC
  5
10AA5
  8
0
 10
490.5386538502064013
 20
87.2083683552875755
 30
0.0
 40
0.6554871376607095
 50
109.1444393505198036
 51
145.5998343337076051
  0
ARC
  5
10AA6
  8
0
 10
490.4492611916238047
 20
87.3327493704860558
 30
0.0
 40
0.5105387449468531
 50
93.0939064769586082
 51
104.2388872880479056
  0
ARC
  5
10AA7
  8
0
 10
490.925836062003782
 20
81.2120661175731442
 30
0.0
 40
6.6496152888084881
 50
93.3348209132989552
 51
94.3479600929866677
  0
ARC
  5
10AA8
  8
0
 10
489.1733351915269736
 20
86.8781157073056391
 30
0.0
 40
0.0123476776768053
 50
122.1837048020589975
 51
173.3598087250693141
  0
ARC
  5
10AA9
  8
0
 10
489.148615952788191
 20
86.8663275568322035
 30
0.0
 40
0.0129777485802348
 50
16.3270528644803399
 51
95.8116716688326306
  0
ARC
  5
10AAA
  8
0
 10
487.0098957787021732
 20
86.5162340847744247
 30
0.0
 40
0.0788828970718725
 50
91.902042665076749
 51
179.9463829313361032
  0
ARC
  5
10AAB
  8
0
 10
487.0100918070589842
 20
84.8189293040367431
 30
0.0
 40
0.0793378099062059
 50
186.7228919586696918
 51
267.9672170858397067
  0
ARC
  5
10AAC
  8
0
 10
498.642370273800509
 20
85.6682855525313869
 30
0.0
 40
11.74201997379161
 50
175.8584264388180998
 51
180.0057019093025872
  0
ARC
  5
10AAD
  8
0
 10
498.8947017283254013
 20
85.6707370471618219
 30
0.0
 40
11.99435191645372
 50
180.017292491768103
 51
184.1169064491951133
  0
ARC
  5
10AAE
  8
0
 10
488.30561361353341
 20
86.6808600942318606
 30
0.0
 40
0.0090001130472858
 50
0.2320719278272047
 51
95.3292324074779742
  0
ARC
  5
10AAF
  8
0
 10
488.3464101227730794
 20
86.6803200221090435
 30
0.0
 40
0.0121165345234473
 50
103.7310803855250043
 51
177.2727351860721114
  0
LINE
  5
10AB0
  8
0
 10
488.314613652753394
 20
86.6808965483632505
 30
0.0
 11
488.3343073120939266
 21
86.6808965483632505
 31
0.0
  0
ARC
  5
10AB1
  8
0
 10
486.0831079047489993
 20
63.2630338502787382
 30
0.0
 40
21.4964825586341917
 50
84.0681187063782147
 51
87.5359993218492463
  0
ARC
  5
10AB2
  8
0
 10
488.3046579086457086
 20
84.6544247628360438
 30
0.0
 40
0.0100120352846352
 50
270.1466729813695906
 51
353.9214457249835277
  0
ARC
  5
10AB3
  8
0
 10
488.1314093948410004
 20
81.9112130022598564
 30
0.0
 40
2.7391569382920671
 50
68.2288971986985189
 51
85.5585011161681734
  0
ARC
  5
10AB4
  8
0
 10
489.1486279989359787
 20
84.4678862161796218
 30
0.0
 40
0.0129541738167299
 50
264.3886904086924119
 51
343.8402067899926919
  0
ARC
  5
10AB5
  8
0
 10
488.346421015970293
 20
84.6539323145206737
 30
0.0
 40
0.0121369085634158
 50
182.8091507284561033
 51
256.2337493669372179
  0
LINE
  5
10AB6
  8
0
 10
488.314613652753394
 20
84.653337493263237
 30
0.0
 11
488.3342986920533235
 21
84.6533374932632796
 31
0.0
  0
ARC
  5
10AB7
  8
0
 10
488.9356190233818893
 20
84.0884547877438848
 30
0.0
 40
0.4248127751331862
 50
0.5288998928154698
 51
57.1229463482295472
  0
ARC
  5
10AB8
  8
0
 10
489.172628696965603
 20
84.4548934675705993
 30
0.0
 40
0.011594759663501
 50
184.5415828709448931
 51
236.4673008835358985
  0
LINE
  5
10AB9
  8
0
 10
488.314613652753394
 20
81.5038558470388779
 30
0.0
 11
488.314613652753394
 21
83.5313878258519651
 31
0.0
  0
LINE
  5
10ABA
  8
0
 10
488.3343073120939266
 20
81.5038558470388779
 30
0.0
 11
488.3342986920533235
 21
83.5314149021388914
 31
0.0
  0
LINE
  5
10ABB
  8
0
 10
488.1901164510574063
 20
81.5056275420315473
 30
0.0
 11
488.3047776956706798
 21
81.4949310916430534
 31
0.0
  0
LINE
  5
10ABC
  8
0
 10
487.0220576465229101
 20
81.3533956230047437
 30
0.0
 11
487.4871727417075817
 21
81.3281234288041333
 31
0.0
  0
ARC
  5
10ABD
  8
0
 10
487.0262561801894208
 20
81.4312825430558718
 30
0.0
 40
0.078
 50
183.5658731723785877
 51
266.9144285140787929
  0
LINE
  5
10ABE
  8
0
 10
487.8343937085534208
 20
81.300584948417594
 30
0.0
 11
487.4871727417075817
 21
81.3281234288041333
 31
0.0
  0
ARC
  5
10ABF
  8
0
 10
487.8508993463340175
 20
81.4974440672363016
 30
0.0
 40
0.1975498639347092
 50
265.2072497315700161
 51
331.1453312985498201
  0
ARC
  5
10AC0
  8
0
 10
488.2015072895878234
 20
81.302263233823254
 30
0.0
 40
0.2036830701247537
 50
93.2059004594232761
 51
150.6763363293258067
  0
ARC
  5
10AC1
  8
0
 10
488.1319337249383921
 20
78.7642856516523153
 30
0.0
 40
2.7365695461483042
 50
68.2204239471811604
 51
85.565279510834273
  0
LINE
  5
10AC2
  8
0
 10
489.1610703433534013
 20
81.3052088774345378
 30
0.0
 11
489.1610703433534013
 21
83.7307770310004855
 31
0.0
  0
ARC
  5
10AC3
  8
0
 10
488.2149857778146043
 20
79.304647356920043
 30
0.0
 40
2.2072830432366142
 50
36.1283849417840699
 51
64.4564864728295532
  0
ARC
  5
10AC4
  8
0
 10
490.5386538502064013
 20
80.9763840401145529
 30
0.0
 40
0.6554871376607095
 50
214.4001656662923949
 51
250.8555606494801964
  0
ARC
  5
10AC5
  8
0
 10
490.4492611916238047
 20
80.8520030249160726
 30
0.0
 40
0.5105387449468531
 50
255.7611127119521086
 51
266.9060935230413065
  0
ARC
  5
10AC6
  8
0
 10
491.1453594345355214
 20
90.039191342572849
 30
0.0
 40
9.7239473325155679
 50
265.7321189587532899
 51
266.4250040034501126
  0
ARC
  5
10AC7
  8
0
 10
489.1733351915269736
 20
81.306636688096475
 30
0.0
 40
0.0123476776768053
 50
186.6401912749306007
 51
237.8162951979410025
  0
ARC
  5
10AC8
  8
0
 10
489.148615952788191
 20
81.3184248385699249
 30
0.0
 40
0.0129777485802348
 50
264.1883283311673267
 51
343.672947135519621
  0
LINE
  5
10AC9
  8
0
 10
486.9979617345525185
 20
81.6053281179237757
 30
0.0
 11
488.1901164510579179
 21
81.505627542031533
 31
0.0
  0
ARC
  5
10ACA
  8
0
 10
487.0054225121224931
 20
81.6803070878971766
 30
0.0
 40
0.0753492477747328
 50
189.0580353660380979
 51
264.3174925015669032
  0
LINE
  5
10ACB
  8
0
 10
486.9484071920093129
 20
81.4264312505122234
 30
0.0
 11
486.9274313527573099
 21
81.7182761601174548
 31
0.0
  0
ARC
  5
10ACC
  8
0
 10
487.0100918070589842
 20
83.3658230913653853
 30
0.0
 40
0.0793378099062059
 50
92.0327829141603075
 51
173.2771080413303082
  0
ARC
  5
10ACD
  8
0
 10
498.7113739801508245
 20
82.5176353745387985
 30
0.0
 40
11.8110236219974993
 50
179.9999999999992042
 51
183.8806920658304875
  0
ARC
  5
10ACE
  8
0
 10
498.8947017283254013
 20
82.5140153482403065
 30
0.0
 40
11.99435191645372
 50
175.8830935508048015
 51
179.982707508231897
  0
ARC
  5
10ACF
  8
0
 10
488.30561361353341
 20
81.5038923011702536
 30
0.0
 40
0.0090001130472858
 50
264.6707675925219974
 51
359.7679280721728219
  0
ARC
  5
10AD0
  8
0
 10
488.3464101227730794
 20
81.5044323732930849
 30
0.0
 40
0.0121165345234473
 50
182.7272648139278886
 51
256.2689196144750099
  0
LINE
  5
10AD1
  8
0
 10
488.314613652753394
 20
81.5038558470388779
 30
0.0
 11
488.3343073120939266
 21
81.5038558470388779
 31
0.0
  0
ARC
  5
10AD2
  8
0
 10
486.0831079047489993
 20
104.9217185451232979
 30
0.0
 40
21.4964825586341917
 50
272.4640006781507964
 51
275.9318812936218137
  0
ARC
  5
10AD3
  8
0
 10
488.3046579086457086
 20
83.5303276325660988
 30
0.0
 40
0.0100120352846352
 50
6.0785542750164767
 51
89.8533270186304236
  0
ARC
  5
10AD4
  8
0
 10
488.1314093948410004
 20
86.273539393142272
 30
0.0
 40
2.7391569382920671
 50
274.4414988838317981
 51
291.7711028013014811
  0
ARC
  5
10AD5
  8
0
 10
489.1486279989359787
 20
83.7168661792225066
 30
0.0
 40
0.0129541738167299
 50
16.159793210007269
 51
95.6113095913075739
  0
ARC
  5
10AD6
  8
0
 10
488.346421015970293
 20
83.5308200808814689
 30
0.0
 40
0.0121369085634158
 50
103.7662506330626968
 51
177.1908492715438115
  0
LINE
  5
10AD7
  8
0
 10
488.314613652753394
 20
83.5314149021388914
 30
0.0
 11
488.3342986920533235
 21
83.5314149021388346
 31
0.0
  0
ARC
  5
10AD8
  8
0
 10
488.9507221612296917
 20
84.087985686592134
 30
0.0
 40
0.4097150628598162
 50
301.7341598055534746
 51
0.6139939534011148
  0
ARC
  5
10AD9
  8
0
 10
489.172628696965603
 20
83.7298589278315291
 30
0.0
 40
0.011594759663501
 50
123.5326991164641015
 51
175.4584171290551069
  0
ENDSEC
  0
EOF
