  0
SECTION
  2
HEADER
  9
$ACADVER
  1
AC1009
  9
$INSBASE
 10
488.6427476947509945
 20
84.4684485734545092
 30
0.0
  9
$EXTMIN
 10
485.7154701099012186
 20
80.829583188748245
 30
-0.0000000000000058
  9
$EXTMAX
 10
491.5605100720902101
 20
84.4773605264395258
 30
0.0000000000000104
  9
$LIMMIN
 10
0.0
 20
0.0
  9
$LIMMAX
 10
11.6929133858000007
 20
8.2677165353999982
  9
$ORTHOMODE
 70
     0
  9
$REGENMODE
 70
     1
  9
$FILLMODE
 70
     1
  9
$QTEXTMODE
 70
     0
  9
$MIRRTEXT
 70
     0
  9
$DRAGMODE
 70
     2
  9
$LTSCALE
 40
0.6431102362
  9
$OSMODE
 70
  4095
  9
$ATTMODE
 70
     1
  9
$TEXTSIZE
 40
0.2
  9
$TRACEWID
 40
0.05
  9
$TEXTSTYLE
  7
STANDARD
  9
$CLAYER
  8
0
  9
$CELTYPE
  6
BYLAYER
  9
$CECOLOR
 62
   256
  9
$DIMSCALE
 40
1.0
  9
$DIMASZ
 40
0.1875
  9
$DIMEXO
 40
0.0625
  9
$DIMDLI
 40
0.4443307087
  9
$DIMRND
 40
0.0
  9
$DIMDLE
 40
0.0
  9
$DIMEXE
 40
0.125
  9
$DIMTP
 40
0.01
  9
$DIMTM
 40
0.01
  9
$DIMTXT
 40
1.0
  9
$DIMCEN
 40
0.1052362205
  9
$DIMTSZ
 40
0.0
  9
$DIMTOL
 70
     1
  9
$DIMLIM
 70
     0
  9
$DIMTIH
 70
     0
  9
$DIMTOH
 70
     1
  9
$DIMSE1
 70
     0
  9
$DIMSE2
 70
     0
  9
$DIMTAD
 70
     0
  9
$DIMZIN
 70
     0
  9
$DIMBLK
  1

  9
$DIMASO
 70
     1
  9
$DIMSHO
 70
     1
  9
$DIMPOST
  1
\X
  9
$DIMAPOST
  1

  9
$DIMALT
 70
     1
  9
$DIMALTD
 70
     2
  9
$DIMALTF
 40
25.3999999999999986
  9
$DIMLFAC
 40
1.0
  9
$DIMTOFL
 70
     0
  9
$DIMTVP
 40
0.0
  9
$DIMTIX
 70
     0
  9
$DIMSOXD
 70
     0
  9
$DIMSAH
 70
     0
  9
$DIMBLK1
  1

  9
$DIMBLK2
  1

  9
$DIMSTYLE
  2
STANDARD
  9
$DIMCLRD
 70
     0
  9
$DIMCLRE
 70
     0
  9
$DIMCLRT
 70
     0
  9
$DIMTFAC
 40
1.0
  9
$DIMGAP
 40
0.09
  9
$LUNITS
 70
     2
  9
$LUPREC
 70
     4
  9
$SKETCHINC
 40
0.1
  9
$FILLETRAD
 40
0.0
  9
$AUNITS
 70
     0
  9
$AUPREC
 70
     0
  9
$MENU
  1
.
  9
$ELEVATION
 40
0.0
  9
$PELEVATION
 40
0.0
  9
$THICKNESS
 40
0.0
  9
$LIMCHECK
 70
     0
  9
$BLIPMODE
 70
     0
  9
$CHAMFERA
 40
0.0
  9
$CHAMFERB
 40
0.0
  9
$SKPOLY
 70
     0
  9
$TDCREATE
 40
2458172.5207638889551163
  9
$TDUPDATE
 40
2459387.9984606481157243
  9
$TDINDWG
 40
0.3152634028
  9
$TDUSRTIMER
 40
0.3152634028
  9
$USRTIMER
 70
     1
  9
$ANGBASE
 50
0.0
  9
$ANGDIR
 70
     0
  9
$PDMODE
 70
     0
  9
$PDSIZE
 40
0.3125
  9
$PLINEWID
 40
0.0
  9
$COORDS
 70
     1
  9
$SPLFRAME
 70
     0
  9
$SPLINETYPE
 70
     6
  9
$SPLINESEGS
 70
     8
  9
$ATTDIA
 70
     1
  9
$ATTREQ
 70
     1
  9
$HANDLING
 70
     1
  9
$HANDSEED
  5
10A90
  9
$SURFTAB1
 70
     6
  9
$SURFTAB2
 70
     6
  9
$SURFTYPE
 70
     6
  9
$SURFU
 70
     6
  9
$SURFV
 70
     6
  9
$UCSNAME
  2

  9
$UCSORG
 10
0.0
 20
0.0
 30
0.0
  9
$UCSXDIR
 10
1.0
 20
0.0
 30
0.0
  9
$UCSYDIR
 10
0.0
 20
1.0
 30
0.0
  9
$PUCSNAME
  2

  9
$PUCSORG
 10
0.0
 20
0.0
 30
0.0
  9
$PUCSXDIR
 10
1.0
 20
0.0
 30
0.0
  9
$PUCSYDIR
 10
0.0
 20
1.0
 30
0.0
  9
$USERI1
 70
     0
  9
$USERI2
 70
     0
  9
$USERI3
 70
     0
  9
$USERI4
 70
     0
  9
$USERI5
 70
     0
  9
$USERR1
 40
0.0
  9
$USERR2
 40
0.0
  9
$USERR3
 40
0.0
  9
$USERR4
 40
0.0
  9
$USERR5
 40
0.0
  9
$WORLDVIEW
 70
     1
  9
$SHADEDGE
 70
     3
  9
$SHADEDIF
 70
    70
  9
$TILEMODE
 70
     1
  9
$MAXACTVP
 70
    64
  9
$PLIMCHECK
 70
     0
  9
$PEXTMIN
 10
1.0000000000000000E+20
 20
1.0000000000000000E+20
 30
1.0000000000000000E+20
  9
$PEXTMAX
 10
-1.0000000000000000E+20
 20
-1.0000000000000000E+20
 30
-1.0000000000000000E+20
  9
$PLIMMIN
 10
0.0
 20
0.0
  9
$PLIMMAX
 10
12.0
 20
9.0
  9
$UNITMODE
 70
     0
  9
$VISRETAIN
 70
     1
  9
$PLINEGEN
 70
     0
  9
$PSLTSCALE
 70
     1
  0
ENDSEC
  0
SECTION
  2
TABLES
  0
TABLE
  2
VPORT
 70
     1
  0
VPORT
  2
*ACTIVE
 70
     0
 10
0.0
 20
0.0
 11
1.0
 21
1.0
 12
59.0087009829419529
 22
12.9509303453752
 13
0.0
 23
0.0
 14
1.0
 24
1.0
 15
0.0
 25
0.0
 16
0.0
 26
0.0
 36
14.6338572656650907
 17
429.6292891080536833
 27
69.7025415122186871
 37
0.0
 40
3.6766897076069318
 41
1.67063492063492
 42
50.0
 43
0.0
 44
0.0
 50
0.0
 51
0.0
 71
     0
 72
   100
 73
     1
 74
     1
 75
     0
 76
     0
 77
     0
 78
     0
  0
ENDTAB
  0
TABLE
  2
LTYPE
 70
     2
  0
LTYPE
  2
CONTINUOUS
 70
     0
  3
Solid line
 72
    65
 73
     0
 40
0.0
  0
LTYPE
  2
PHANTOM2
 70
     0
  3
___ _ _ ___ _ _ ___ _ _ ___ _ _
 72
    65
 73
     6
 40
1.25
 49
0.625
 49
-0.125
 49
0.125
 49
-0.125
 49
0.125
 49
-0.125
  0
ENDTAB
  0
TABLE
  2
LAYER
 70
     2
  0
LAYER
  2
0
 70
     0
 62
   255
  6
CONTINUOUS
  0
LAYER
  2
DEFPOINTS
 70
     0
 62
     7
  6
CONTINUOUS
  0
ENDTAB
  0
TABLE
  2
STYLE
 70
     1
  0
STYLE
  2
STANDARD
 70
     0
 40
0.0
 41
0.8
 50
0.0
 71
     0
 42
0.2
  3
txt
  4

  0
ENDTAB
  0
TABLE
  2
VIEW
 70
     1
  0
ENDTAB
  0
TABLE
  2
UCS
 70
     0
  0
ENDTAB
  0
TABLE
  2
APPID
 70
    10
  0
APPID
  2
ACAD
 70
     0
  0
APPID
  2
ACAD_MLEADERVER
 70
     0
  0
APPID
  2
ACAD_EXEMPT_FROM_CAD_STANDARDS
 70
     0
  0
APPID
  2
ACAD_DSTYLE_DIMJAG
 70
     0
  0
APPID
  2
ACAD_DSTYLE_DIMTALN
 70
     0
  0
APPID
  2
ACAD_NAV_VCDISPLAY
 70
     0
  0
APPID
  2
ACAECLAYERSTANDARD
 70
     0
  0
APPID
  2
ACCMTRANSPARENCY
 70
     0
  0
APPID
  2
DCO15
 70
     0
  0
APPID
  2
ACDBATTR
 70
     0
  0
ENDTAB
  0
TABLE
  2
DIMSTYLE
 70
     1
  0
DIMSTYLE
  2
STANDARD
 70
     0
  3

  4

  5

  6

  7

 40
1.0
 41
0.1875
 42
0.0625
 43
0.38
 44
0.125
 45
0.0
 46
0.0
 47
0.01
 48
0.01
140
0.15625
141
0.09
142
0.0
143
25.3999999999999986
144
1.0
145
0.0
146
1.0
147
0.09
 71
     1
 72
     0
 73
     1
 74
     1
 75
     0
 76
     0
 77
     0
 78
     4
170
     0
171
     2
172
     0
173
     0
174
     0
175
     0
176
     0
177
     0
178
     0
  0
ENDTAB
  0
ENDSEC
  0
SECTION
  2
BLOCKS
  0
BLOCK
  8
0
  2
$MODEL_SPACE
 70
     0
 10
0.0
 20
0.0
 30
0.0
  3
$MODEL_SPACE
  1

  0
ENDBLK
  5
21
  8
0
  0
BLOCK
 67
     1
  8
0
  2
$PAPER_SPACE
 70
     0
 10
0.0
 20
0.0
 30
0.0
  3
$PAPER_SPACE
  1

  0
ENDBLK
  5
1D
 67
     1
  8
0
  0
ENDSEC
  0
SECTION
  2
ENTITIES
  0
ATTDEF
  5
E04D
  8
DEFPOINTS
 10
488.6390788153540825
 20
84.4738652297955355
 30
0.0
 40
0.001
  1
K-98152T-7
  3

  2
MODELNUMBER
 70
     0
1001
ACDBATTR
1070
     0
1070
     1
  0
ATTDEF
  5
E04E
  8
DEFPOINTS
 10
488.6390788153540825
 20
84.4721985631288703
 30
0.0
 40
0.001
  1
AIRFOIL
  3

  2
TRADENAME
 70
     0
1001
ACDBATTR
1070
     0
1070
     1
  0
ATTDEF
  5
E04F
  8
DEFPOINTS
 10
488.6390788153540825
 20
84.4705318964622052
 30
0.0
 40
0.001
  1
VALVE TRIM
  3

  2
PRODUCT
 70
     0
1001
ACDBATTR
1070
     0
1070
     1
  0
LINE
  5
10A0D
  8
0
 10
485.750276736950525
 20
84.4684485734545092
 30
0.0
 11
491.5352186525514071
 21
84.4684485734545092
 31
0.0
  0
ARC
  5
10A0E
  8
0
 10
469.230334238466412
 20
80.2892654260204353
 30
0.0
 40
18.3960504047293405
 50
2.0782031842896811
 51
4.6000122619047126
  0
LINE
  5
10A0F
  8
0
 10
487.6289681671509015
 20
82.2637297481867478
 30
0.0
 11
487.6289681671509015
 21
82.2439922222207258
 31
0.0
  0
LINE
  5
10A10
  8
0
 10
487.6298831201671078
 20
82.2440392603545121
 30
0.0
 11
489.6556122693348243
 21
82.2440392603545121
 31
0.0
  0
ARC
  5
10A11
  8
0
 10
487.6298831201671078
 20
82.2342392603545136
 30
0.0
 40
0.0098
 50
90.0000000000065086
 51
185.6040730385005872
  0
ARC
  5
10A12
  8
0
 10
487.7048261405959124
 20
80.9701711486353162
 30
0.0
 40
0.0915869061943088
 50
188.6660718741713083
 51
258.3653752858988923
  0
LINE
  5
10A13
  8
0
 10
487.6285774177069925
 20
82.2637242996545126
 30
0.0
 11
488.6427476947509945
 21
82.2637242996545126
 31
0.0
  0
ARC
  5
10A14
  8
0
 10
484.8864188836374751
 20
82.0607578979190606
 30
0.0
 40
2.739493600618176
 50
4.46166112192111
 51
21.7392842644068587
  0
ARC
  5
10A15
  8
0
 10
487.6285774177069925
 20
82.2747242996544941
 30
0.0
 40
0.011
 50
184.4616611218827131
 51
270.000000000019611
  0
LINE
  5
10A16
  8
0
 10
487.4303061561623167
 20
83.0904959510545211
 30
0.0
 11
489.8551892333256887
 21
83.0904959510545211
 31
0.0
  0
ARC
  5
10A17
  8
0
 10
487.4412941890360003
 20
83.0794959510545254
 30
0.0
 40
0.011
 50
90.0000000000097771
 51
201.7392842644185862
  0
ARC
  5
10A18
  8
0
 10
486.7025843022597087
 20
84.464362910948239
 30
0.0
 40
0.9523163295792128
 50
179.7541867815259877
 51
192.8169071947276052
  0
ARC
  5
10A19
  8
0
 10
485.9793030948339947
 20
84.3317330136549543
 30
0.0
 40
0.2198486901750979
 50
200.9558031008903072
 51
221.1943118719480026
  0
ARC
  5
10A1A
  8
0
 10
487.284030344517987
 20
85.7429590594078661
 30
0.0
 40
2.1406940445281162
 50
226.6252314262675895
 51
246.930727603422298
  0
ARC
  5
10A1B
  8
0
 10
486.5915607911289271
 20
82.6525013101821031
 30
0.0
 40
0.9403678782212705
 50
28.1353919680274096
 51
49.710912752418281
  0
ARC
  5
10A1C
  8
0
 10
485.5575795105957013
 20
81.2075750886958474
 30
0.0
 40
2.715072693465995
 50
52.7858390540666633
 51
70.9175780440062056
  0
ARC
  5
10A1D
  8
0
 10
487.430745617405023
 20
83.1023168262879892
 30
0.0
 40
0.0118063125401476
 50
212.7029359797618895
 51
250.1444303220052916
  0
ARC
  5
10A1E
  8
0
 10
487.4309149060932782
 20
83.1027856166324455
 30
0.0
 40
0.0123047330925531
 50
250.1444303220083043
 51
267.1642582369627803
  0
ARC
  5
10A1F
  8
0
 10
511.440201395608085
 20
79.9836763705599338
 30
0.0
 40
21.8907332519887383
 50
174.1017055742393893
 51
177.5048035993563929
  0
LINE
  5
10A20
  8
0
 10
489.6565272223509737
 20
82.2637297481867478
 30
0.0
 11
489.6565272223509737
 21
82.2439964556983654
 31
0.0
  0
ARC
  5
10A21
  8
0
 10
489.6556122693348243
 20
82.2342392603545136
 30
0.0
 40
0.0098
 50
354.1017055742722164
 51
90.0
  0
ARC
  5
10A22
  8
0
 10
489.4922185091841129
 20
80.9385975675168936
 30
0.0
 40
0.0780277838456275
 50
273.0236148887724994
 51
358.608828646924394
  0
LINE
  5
10A23
  8
0
 10
489.6569179717949964
 20
82.2637242996545126
 30
0.0
 11
488.6427476947509945
 21
82.2637242996545126
 31
0.0
  0
ARC
  5
10A24
  8
0
 10
492.3990765058642864
 20
82.0607578979190606
 30
0.0
 40
2.739493600618176
 50
158.2607157355930951
 51
175.5383388780788891
  0
ARC
  5
10A25
  8
0
 10
489.6569179717949964
 20
82.2747242996544941
 30
0.0
 40
0.011
 50
269.999999999980389
 51
355.5383388781172016
  0
ARC
  5
10A26
  8
0
 10
489.8442012004658181
 20
83.0794959510545254
 30
0.0
 40
0.011
 50
338.260715735580618
 51
89.9999999999902229
  0
ARC
  5
10A27
  8
0
 10
490.5829110872422234
 20
84.464362910948239
 30
0.0
 40
0.9523163295792128
 50
347.1830928052723948
 51
0.245813218473948
  0
ARC
  5
10A28
  8
0
 10
491.3061922946678806
 20
84.3317330136549543
 30
0.0
 40
0.2198486901750979
 50
318.8056881280519974
 51
339.0441968991098065
  0
ARC
  5
10A29
  8
0
 10
490.0014650449838882
 20
85.7429590594078661
 30
0.0
 40
2.1406940445281162
 50
293.0692723965776736
 51
313.3747685737300799
  0
ARC
  5
10A2A
  8
0
 10
490.693934598373005
 20
82.6525013101821031
 30
0.0
 40
0.9403678782212705
 50
130.2890872475817048
 51
151.8646080319726082
  0
ARC
  5
10A2B
  8
0
 10
491.7279158789061739
 20
81.2075750886958474
 30
0.0
 40
2.715072693465995
 50
109.0824219559937944
 51
127.2141609459333012
  0
ARC
  5
10A2C
  8
0
 10
489.8547497720969091
 20
83.1023168262879892
 30
0.0
 40
0.0118063125401476
 50
289.8555696779947084
 51
327.2970640202382242
  0
ARC
  5
10A2D
  8
0
 10
489.8545804834084834
 20
83.1027856166324455
 30
0.0
 40
0.0123047330925531
 50
272.8357417630372197
 51
289.855569677991582
  0
ARC
  5
10A2F
  8
0
 10
488.5060058646882908
 20
88.3187030669296149
 30
0.0
 40
7.4832610835348801
 50
263.7117120188609078
 51
264.2046010383077146
  0
ARC
  5
10A30
  8
0
 10
487.7939707726422967
 20
80.9392589776602875
 30
0.0
 40
0.0787401756415662
 50
236.3794153239836078
 51
265.8512915504504122
  0
ARC
  5
10A31
  8
0
 10
488.6427476677640129
 20
92.6407995774351321
 30
0.0
 40
11.8110236117792802
 50
265.8512888217010754
 51
269.4442879828712876
  0
ARC
  5
10A32
  8
0
 10
488.6426971570984961
 20
92.6355919120859852
 30
0.0
 40
11.8058157014770302
 50
269.4442879824479746
 51
274.1464753464812816
  0
ARC
  5
10A33
  8
0
 10
487.7762688249970893
 20
81.7785445617460454
 30
0.0
 40
0.209603925802665
 50
128.1002485805506126
 51
183.8110917922070087
  0
LINE
  5
10A34
  8
0
 10
487.6469349675870717
 20
81.9434886705810328
 30
0.0
 11
487.6201299596532976
 21
82.2332822546023436
 31
0.0
  0
ARC
  5
10A35
  8
0
 10
487.5393099425227774
 20
82.1343735371208226
 30
0.0
 40
0.2191079380120186
 50
299.4184242518998076
 51
319.579230839112995
  0
ARC
  5
10A36
  8
0
 10
-224.4296522168255876
 20
23.9760342336154118
 30
0.0
 40
714.4950960136887943
 50
4.6574862696152248
 51
4.6697063760345561
  0
ARC
  5
10A37
  8
0
 10
487.7348411582913741
 20
-75623.0648264867631951
 30
0.0
 40
75705.2090151184092974
 50
89.9999066525158469
 51
90.0000311158910051
  0
ARC
  5
10A38
  8
0
 10
487.3462764161789096
 20
82.1015330336170166
 30
0.0
 40
0.5136793569776236
 50
343.7834605518827971
 51
4.7632777990921253
  0
ARC
  5
10A39
  8
0
 10
487.8282052953741754
 20
81.7830086872151156
 30
0.0
 40
0.1227852047948577
 50
114.3023280638417987
 51
185.800854449480795
  0
ARC
  5
10A3A
  8
0
 10
487.6951300539006979
 20
82.0375903274854608
 30
0.0
 40
0.1648332556360664
 50
300.0506628279720758
 51
331.1592832044785268
  0
ARC
  5
10A3B
  8
0
 10
469.0144623705925824
 20
80.3101270209053837
 30
0.0
 40
18.7485568096796484
 50
1.982956225433971
 51
4.4677423051747809
  0
ARC
  5
10A3C
  8
0
 10
487.6666745306953885
 20
80.9559214404233956
 30
0.0
 40
0.0851683472977659
 50
297.6305949702378939
 51
1.982956225434084
  0
ARC
  5
10A3D
  8
0
 10
487.6929322405272273
 20
-93958.2448605027457234
 30
0.0
 40
94039.1253265306295361
 50
89.9999919327307794
 51
90.0000040068548373
  0
ENDSEC
  0
EOF
