  0
SECTION
  2
HEADER
  9
$ACADVER
  1
AC1009
  9
$INSBASE
 10
493.6238824566727885
 20
88.3783322179791071
 30
0.0
  9
$EXTMIN
 10
490.7149558361581967
 20
84.6154162015361493
 30
-0.0000000000112498
  9
$EXTMAX
 10
496.5503806518606211
 20
92.1409321791449543
 30
0.0000000000002956
  9
$LIMMIN
 10
0.0
 20
0.0
  9
$LIMMAX
 10
11.6929133858000007
 20
8.2677165353999982
  9
$ORTHOMODE
 70
     0
  9
$REGENMODE
 70
     1
  9
$FILLMODE
 70
     1
  9
$QTEXTMODE
 70
     0
  9
$MIRRTEXT
 70
     0
  9
$DRAGMODE
 70
     2
  9
$LTSCALE
 40
0.6431102362
  9
$OSMODE
 70
  4095
  9
$ATTMODE
 70
     1
  9
$TEXTSIZE
 40
0.2
  9
$TRACEWID
 40
0.05
  9
$TEXTSTYLE
  7
STANDARD
  9
$CLAYER
  8
0
  9
$CELTYPE
  6
BYLAYER
  9
$CECOLOR
 62
   256
  9
$DIMSCALE
 40
1.0
  9
$DIMASZ
 40
0.1875
  9
$DIMEXO
 40
0.0625
  9
$DIMDLI
 40
0.4443307087
  9
$DIMRND
 40
0.0
  9
$DIMDLE
 40
0.0
  9
$DIMEXE
 40
0.125
  9
$DIMTP
 40
0.01
  9
$DIMTM
 40
0.01
  9
$DIMTXT
 40
1.0
  9
$DIMCEN
 40
0.1052362205
  9
$DIMTSZ
 40
0.0
  9
$DIMTOL
 70
     1
  9
$DIMLIM
 70
     0
  9
$DIMTIH
 70
     0
  9
$DIMTOH
 70
     1
  9
$DIMSE1
 70
     0
  9
$DIMSE2
 70
     0
  9
$DIMTAD
 70
     0
  9
$DIMZIN
 70
     0
  9
$DIMBLK
  1

  9
$DIMASO
 70
     1
  9
$DIMSHO
 70
     1
  9
$DIMPOST
  1
\X
  9
$DIMAPOST
  1

  9
$DIMALT
 70
     1
  9
$DIMALTD
 70
     2
  9
$DIMALTF
 40
25.3999999999999986
  9
$DIMLFAC
 40
1.0
  9
$DIMTOFL
 70
     0
  9
$DIMTVP
 40
0.0
  9
$DIMTIX
 70
     0
  9
$DIMSOXD
 70
     0
  9
$DIMSAH
 70
     0
  9
$DIMBLK1
  1

  9
$DIMBLK2
  1

  9
$DIMSTYLE
  2
STANDARD
  9
$DIMCLRD
 70
     0
  9
$DIMCLRE
 70
     0
  9
$DIMCLRT
 70
     0
  9
$DIMTFAC
 40
1.0
  9
$DIMGAP
 40
0.09
  9
$LUNITS
 70
     2
  9
$LUPREC
 70
     4
  9
$SKETCHINC
 40
0.1
  9
$FILLETRAD
 40
0.0
  9
$AUNITS
 70
     0
  9
$AUPREC
 70
     0
  9
$MENU
  1
.
  9
$ELEVATION
 40
0.0
  9
$PELEVATION
 40
0.0
  9
$THICKNESS
 40
0.0
  9
$LIMCHECK
 70
     0
  9
$BLIPMODE
 70
     0
  9
$CHAMFERA
 40
0.0
  9
$CHAMFERB
 40
0.0
  9
$SKPOLY
 70
     0
  9
$TDCREATE
 40
2458172.5207638889551163
  9
$TDUPDATE
 40
2459387.997916666790843
  9
$TDINDWG
 40
0.3129948843
  9
$TDUSRTIMER
 40
0.3129948843
  9
$USRTIMER
 70
     1
  9
$ANGBASE
 50
0.0
  9
$ANGDIR
 70
     0
  9
$PDMODE
 70
     0
  9
$PDSIZE
 40
0.3125
  9
$PLINEWID
 40
0.0
  9
$COORDS
 70
     1
  9
$SPLFRAME
 70
     0
  9
$SPLINETYPE
 70
     6
  9
$SPLINESEGS
 70
     8
  9
$ATTDIA
 70
     1
  9
$ATTREQ
 70
     1
  9
$HANDLING
 70
     1
  9
$HANDSEED
  5
10AAE
  9
$SURFTAB1
 70
     6
  9
$SURFTAB2
 70
     6
  9
$SURFTYPE
 70
     6
  9
$SURFU
 70
     6
  9
$SURFV
 70
     6
  9
$UCSNAME
  2

  9
$UCSORG
 10
0.0
 20
0.0
 30
0.0
  9
$UCSXDIR
 10
1.0
 20
0.0
 30
0.0
  9
$UCSYDIR
 10
0.0
 20
1.0
 30
0.0
  9
$PUCSNAME
  2

  9
$PUCSORG
 10
0.0
 20
0.0
 30
0.0
  9
$PUCSXDIR
 10
1.0
 20
0.0
 30
0.0
  9
$PUCSYDIR
 10
0.0
 20
1.0
 30
0.0
  9
$USERI1
 70
     0
  9
$USERI2
 70
     0
  9
$USERI3
 70
     0
  9
$USERI4
 70
     0
  9
$USERI5
 70
     0
  9
$USERR1
 40
0.0
  9
$USERR2
 40
0.0
  9
$USERR3
 40
0.0
  9
$USERR4
 40
0.0
  9
$USERR5
 40
0.0
  9
$WORLDVIEW
 70
     1
  9
$SHADEDGE
 70
     3
  9
$SHADEDIF
 70
    70
  9
$TILEMODE
 70
     1
  9
$MAXACTVP
 70
    64
  9
$PLIMCHECK
 70
     0
  9
$PEXTMIN
 10
1.0000000000000000E+20
 20
1.0000000000000000E+20
 30
1.0000000000000000E+20
  9
$PEXTMAX
 10
-1.0000000000000000E+20
 20
-1.0000000000000000E+20
 30
-1.0000000000000000E+20
  9
$PLIMMIN
 10
0.0
 20
0.0
  9
$PLIMMAX
 10
12.0
 20
9.0
  9
$UNITMODE
 70
     0
  9
$VISRETAIN
 70
     1
  9
$PLINEGEN
 70
     0
  9
$PSLTSCALE
 70
     1
  0
ENDSEC
  0
SECTION
  2
TABLES
  0
TABLE
  2
VPORT
 70
     1
  0
VPORT
  2
*ACTIVE
 70
     0
 10
0.0
 20
0.0
 11
1.0
 21
1.0
 12
64.0033791359556972
 22
18.6756326781218682
 13
0.0
 23
0.0
 14
1.0
 24
1.0
 15
0.0
 25
0.0
 16
0.0
 26
0.0
 36
14.6338572656650907
 17
429.6292891080536833
 27
69.7025415122186871
 37
0.0
 40
7.5851633961895732
 41
1.67063492063492
 42
50.0
 43
0.0
 44
0.0
 50
0.0
 51
0.0
 71
     0
 72
   100
 73
     1
 74
     1
 75
     0
 76
     0
 77
     0
 78
     0
  0
ENDTAB
  0
TABLE
  2
LTYPE
 70
     2
  0
LTYPE
  2
CONTINUOUS
 70
     0
  3
Solid line
 72
    65
 73
     0
 40
0.0
  0
LTYPE
  2
PHANTOM2
 70
     0
  3
___ _ _ ___ _ _ ___ _ _ ___ _ _
 72
    65
 73
     6
 40
1.25
 49
0.625
 49
-0.125
 49
0.125
 49
-0.125
 49
0.125
 49
-0.125
  0
ENDTAB
  0
TABLE
  2
LAYER
 70
     2
  0
LAYER
  2
0
 70
     0
 62
   255
  6
CONTINUOUS
  0
LAYER
  2
DEFPOINTS
 70
     0
 62
     7
  6
CONTINUOUS
  0
ENDTAB
  0
TABLE
  2
STYLE
 70
     1
  0
STYLE
  2
STANDARD
 70
     0
 40
0.0
 41
0.8
 50
0.0
 71
     0
 42
0.2
  3
txt
  4

  0
ENDTAB
  0
TABLE
  2
VIEW
 70
     1
  0
ENDTAB
  0
TABLE
  2
UCS
 70
     0
  0
ENDTAB
  0
TABLE
  2
APPID
 70
    10
  0
APPID
  2
ACAD
 70
     0
  0
APPID
  2
ACAD_MLEADERVER
 70
     0
  0
APPID
  2
ACAD_EXEMPT_FROM_CAD_STANDARDS
 70
     0
  0
APPID
  2
ACAD_DSTYLE_DIMJAG
 70
     0
  0
APPID
  2
ACAD_DSTYLE_DIMTALN
 70
     0
  0
APPID
  2
ACAD_NAV_VCDISPLAY
 70
     0
  0
APPID
  2
ACAECLAYERSTANDARD
 70
     0
  0
APPID
  2
ACCMTRANSPARENCY
 70
     0
  0
APPID
  2
DCO15
 70
     0
  0
APPID
  2
ACDBATTR
 70
     0
  0
ENDTAB
  0
TABLE
  2
DIMSTYLE
 70
     1
  0
DIMSTYLE
  2
STANDARD
 70
     0
  3

  4

  5

  6

  7

 40
1.0
 41
0.1875
 42
0.0625
 43
0.38
 44
0.125
 45
0.0
 46
0.0
 47
0.01
 48
0.01
140
0.15625
141
0.09
142
0.0
143
25.3999999999999986
144
1.0
145
0.0
146
1.0
147
0.09
 71
     1
 72
     0
 73
     1
 74
     1
 75
     0
 76
     0
 77
     0
 78
     4
170
     0
171
     2
172
     0
173
     0
174
     0
175
     0
176
     0
177
     0
178
     0
  0
ENDTAB
  0
ENDSEC
  0
SECTION
  2
BLOCKS
  0
BLOCK
  8
0
  2
$MODEL_SPACE
 70
     0
 10
0.0
 20
0.0
 30
0.0
  3
$MODEL_SPACE
  1

  0
ENDBLK
  5
21
  8
0
  0
BLOCK
 67
     1
  8
0
  2
$PAPER_SPACE
 70
     0
 10
0.0
 20
0.0
 30
0.0
  3
$PAPER_SPACE
  1

  0
ENDBLK
  5
1D
 67
     1
  8
0
  0
ENDSEC
  0
SECTION
  2
ENTITIES
  0
ATTDEF
  5
E04D
  8
DEFPOINTS
 10
493.6205155435625898
 20
88.3836077056683109
 30
0.0
 40
0.001
  1
K-98152T-7
  3

  2
MODELNUMBER
 70
     0
1001
ACDBATTR
1070
     0
1070
     1
  0
ATTDEF
  5
E04E
  8
DEFPOINTS
 10
493.6205155435625898
 20
88.3819410390016458
 30
0.0
 40
0.001
  1
AIRFOIL
  3

  2
TRADENAME
 70
     0
1001
ACDBATTR
1070
     0
1070
     1
  0
ATTDEF
  5
E04F
  8
DEFPOINTS
 10
493.6205155435625898
 20
88.3802743723349664
 30
0.0
 40
0.001
  1
VALVE TRIM
  3

  2
PRODUCT
 70
     0
1001
ACDBATTR
1070
     0
1070
     1
  0
LINE
  5
10A19
  8
0
 10
493.743007048053073
 20
92.1364596184313029
 30
0.0
 11
493.504757865292504
 21
92.1364596184312887
 31
0.0
  0
ARC
  5
10A1A
  8
0
 10
493.4583059530885976
 20
85.5700210814348452
 30
0.0
 40
6.5666028386296942
 50
89.5946883369031468
 51
99.689976830127506
  0
ARC
  5
10A1B
  8
0
 10
492.6659364898075069
 20
90.074004261303827
 30
0.0
 40
1.9936414095484809
 50
99.0298788298826764
 51
125.3903124610920941
  0
ARC
  5
10A1C
  8
0
 10
492.427394851036297
 20
90.5064056425146646
 30
0.0
 40
1.504028173873188
 50
127.5224838062054999
 51
154.7571754506292905
  0
ARC
  5
10A1D
  8
0
 10
494.0479462152467249
 20
89.8576209449514351
 30
0.0
 40
3.2481822868022552
 50
156.5965981698730047
 51
174.3594027710161072
  0
ARC
  5
10A1E
  8
0
 10
504.7319441227510879
 20
88.6330231368233399
 30
0.0
 40
14.0018263070474003
 50
173.6696389703801913
 51
179.2211342703056118
  0
LINE
  5
10A1F
  8
0
 10
490.7314114988727738
 20
87.9333095349839482
 30
0.0
 11
490.7314114988727738
 21
88.8233549009742518
 31
0.0
  0
LINE
  5
10A20
  8
0
 10
493.7430070480531867
 20
84.6202048175269255
 30
0.0
 11
493.504757865292504
 21
84.6202048175269255
 31
0.0
  0
ARC
  5
10A21
  8
0
 10
493.4611558014163961
 20
91.2217392481836669
 30
0.0
 40
6.601678421365353
 50
260.3369110077080109
 51
270.3784238252612795
  0
ARC
  5
10A22
  8
0
 10
492.6659364898075069
 20
86.6826601746543872
 30
0.0
 40
1.9936414095484809
 50
234.6096875389052059
 51
260.9701211701174088
  0
ARC
  5
10A23
  8
0
 10
492.427394851036297
 20
86.2502587934435354
 30
0.0
 40
1.504028173873188
 50
205.2428245493707095
 51
232.4775161937944858
  0
ARC
  5
10A24
  8
0
 10
494.0479462152467249
 20
86.8990434910067648
 30
0.0
 40
3.2481822868022552
 50
185.6405972289838076
 51
203.40340183012691
  0
ARC
  5
10A25
  8
0
 10
504.7319441227510879
 20
88.1236412991348743
 30
0.0
 40
14.0018263070474003
 50
180.7788657296943882
 51
186.330361029619695
  0
LINE
  5
10A26
  8
0
 10
492.5881563069123104
 20
90.4379566020370333
 30
0.0
 11
492.723649081539179
 21
90.3597298121329402
 31
0.0
  0
LINE
  5
10A27
  8
0
 10
492.5594894568533846
 20
90.5445740576289353
 30
0.0
 11
492.5799188209032877
 21
90.5799587541298763
 31
0.0
  0
ARC
  5
10A28
  8
0
 10
492.6273545446003936
 20
90.5056586966603049
 30
0.0
 40
0.0782309111171926
 50
150.1690751532852062
 51
239.929966862652293
  0
ARC
  5
10A29
  8
0
 10
493.6242936691469936
 20
89.9533823672063733
 30
0.0
 40
0.9274756893116926
 50
160.1405120782038978
 51
330.0008821814005273
  0
ARC
  5
10A2A
  8
0
 10
492.6764532297883079
 20
90.2950507370094755
 30
0.0
 40
0.0800676662662462
 50
340.6030687160961747
 51
53.8820419922609517
  0
ARC
  5
10A2B
  8
0
 10
492.6272499333279029
 20
90.3372244083495133
 30
0.0
 40
0.0677071816332484
 50
31.4376074721997085
 51
58.7026535391936193
  0
ARC
  5
10A2C
  8
0
 10
493.6187033274817964
 20
89.9582718073960592
 30
0.0
 40
1.2173123725377439
 50
89.7562371492570605
 51
270.2430969543466972
  0
ARC
  5
10A2D
  8
0
 10
492.6745970915267208
 20
90.4793351772779744
 30
0.0
 40
0.0790543936595595
 50
150.3164326203674079
 51
240.5212359998299121
  0
LINE
  5
10A2E
  8
0
 10
492.6052663512742811
 20
90.517357188704139
 30
0.0
 11
492.6257273961904843
 21
90.5527967580750044
 31
0.0
  0
ARC
  5
10A2F
  8
0
 10
493.7894589602569795
 20
85.5700210814348452
 30
0.0
 40
6.5666028386296942
 50
80.3100231698725366
 51
90.4053116630968674
  0
ARC
  5
10A30
  8
0
 10
494.5818284235381839
 20
90.074004261303827
 30
0.0
 40
1.9936414095484809
 50
54.609687538907842
 51
80.9701211701205352
  0
ARC
  5
10A31
  8
0
 10
494.82037006230928
 20
90.5064056425146646
 30
0.0
 40
1.504028173873188
 50
25.2428245493706385
 51
52.4775161937945001
  0
ARC
  5
10A32
  8
0
 10
493.199818698098909
 20
89.8576209449514351
 30
0.0
 40
3.2481822868022552
 50
5.6405972289838608
 51
23.4034018301269384
  0
ARC
  5
10A33
  8
0
 10
482.5158207905944892
 20
88.6330231368233399
 30
0.0
 40
14.0018263070474003
 50
0.7788657296944069
 51
6.3303610296197688
  0
LINE
  5
10A34
  8
0
 10
496.5163534144728033
 20
87.9333095349839482
 30
0.0
 11
496.5163534144728033
 21
88.8233549009742518
 31
0.0
  0
ARC
  5
10A35
  8
0
 10
493.7866091119291809
 20
91.2217392481836669
 30
0.0
 40
6.601678421365353
 50
269.6215761747387205
 51
279.6630889922921028
  0
ARC
  5
10A36
  8
0
 10
494.5818284235381839
 20
86.6826601746543872
 30
0.0
 40
1.9936414095484809
 50
279.0298788298827048
 51
305.3903124610922077
  0
ARC
  5
10A37
  8
0
 10
494.82037006230928
 20
86.2502587934435354
 30
0.0
 40
1.504028173873188
 50
307.5224838062055142
 51
334.7571754506294042
  0
ARC
  5
10A38
  8
0
 10
493.199818698098909
 20
86.8990434910067648
 30
0.0
 40
3.2481822868022552
 50
336.5965981698731184
 51
354.3594027710162209
  0
ARC
  5
10A39
  8
0
 10
482.5158207905944892
 20
88.1236412991348743
 30
0.0
 40
14.0018263070474003
 50
353.6696389703802197
 51
359.2211342703055834
  0
LINE
  5
10A3A
  8
0
 10
492.6865856709623017
 20
90.608441261528327
 30
0.0
 11
492.8220784455892272
 21
90.5302144716242339
 31
0.0
  0
ARC
  5
10A3B
  8
0
 10
492.6475530559732192
 20
90.5406435445952553
 30
0.0
 40
0.0782309111171931
 50
60.0700331373462078
 51
149.8309248467164139
  0
ARC
  5
10A3C
  8
0
 10
493.6243079494623771
 20
89.9534071014382164
 30
0.0
 40
0.9274756893116926
 50
329.9991178185989043
 51
139.859487921796898
  0
ARC
  5
10A3D
  8
0
 10
492.8544942418639039
 20
90.6034268157555118
 30
0.0
 40
0.0800676662662462
 50
246.117958007739702
 51
319.3969312839035979
  0
ARC
  5
10A3E
  8
0
 10
492.7933691228823818
 20
90.6249512847700629
 30
0.0
 40
0.0677071816332413
 50
241.297346460804107
 51
270.4246860048269241
  0
ARC
  5
10A3F
  8
0
 10
493.6290674296197949
 20
89.9582717471698459
 30
0.0
 40
1.2173124587701769
 50
269.7552837218348145
 51
90.2440503817707338
  0
ARC
  5
10A40
  8
0
 10
492.6939711659384216
 20
90.5128920585087258
 30
0.0
 40
0.0790543936595595
 50
59.4787640001691713
 51
149.6835673796338142
  0
LINE
  5
10A41
  8
0
 10
493.5254530926227972
 20
85.6639496477190221
 30
0.0
 11
493.5254530926227972
 21
85.8204032275272084
 31
0.0
  0
ARC
  5
10A42
  8
0
 10
493.6034822834819806
 20
85.66396173896878
 30
0.0
 40
0.078029191795975
 50
180.0088784410955896
 51
270.0214344542201275
  0
ARC
  5
10A43
  8
0
 10
493.623868176357405
 20
86.803558042639807
 30
0.0
 40
0.9274756893116926
 50
89.9991178185976537
 51
259.859487921798177
  0
ARC
  5
10A44
  8
0
 10
493.4458414445970789
 20
85.8118699585194236
 30
0.0
 40
0.0800676662662462
 50
6.1179580077392242
 51
79.3969312839052606
  0
ARC
  5
10A45
  8
0
 10
493.4577632671183096
 20
85.7481718181648063
 30
0.0
 40
0.0677071816332432
 50
1.297346460807479
 51
34.5186251675535232
  0
ARC
  5
10A46
  8
0
 10
493.6045083822610877
 20
85.7181202754976823
 30
0.0
 40
0.0790543936595595
 50
179.4787640001707985
 51
269.6835673796330752
  0
LINE
  5
10A47
  8
0
 10
493.602771039932918
 20
85.6390670874628483
 30
0.0
 11
493.6436931297650972
 21
85.6390670874628341
 31
0.0
  0
LINE
  5
10A48
  8
0
 10
493.7223118207227799
 20
85.6639496477190221
 30
0.0
 11
493.7223118207227799
 21
85.8204032275272084
 31
0.0
  0
ARC
  5
10A49
  8
0
 10
493.6442826298637101
 20
85.66396173896878
 30
0.0
 40
0.0780291917959737
 50
269.9785655440342111
 51
359.9911215589052063
  0
ARC
  5
10A4A
  8
0
 10
493.6238967369882857
 20
86.803558042639807
 30
0.0
 40
0.9274756893116926
 50
280.1405120782017093
 51
90.0008821814023605
  0
ARC
  5
10A4B
  8
0
 10
493.8019234687484982
 20
85.8118699585194236
 30
0.0
 40
0.0800676662662462
 50
100.6030687160946968
 51
173.8820419922616054
  0
ARC
  5
10A4C
  8
0
 10
493.7900016462273243
 20
85.7481718181648063
 30
0.0
 40
0.0677071816332423
 50
145.2888652258114917
 51
178.7026535391908908
  0
ARC
  5
10A4D
  8
0
 10
493.643256531084603
 20
85.7181202754976823
 30
0.0
 40
0.0790543936595595
 50
270.3164326203668111
 51
0.5212359998292265
  0
LINE
  5
10A4F
  8
0
 10
493.6035114743423833
 20
85.5859325526329826
 30
0.0
 11
493.64425343900092
 21
85.5859325526329826
 31
0.0
  0
ARC
  5
10A50
  8
0
 10
493.6222527482884743
 20
86.8053428361689754
 30
0.0
 40
1.021036426129442
 50
89.9093497090809137
 51
180.1001543000664924
  0
ARC
  5
10A51
  8
0
 10
493.6238273034664985
 20
86.8036582524937046
 30
0.0
 40
1.02271973269963
 50
359.9943859480563901
 51
89.9977101799529748
  0
ARC
  5
10A52
  8
0
 10
493.6222527482884743
 20
86.8017732491106244
 30
0.0
 40
1.021036426129442
 50
179.8998456999335076
 51
263.8885322403456257
  0
ARC
  5
10A53
  8
0
 10
493.6238273034664985
 20
86.8034578327859094
 30
0.0
 40
1.02271973269963
 50
276.2035900276654843
 51
0.005614051943584
  0
ARC
  5
10A54
  8
0
 10
493.6066823076100718
 20
89.9522946078133145
 30
0.0
 40
1.0129508564964731
 50
155.4888141594882995
 51
240.5593517536632078
  0
ARC
  5
10A55
  8
0
 10
493.6230378097445168
 20
89.9445893119335551
 30
0.0
 40
1.030953835725164
 50
60.4517291860620176
 51
143.539962953699586
  0
ARC
  5
10A56
  8
0
 10
493.6252633367698763
 20
89.9498400277936554
 30
0.0
 40
1.020094432167415
 50
239.5826673529089135
 51
330.1450754842996957
  0
ARC
  5
10A57
  8
0
 10
493.6017465354818796
 20
89.9472750853648364
 30
0.0
 40
1.0393068195147701
 50
330.9131171269103788
 51
59.3575399166628515
  0
ARC
  5
10A58
  8
0
 10
493.6237670024286786
 20
86.8041186807319036
 30
0.0
 40
1.222395150341268
 50
180.0268774653499122
 51
270.0047421974097119
  0
ARC
  5
10A59
  8
0
 10
493.631011593842004
 20
86.7871385685497359
 30
0.0
 40
1.2054362001116159
 50
269.6604631014943152
 51
0.7804607665346457
  0
ARC
  5
10A5A
  8
0
 10
493.6220760145196778
 20
86.8057947972317407
 30
0.0
 40
1.220706100688427
 50
89.9152125168262444
 51
180.1055859029827104
  0
ARC
  5
10A5B
  8
0
 10
493.6062610667474928
 20
86.7965308145609242
 30
0.0
 40
1.230094968211382
 50
0.3273183868266376
 51
89.1791976380823286
  0
ENDSEC
  0
EOF
