  0
SECTION
  2
HEADER
  9
$ACADVER
  1
AC1009
  9
$INSBASE
 10
4092.6743615518689694
 20
154.2092221412576123
 30
0.0
  9
$EXTMIN
 10
4083.3207250393052163
 20
152.7092521368072937
 30
0.0
  9
$EXTMAX
 10
4102.0279979924353029
 20
155.7092802847388953
 30
0.0
  9
$LIMMIN
 10
0.0
 20
0.0
  9
$LIMMAX
 10
11.6929133858000007
 20
8.2677165353999982
  9
$ORTHOMODE
 70
     0
  9
$REGENMODE
 70
     1
  9
$FILLMODE
 70
     1
  9
$QTEXTMODE
 70
     0
  9
$MIRRTEXT
 70
     0
  9
$DRAGMODE
 70
     2
  9
$LTSCALE
 40
0.6431102362
  9
$OSMODE
 70
  4095
  9
$ATTMODE
 70
     1
  9
$TEXTSIZE
 40
0.2
  9
$TRACEWID
 40
0.05
  9
$TEXTSTYLE
  7
STANDARD
  9
$CLAYER
  8
0
  9
$CELTYPE
  6
BYLAYER
  9
$CECOLOR
 62
   256
  9
$DIMSCALE
 40
1.0
  9
$DIMASZ
 40
0.1875
  9
$DIMEXO
 40
0.0625
  9
$DIMDLI
 40
0.4443307087
  9
$DIMRND
 40
0.0
  9
$DIMDLE
 40
0.0
  9
$DIMEXE
 40
0.125
  9
$DIMTP
 40
0.01
  9
$DIMTM
 40
0.01
  9
$DIMTXT
 40
2.0
  9
$DIMCEN
 40
0.1052362205
  9
$DIMTSZ
 40
0.0
  9
$DIMTOL
 70
     1
  9
$DIMLIM
 70
     0
  9
$DIMTIH
 70
     1
  9
$DIMTOH
 70
     1
  9
$DIMSE1
 70
     0
  9
$DIMSE2
 70
     0
  9
$DIMTAD
 70
     0
  9
$DIMZIN
 70
     0
  9
$DIMBLK
  1

  9
$DIMASO
 70
     1
  9
$DIMSHO
 70
     1
  9
$DIMPOST
  1
\X
  9
$DIMAPOST
  1

  9
$DIMALT
 70
     1
  9
$DIMALTD
 70
     2
  9
$DIMALTF
 40
25.3999999999999986
  9
$DIMLFAC
 40
1.0
  9
$DIMTOFL
 70
     0
  9
$DIMTVP
 40
0.0
  9
$DIMTIX
 70
     0
  9
$DIMSOXD
 70
     0
  9
$DIMSAH
 70
     0
  9
$DIMBLK1
  1

  9
$DIMBLK2
  1

  9
$DIMSTYLE
  2
STANDARD
  9
$DIMCLRD
 70
     0
  9
$DIMCLRE
 70
     0
  9
$DIMCLRT
 70
     0
  9
$DIMTFAC
 40
1.0
  9
$DIMGAP
 40
0.09
  9
$LUNITS
 70
     2
  9
$LUPREC
 70
     4
  9
$SKETCHINC
 40
0.1
  9
$FILLETRAD
 40
0.0
  9
$AUNITS
 70
     0
  9
$AUPREC
 70
     0
  9
$MENU
  1
.
  9
$ELEVATION
 40
0.0
  9
$PELEVATION
 40
0.0
  9
$THICKNESS
 40
0.0
  9
$LIMCHECK
 70
     0
  9
$BLIPMODE
 70
     0
  9
$CHAMFERA
 40
0.0
  9
$CHAMFERB
 40
0.0
  9
$SKPOLY
 70
     0
  9
$TDCREATE
 40
2458060.468368056230247
  9
$TDUPDATE
 40
2459031.8092476851306856
  9
$TDINDWG
 40
0.3391737269
  9
$TDUSRTIMER
 40
0.3391737269
  9
$USRTIMER
 70
     1
  9
$ANGBASE
 50
0.0
  9
$ANGDIR
 70
     0
  9
$PDMODE
 70
     0
  9
$PDSIZE
 40
0.3125
  9
$PLINEWID
 40
0.0
  9
$COORDS
 70
     1
  9
$SPLFRAME
 70
     0
  9
$SPLINETYPE
 70
     6
  9
$SPLINESEGS
 70
     8
  9
$ATTDIA
 70
     1
  9
$ATTREQ
 70
     1
  9
$HANDLING
 70
     1
  9
$HANDSEED
  5
6DA6
  9
$SURFTAB1
 70
     6
  9
$SURFTAB2
 70
     6
  9
$SURFTYPE
 70
     6
  9
$SURFU
 70
     6
  9
$SURFV
 70
     6
  9
$UCSNAME
  2

  9
$UCSORG
 10
0.0
 20
0.0
 30
0.0
  9
$UCSXDIR
 10
1.0
 20
0.0
 30
0.0
  9
$UCSYDIR
 10
0.0
 20
1.0
 30
0.0
  9
$PUCSNAME
  2

  9
$PUCSORG
 10
0.0
 20
0.0
 30
0.0
  9
$PUCSXDIR
 10
1.0
 20
0.0
 30
0.0
  9
$PUCSYDIR
 10
0.0
 20
1.0
 30
0.0
  9
$USERI1
 70
     0
  9
$USERI2
 70
     0
  9
$USERI3
 70
     0
  9
$USERI4
 70
     0
  9
$USERI5
 70
     0
  9
$USERR1
 40
0.0
  9
$USERR2
 40
0.0
  9
$USERR3
 40
0.0
  9
$USERR4
 40
0.0
  9
$USERR5
 40
0.0
  9
$WORLDVIEW
 70
     1
  9
$SHADEDGE
 70
     3
  9
$SHADEDIF
 70
    70
  9
$TILEMODE
 70
     1
  9
$MAXACTVP
 70
    64
  9
$PLIMCHECK
 70
     0
  9
$PEXTMIN
 10
1.0000000000000000E+20
 20
1.0000000000000000E+20
 30
1.0000000000000000E+20
  9
$PEXTMAX
 10
-1.0000000000000000E+20
 20
-1.0000000000000000E+20
 30
-1.0000000000000000E+20
  9
$PLIMMIN
 10
0.0
 20
0.0
  9
$PLIMMAX
 10
12.0
 20
9.0
  9
$UNITMODE
 70
     0
  9
$VISRETAIN
 70
     1
  9
$PLINEGEN
 70
     0
  9
$PSLTSCALE
 70
     1
  0
ENDSEC
  0
SECTION
  2
TABLES
  0
TABLE
  2
VPORT
 70
     1
  0
VPORT
  2
*ACTIVE
 70
     0
 10
0.0
 20
0.0
 11
1.0
 21
1.0
 12
0.0
 22
0.0
 13
0.0
 23
0.0
 14
1.0
 24
1.0
 15
0.0
 25
0.0
 16
0.0
 26
0.0
 36
53.8613547295296513
 17
4092.67431640625
 27
154.2092666625975994
 37
0.0
 40
18.9460578944920286
 41
2.127494456762749
 42
50.0
 43
0.0
 44
0.0
 50
0.0
 51
0.0
 71
     0
 72
   100
 73
     1
 74
     1
 75
     0
 76
     0
 77
     0
 78
     0
  0
ENDTAB
  0
TABLE
  2
LTYPE
 70
     2
  0
LTYPE
  2
CONTINUOUS
 70
     0
  3
Solid line
 72
    65
 73
     0
 40
0.0
  0
LTYPE
  2
PHANTOM2
 70
     0
  3
___ _ _ ___ _ _ ___ _ _ ___ _ _
 72
    65
 73
     6
 40
1.25
 49
0.625
 49
-0.125
 49
0.125
 49
-0.125
 49
0.125
 49
-0.125
  0
ENDTAB
  0
TABLE
  2
LAYER
 70
     2
  0
LAYER
  2
0
 70
     0
 62
   255
  6
CONTINUOUS
  0
LAYER
  2
DEFPOINTS
 70
     0
 62
     7
  6
CONTINUOUS
  0
ENDTAB
  0
TABLE
  2
STYLE
 70
     1
  0
STYLE
  2
STANDARD
 70
     0
 40
0.0
 41
0.8
 50
0.0
 71
     0
 42
0.2
  3
txt
  4

  0
ENDTAB
  0
TABLE
  2
VIEW
 70
     0
  0
ENDTAB
  0
TABLE
  2
UCS
 70
     0
  0
ENDTAB
  0
TABLE
  2
APPID
 70
     9
  0
APPID
  2
ACAD
 70
     0
  0
APPID
  2
ACAD_MLEADERVER
 70
     0
  0
APPID
  2
ACAD_EXEMPT_FROM_CAD_STANDARDS
 70
     0
  0
APPID
  2
ACAD_NAV_VCDISPLAY
 70
     0
  0
APPID
  2
ACAECLAYERSTANDARD
 70
     0
  0
APPID
  2
ACCMTRANSPARENCY
 70
     0
  0
APPID
  2
ACAD_DSTYLE_DIMJAG
 70
     0
  0
APPID
  2
ACAD_DSTYLE_DIMTALN
 70
     0
  0
APPID
  2
ACDBATTR
 70
     0
  0
ENDTAB
  0
TABLE
  2
DIMSTYLE
 70
     1
  0
DIMSTYLE
  2
STANDARD
 70
     0
  3

  4

  5

  6

  7

 40
1.0
 41
0.1875
 42
0.0625
 43
0.38
 44
0.125
 45
0.0
 46
0.0
 47
0.01
 48
0.01
140
0.15625
141
0.09
142
0.0
143
25.3999999999999986
144
1.0
145
0.0
146
1.0
147
0.09
 71
     1
 72
     0
 73
     1
 74
     1
 75
     0
 76
     0
 77
     0
 78
     4
170
     0
171
     2
172
     0
173
     0
174
     0
175
     0
176
     0
177
     0
178
     0
  0
ENDTAB
  0
ENDSEC
  0
SECTION
  2
BLOCKS
  0
BLOCK
  8
0
  2
$MODEL_SPACE
 70
     0
 10
0.0
 20
0.0
 30
0.0
  3
$MODEL_SPACE
  1

  0
ENDBLK
  5
21
  8
0
  0
BLOCK
 67
     1
  8
0
  2
$PAPER_SPACE
 70
     0
 10
0.0
 20
0.0
 30
0.0
  3
$PAPER_SPACE
  1

  0
ENDBLK
  5
1D
 67
     1
  8
0
  0
BLOCK
  8
0
  2
_FILLED
 70
     0
 10
0.0
 20
0.0
 30
0.0
  3
_FILLED
  1

  0
SOLID
  5
67BB
  8
0
  6
BYBLOCK
 62
     0
 10
0.0
 20
0.0
 30
0.0
 11
-1.0
 21
0.1666666667
 31
0.0
 12
-1.0
 22
-0.1666666667
 32
0.0
 13
-1.0
 23
-0.1666666667
 33
0.0
  0
ENDBLK
  5
67BC
  8
0
  6
BYBLOCK
 62
     0
  0
ENDSEC
  0
SECTION
  2
ENTITIES
  0
ATTDEF
  5
3930
  8
DEFPOINTS
 10
4092.6718517942122162
 20
154.2132993933151965
 30
0.0
 40
0.001
  1
K-98068W-3M
  3

  2
MODELNUMBER
 70
     0
1001
ACDBATTR
1070
     0
1070
     1
  0
ATTDEF
  5
3931
  8
DEFPOINTS
 10
4092.6718517942122162
 20
154.2116327266485882
 30
0.0
 40
0.001
  1
ARTIFACTS
  3

  2
TRADENAME
 70
     0
1001
ACDBATTR
1070
     0
1070
     1
  0
ATTDEF
  5
3932
  8
DEFPOINTS
 10
4092.6718517942122162
 20
154.2099660599818947
 30
0.0
 40
0.001
  1
BATHROOM SINK FAUCET HANDLES
  3

  2
PRODUCT
 70
     0
1001
ACDBATTR
1070
     0
1070
     1
  0
ARC
  5
6BE3
  8
0
 10
4100.7847923770186753
 20
152.774121474940813
 30
0.0
 40
0.0600000322822185
 50
274.7096475756268887
 51
1.667785365171641
  0
ARC
  5
6BE4
  8
0
 10
4104.1938120041313596
 20
152.9154008481868061
 30
0.0
 40
3.351952083081398
 50
176.6945922917288954
 51
182.3877968492114121
  0
ARC
  5
6BE5
  8
0
 10
4099.9747480184678352
 20
150.4108245256902876
 30
0.0
 40
3.4598046909449272
 50
57.7917759431969813
 51
63.3077068684508788
  0
ARC
  5
6BE6
  8
0
 10
4101.3239667018278851
 20
153.1354159604998983
 30
0.0
 40
0.4772798080351519
 50
133.4214268392979932
 51
183.212604187792806
  0
ARC
  5
6BE7
  8
0
 10
4101.2580823879870877
 20
153.1869443510273925
 30
0.0
 40
0.3947635206361518
 50
68.7390618573585073
 51
131.6164014635764943
  0
ARC
  5
6BE8
  8
0
 10
4101.0619195176741414
 20
152.5558125801445897
 30
0.0
 40
1.0550766912041529
 50
63.7306092451738522
 51
71.2404148107161745
  0
ARC
  5
6BE9
  8
0
 10
4101.8497861347013895
 20
153.3917842794944022
 30
0.0
 40
0.0618705193123074
 50
239.9627717180187858
 51
323.6694036250391946
  0
ARC
  5
6BEA
  8
0
 10
4100.666562071422959
 20
154.2092581663158057
 30
0.0
 40
1.4999975945565891
 50
325.2901988625461058
 51
334.7096296200768961
  0
ARC
  5
6BEB
  8
0
 10
4101.9661228579498129
 20
153.5932877774839938
 30
0.0
 40
0.0618726839109722
 50
336.3324927810924123
 51
60.0449401694198102
  0
ARC
  5
6BEC
  8
0
 10
4103.4919871199290355
 20
156.5200731769220113
 30
0.0
 40
3.2388402310986
 50
236.6211089123733018
 51
242.511167954847906
  0
ARC
  5
6BED
  8
0
 10
4100.7829012588608748
 20
155.6427009029214048
 30
0.0
 40
0.0618705170530174
 50
359.9627300583431975
 51
83.6694044311108769
  0
ARC
  5
6BEE
  8
0
 10
4104.2884372004109537
 20
155.504438425167308
 30
0.0
 40
3.446438310988857
 50
177.701489357389903
 51
183.2377494325151019
  0
ARC
  5
6BEF
  8
0
 10
4099.9969031626487777
 20
157.9576994238950078
 30
0.0
 40
3.405708024856279
 50
296.7390717734444934
 51
302.3409888307767801
  0
ARC
  5
6BF0
  8
0
 10
4101.8497885690712792
 20
155.0267280334693112
 30
0.0
 40
0.0618726825739257
 50
36.3324922759228102
 51
120.0449655542651044
  0
ARC
  5
6BF1
  8
0
 10
4100.6666058986565986
 20
154.2092882750893921
 30
0.0
 40
1.499945872997579
 50
25.2899551253413399
 51
34.7097108425136014
  0
ARC
  5
6BF2
  8
0
 10
4101.9661268000136261
 20
154.8252261839801918
 30
0.0
 40
0.0618711924195873
 50
299.9629647375605259
 51
23.6688302932805001
  0
ARC
  5
6BF3
  8
0
 10
4102.9960900415599099
 20
152.7523698700551904
 30
0.0
 40
2.2528900101865288
 50
116.3247295319786048
 51
127.5322823742301068
  0
ARC
  5
6BF4
  8
0
 10
4101.8569125110607274
 20
154.2107539817249915
 30
0.0
 40
0.4026565671552297
 50
125.408811205875395
 51
187.7923108145477045
  0
ARC
  5
6BF5
  8
0
 10
4101.8288064336729803
 20
154.1960207296098986
 30
0.0
 40
0.3729684566043892
 50
186.1350454205910978
 51
231.1701842271951932
  0
ARC
  5
6BF6
  8
0
 10
4102.1987178413091897
 20
154.5591224542397981
 30
0.0
 40
0.8898257791757171
 50
227.271769588866988
 51
236.6908375757089118
  0
ARC
  5
6BF7
  8
0
 10
4101.4019205257682188
 20
155.3054148250421065
 30
0.0
 40
0.5544375287561805
 50
179.5486516813770947
 51
217.003464030998714
  0
ARC
  5
6BF8
  8
0
 10
4101.2600940222619101
 20
155.2406361100073866
 30
0.0
 40
0.4035904885558455
 50
221.7830009283493098
 51
291.0478910287745862
  0
ARC
  5
6BF9
  8
0
 10
4101.0679224843961492
 20
155.8396497612235123
 30
0.0
 40
1.032276775897595
 50
289.0612893856658161
 51
296.5437237853674901
  0
ARC
  5
6BFA
  8
0
 10
4100.6593125747185695
 20
154.0399019117384967
 30
0.0
 40
1.6693937916314281
 50
85.5195643899205038
 51
89.7537470307441367
  0
ARC
  5
6BFB
  8
0
 10
4100.6665600377091323
 20
154.2092594547073077
 30
0.0
 40
1.4999999999999509
 50
269.9972285806027799
 51
274.7096183140014887
  0
CIRCLE
  5
6BFC
  8
0
 10
4100.6665482870539563
 20
154.2092524853287898
 30
0.0
 40
0.5290259775915654
  0
CIRCLE
  5
6BFD
  8
0
 10
4100.6664874821190097
 20
154.2092221412576123
 30
0.0
 40
0.3783551895382394
  0
ARC
  5
6BFE
  8
0
 10
4100.6664874821190097
 20
154.2092221412576123
 30
0.0
 40
1.1200004504962751
 50
39.279978083965311
 51
80.7129269231334519
  0
ARC
  5
6BFF
  8
0
 10
4100.6664874821190097
 20
154.2092221412576123
 30
0.0
 40
1.1200004504962751
 50
279.2834099341972092
 51
320.6963889785981792
  0
ARC
  5
6C00
  8
0
 10
4100.6664874821190097
 20
154.2092221412576123
 30
0.0
 40
1.1200004504962751
 50
339.2753290461063784
 51
20.6949940852792409
  0
ARC
  5
6C01
  8
0
 10
4100.5481825872184345
 20
152.774121474940813
 30
0.0
 40
0.0600000322822185
 50
178.3322146348282899
 51
265.2903524243731113
  0
ARC
  5
6C02
  8
0
 10
4097.1391629601075692
 20
152.9154008481868061
 30
0.0
 40
3.351952083081398
 50
357.6122031507886163
 51
3.3054077082710478
  0
ARC
  5
6C03
  8
0
 10
4101.3582269457710936
 20
150.4108245256902876
 30
0.0
 40
3.4598046909449272
 50
116.692293131549107
 51
122.2082240568030045
  0
ARC
  5
6C04
  8
0
 10
4100.0090082624110437
 20
153.1354159604998983
 30
0.0
 40
0.4772798080351519
 50
356.7873958122070803
 51
46.5785731607019216
  0
ARC
  5
6C05
  8
0
 10
4100.0748925762518411
 20
153.1869443510273925
 30
0.0
 40
0.3947635206361518
 50
48.3835985364234489
 51
111.2609381426415069
  0
ARC
  5
6C06
  8
0
 10
4100.2710554465638779
 20
152.5558125801445897
 30
0.0
 40
1.0550766912041529
 50
108.759585189283797
 51
116.2693907548261052
  0
ARC
  5
6C07
  8
0
 10
4099.4831888295366298
 20
153.3917842794944022
 30
0.0
 40
0.0618705193123074
 50
216.3305963749608054
 51
300.0372282819810721
  0
ARC
  5
6C08
  8
0
 10
4100.6664128928159698
 20
154.2092581663158057
 30
0.0
 40
1.4999975945565891
 50
205.2903703799231039
 51
214.7098011374538089
  0
ARC
  5
6C09
  8
0
 10
4099.3668521062891159
 20
153.5932877774839938
 30
0.0
 40
0.0618726839109722
 50
119.9550598305801969
 51
203.6675072189075877
  0
ARC
  5
6C0A
  8
0
 10
4097.8409878443098933
 20
156.5200731769220113
 30
0.0
 40
3.2388402310986
 50
297.4888320451519803
 51
303.3788910876268119
  0
ARC
  5
6C0B
  8
0
 10
4100.5500737053771445
 20
155.6427009029214048
 30
0.0
 40
0.0618705170530174
 50
96.3305955688891231
 51
180.0372699416568025
  0
ARC
  5
6C0C
  8
0
 10
4097.0445377638270656
 20
155.504438425167308
 30
0.0
 40
3.446438310988857
 50
356.7622505674848981
 51
2.2985106426100792
  0
ARC
  5
6C0D
  8
0
 10
4101.3360718015901512
 20
157.9576994238950078
 30
0.0
 40
3.405708024856279
 50
237.6590111692231915
 51
243.2609282265555066
  0
ARC
  5
6C0E
  8
0
 10
4099.4831863951676496
 20
155.0267280334693112
 30
0.0
 40
0.0618726825739257
 50
59.9550344457349027
 51
143.6675077240772112
  0
ARC
  5
6C0F
  8
0
 10
4100.6663690655814207
 20
154.2092882750893921
 30
0.0
 40
1.499945872997579
 50
145.2902891574863986
 51
154.7100448746585926
  0
ARC
  5
6C10
  8
0
 10
4099.3668481642243933
 20
154.8252261839801918
 30
0.0
 40
0.0618711924195873
 50
156.3311697067194928
 51
240.0370352624395025
  0
ARC
  5
6C11
  8
0
 10
4098.3368849226790189
 20
152.7523698700551904
 30
0.0
 40
2.2528900101865288
 50
52.4677176257698576
 51
63.6752704680213384
  0
ARC
  5
6C12
  8
0
 10
4099.4760624531763824
 20
154.2107539817249915
 30
0.0
 40
0.4026565671552297
 50
352.2076891854522955
 51
54.5911887941246192
  0
ARC
  5
6C13
  8
0
 10
4099.504168530565039
 20
154.1960207296098986
 30
0.0
 40
0.3729684566043892
 50
308.8298157728046931
 51
353.8649545794089022
  0
ARC
  5
6C14
  8
0
 10
4099.1342571229288296
 20
154.5591224542397981
 30
0.0
 40
0.8898257791757171
 50
303.3091624242911166
 51
312.7282304111329836
  0
ARC
  5
6C15
  8
0
 10
4099.9310544384698005
 20
155.3054148250421065
 30
0.0
 40
0.5544375287561805
 50
322.996535969001286
 51
0.451348318622919
  0
ARC
  5
6C16
  8
0
 10
4100.0728809419761092
 20
155.2406361100073866
 30
0.0
 40
0.4035904885558455
 50
248.9521089712254138
 51
318.2169990716507186
  0
ARC
  5
6C17
  8
0
 10
4100.2650524798427796
 20
155.8396497612235123
 30
0.0
 40
1.032276775897595
 50
243.4562762146323962
 51
250.9387106143340986
  0
ARC
  5
6C18
  8
0
 10
4100.6736623895194498
 20
154.0399019117384967
 30
0.0
 40
1.6693937916314281
 50
90.2462529692558775
 51
94.4804356100794962
  0
ARC
  5
6C19
  8
0
 10
4100.666414926528887
 20
154.2092594547073077
 30
0.0
 40
1.4999999999999509
 50
265.2903816859985113
 51
270.0027714193971065
  0
ARC
  5
6C1A
  8
0
 10
4100.6664874821190097
 20
154.2092221412576123
 30
0.0
 40
1.1200004504962751
 50
99.2870730768665766
 51
140.7200219160347103
  0
ARC
  5
6C1B
  8
0
 10
4100.6664874821190097
 20
154.2092221412576123
 30
0.0
 40
1.1200004504962751
 50
219.3036110214017924
 51
260.7165900658027908
  0
ARC
  5
6C1C
  8
0
 10
4100.6664874821190097
 20
154.2092221412576123
 30
0.0
 40
1.1200004504962751
 50
159.3050059147207094
 51
200.7246709538935079
  0
ARC
  5
6C1D
  8
0
 10
4084.8005404445189015
 20
152.774114157040799
 30
0.0
 40
0.0600000322822185
 50
274.7096475756268887
 51
1.667785365171641
  0
ARC
  5
6C1E
  8
0
 10
4088.2095600716302215
 20
152.9153935302867922
 30
0.0
 40
3.351952083081398
 50
176.6945922917288954
 51
182.3877968492114121
  0
ARC
  5
6C1F
  8
0
 10
4083.9904960859671519
 20
150.4108172077903021
 30
0.0
 40
3.4598046909449272
 50
57.7917759431969813
 51
63.3077068684508788
  0
ARC
  5
6C20
  8
0
 10
4085.3397147693281113
 20
153.1354086425999128
 30
0.0
 40
0.4772798080351519
 50
133.4214268392979932
 51
183.212604187792806
  0
ARC
  5
6C21
  8
0
 10
4085.2738304554868591
 20
153.1869370331274069
 30
0.0
 40
0.3947635206361518
 50
68.7390618573585073
 51
131.6164014635764943
  0
ARC
  5
6C22
  8
0
 10
4085.0776675851739128
 20
152.5558052622446041
 30
0.0
 40
1.0550766912041529
 50
63.7306092451738522
 51
71.2404148107161745
  0
ARC
  5
6C23
  8
0
 10
4085.865534202201161
 20
153.3917769615943882
 30
0.0
 40
0.0618705193123074
 50
239.9627717180187858
 51
323.6694036250391946
  0
ARC
  5
6C24
  8
0
 10
4084.6823101389218209
 20
154.2092508484157918
 30
0.0
 40
1.4999975945565891
 50
325.2901988625461058
 51
334.7096296200768961
  0
ARC
  5
6C25
  8
0
 10
4085.9818709254500391
 20
153.5932804595840082
 30
0.0
 40
0.0618726839109722
 50
336.3324927810924123
 51
60.0449401694198102
  0
ARC
  5
6C26
  8
0
 10
4087.5077351874278975
 20
156.5200658590219973
 30
0.0
 40
3.2388402310986
 50
236.6211089123733018
 51
242.511167954847906
  0
ARC
  5
6C27
  8
0
 10
4084.798649326361101
 20
155.6426935850213908
 30
0.0
 40
0.0618705170530174
 50
359.9627300583431975
 51
83.6694044311108769
  0
ARC
  5
6C28
  8
0
 10
4088.3041852679111798
 20
155.504431107267294
 30
0.0
 40
3.446438310988857
 50
177.701489357389903
 51
183.2377494325151019
  0
ARC
  5
6C29
  8
0
 10
4084.0126512301490038
 20
157.9576921059951076
 30
0.0
 40
3.405708024856279
 50
296.7390717734444934
 51
302.3409888307767801
  0
ARC
  5
6C2A
  8
0
 10
4085.8655366365701411
 20
155.0267207155694109
 30
0.0
 40
0.0618726825739257
 50
36.3324922759228102
 51
120.0449655542651044
  0
ARC
  5
6C2B
  8
0
 10
4084.6823539661568248
 20
154.2092809571894065
 30
0.0
 40
1.499945872997579
 50
25.2899551253413399
 51
34.7097108425136014
  0
ARC
  5
6C2C
  8
0
 10
4085.9818748675138522
 20
154.8252188660802062
 30
0.0
 40
0.0618711924195873
 50
299.9629647375605259
 51
23.6688302932805001
  0
ARC
  5
6C2D
  8
0
 10
4087.0118381090592266
 20
152.7523625521552049
 30
0.0
 40
2.2528900101865288
 50
116.3247295319786048
 51
127.5322823742301068
  0
ARC
  5
6C2E
  8
0
 10
4085.8726605785609536
 20
154.2107466638248923
 30
0.0
 40
0.4026565671552297
 50
125.408811205875395
 51
187.7923108145477045
  0
ARC
  5
6C2F
  8
0
 10
4085.844554501174116
 20
154.196013411709913
 30
0.0
 40
0.3729684566043892
 50
186.1350454205910978
 51
231.1701842271951932
  0
ARC
  5
6C30
  8
0
 10
4086.2144659088089611
 20
154.5591151363398126
 30
0.0
 40
0.8898257791757171
 50
227.271769588866988
 51
236.6908375757089118
  0
ARC
  5
6C31
  8
0
 10
4085.4176685932679902
 20
155.3054075071420925
 30
0.0
 40
0.5544375287561805
 50
179.5486516813770947
 51
217.003464030998714
  0
ARC
  5
6C32
  8
0
 10
4085.2758420897630458
 20
155.2406287921074011
 30
0.0
 40
0.4035904885558455
 50
221.7830009283493098
 51
291.0478910287745862
  0
ARC
  5
6C33
  8
0
 10
4085.0836705518950112
 20
155.8396424433234131
 30
0.0
 40
1.032276775897595
 50
289.0612893856658161
 51
296.5437237853674901
  0
ARC
  5
6C34
  8
0
 10
4084.6750606422187957
 20
154.0398945938385111
 30
0.0
 40
1.6693937916314281
 50
85.5195643899205038
 51
89.7537470307441367
  0
ARC
  5
6C35
  8
0
 10
4084.6823081052089037
 20
154.2092521368072937
 30
0.0
 40
1.4999999999999509
 50
269.9972285806027799
 51
274.7096183140014887
  0
CIRCLE
  5
6C36
  8
0
 10
4084.6822963545541825
 20
154.2092451674288043
 30
0.0
 40
0.5290259775915654
  0
CIRCLE
  5
6C37
  8
0
 10
4084.6822355496187811
 20
154.2092148233575983
 30
0.0
 40
0.3783551895382394
  0
ARC
  5
6C38
  8
0
 10
4084.6822355496187811
 20
154.2092148233575983
 30
0.0
 40
1.1200004504962751
 50
39.279978083965311
 51
80.7129269231334519
  0
ARC
  5
6C39
  8
0
 10
4084.6822355496187811
 20
154.2092148233575983
 30
0.0
 40
1.1200004504962751
 50
279.2834099341972092
 51
320.6963889785981792
  0
ARC
  5
6C3A
  8
0
 10
4084.6822355496187811
 20
154.2092148233575983
 30
0.0
 40
1.1200004504962751
 50
339.2753290461063784
 51
20.6949940852792409
  0
ARC
  5
6C3B
  8
0
 10
4084.5639306547182059
 20
152.774114157040799
 30
0.0
 40
0.0600000322822185
 50
178.3322146348282899
 51
265.2903524243731113
  0
ARC
  5
6C3C
  8
0
 10
4081.1549110276077954
 20
152.9153935302867922
 30
0.0
 40
3.351952083081398
 50
357.6122031507886163
 51
3.3054077082710478
  0
ARC
  5
6C3D
  8
0
 10
4085.373975013270865
 20
150.4108172077903021
 30
0.0
 40
3.4598046909449272
 50
116.692293131549107
 51
122.2082240568030045
  0
ARC
  5
6C3E
  8
0
 10
4084.0247563299108151
 20
153.1354086425999128
 30
0.0
 40
0.4772798080351519
 50
356.7873958122070803
 51
46.5785731607019216
  0
ARC
  5
6C3F
  8
0
 10
4084.0906406437520673
 20
153.1869370331274069
 30
0.0
 40
0.3947635206361518
 50
48.3835985364234489
 51
111.2609381426415069
  0
ARC
  5
6C40
  8
0
 10
4084.2868035140631946
 20
152.5558052622446041
 30
0.0
 40
1.0550766912041529
 50
108.759585189283797
 51
116.2693907548261052
  0
ARC
  5
6C41
  8
0
 10
4083.498936897036856
 20
153.3917769615943882
 30
0.0
 40
0.0618705193123074
 50
216.3305963749608054
 51
300.0372282819810721
  0
ARC
  5
6C42
  8
0
 10
4084.682160960316196
 20
154.2092508484157918
 30
0.0
 40
1.4999975945565891
 50
205.2903703799231039
 51
214.7098011374538089
  0
ARC
  5
6C43
  8
0
 10
4083.3826001737888873
 20
153.5932804595840082
 30
0.0
 40
0.0618726839109722
 50
119.9550598305801969
 51
203.6675072189075877
  0
ARC
  5
6C44
  8
0
 10
4081.8567359118092099
 20
156.5200658590219973
 30
0.0
 40
3.2388402310986
 50
297.4888320451519803
 51
303.3788910876268119
  0
ARC
  5
6C45
  8
0
 10
4084.5658217728769159
 20
155.6426935850213908
 30
0.0
 40
0.0618705170530174
 50
96.3305955688891231
 51
180.0372699416568025
  0
ARC
  5
6C46
  8
0
 10
4081.0602858313282013
 20
155.504431107267294
 30
0.0
 40
3.446438310988857
 50
356.7622505674848981
 51
2.2985106426100792
  0
ARC
  5
6C47
  8
0
 10
4085.3518198690908321
 20
157.9576921059951076
 30
0.0
 40
3.405708024856279
 50
237.6590111692231915
 51
243.2609282265555066
  0
ARC
  5
6C48
  8
0
 10
4083.4989344626678758
 20
155.0267207155694109
 30
0.0
 40
0.0618726825739257
 50
59.9550344457349027
 51
143.6675077240772112
  0
ARC
  5
6C49
  8
0
 10
4084.6821171330798279
 20
154.2092809571894065
 30
0.0
 40
1.499945872997579
 50
145.2902891574863986
 51
154.7100448746585926
  0
ARC
  5
6C4A
  8
0
 10
4083.3825962317241647
 20
154.8252188660802062
 30
0.0
 40
0.0618711924195873
 50
156.3311697067194928
 51
240.0370352624395025
  0
ARC
  5
6C4B
  8
0
 10
4082.3526329901787904
 20
152.7523625521552049
 30
0.0
 40
2.2528900101865288
 50
52.4677176257698576
 51
63.6752704680213384
  0
ARC
  5
6C4C
  8
0
 10
4083.4918105206770633
 20
154.2107466638248923
 30
0.0
 40
0.4026565671552297
 50
352.2076891854522955
 51
54.5911887941246192
  0
ARC
  5
6C4D
  8
0
 10
4083.5199165980648104
 20
154.196013411709913
 30
0.0
 40
0.3729684566043892
 50
308.8298157728046931
 51
353.8649545794089022
  0
ARC
  5
6C4E
  8
0
 10
4083.1500051904299653
 20
154.5591151363398126
 30
0.0
 40
0.8898257791757171
 50
303.3091624242911166
 51
312.7282304111329836
  0
ARC
  5
6C4F
  8
0
 10
4083.9468025059709362
 20
155.3054075071420925
 30
0.0
 40
0.5544375287561805
 50
322.996535969001286
 51
0.451348318622919
  0
ARC
  5
6C50
  8
0
 10
4084.0886290094758806
 20
155.2406287921074011
 30
0.0
 40
0.4035904885558455
 50
248.9521089712254138
 51
318.2169990716507186
  0
ARC
  5
6C51
  8
0
 10
4084.2808005473430057
 20
155.8396424433234131
 30
0.0
 40
1.032276775897595
 50
243.4562762146323962
 51
250.9387106143340986
  0
ARC
  5
6C52
  8
0
 10
4084.6894104570192212
 20
154.0398945938385111
 30
0.0
 40
1.6693937916314281
 50
90.2462529692558775
 51
94.4804356100794962
  0
ARC
  5
6C53
  8
0
 10
4084.6821629940291132
 20
154.2092521368072937
 30
0.0
 40
1.4999999999999509
 50
265.2903816859985113
 51
270.0027714193971065
  0
ARC
  5
6C54
  8
0
 10
4084.6822355496187811
 20
154.2092148233575983
 30
0.0
 40
1.1200004504962751
 50
99.2870730768665766
 51
140.7200219160347103
  0
ARC
  5
6C55
  8
0
 10
4084.6822355496187811
 20
154.2092148233575983
 30
0.0
 40
1.1200004504962751
 50
219.3036110214017924
 51
260.7165900658027908
  0
ARC
  5
6C56
  8
0
 10
4084.6822355496187811
 20
154.2092148233575983
 30
0.0
 40
1.1200004504962751
 50
159.3050059147207094
 51
200.7246709538935079
  0
ENDSEC
  0
EOF
