  0
SECTION
  2
HEADER
  9
$ACADVER
  1
AC1009
  9
$INSBASE
 10
4092.9343711311789775
 20
145.1949442583681105
 30
0.0
  9
$EXTMIN
 10
4083.580737069188217
 20
145.1894170803369093
 30
0.0
  9
$EXTMAX
 10
4102.288005121171409
 20
148.7970257629505113
 30
0.0
  9
$LIMMIN
 10
0.0
 20
0.0
  9
$LIMMAX
 10
11.6929133858000007
 20
8.2677165353999982
  9
$ORTHOMODE
 70
     0
  9
$REGENMODE
 70
     1
  9
$FILLMODE
 70
     1
  9
$QTEXTMODE
 70
     0
  9
$MIRRTEXT
 70
     0
  9
$DRAGMODE
 70
     2
  9
$LTSCALE
 40
0.6431102362
  9
$OSMODE
 70
  4095
  9
$ATTMODE
 70
     1
  9
$TEXTSIZE
 40
0.2
  9
$TRACEWID
 40
0.05
  9
$TEXTSTYLE
  7
STANDARD
  9
$CLAYER
  8
0
  9
$CELTYPE
  6
BYLAYER
  9
$CECOLOR
 62
   256
  9
$DIMSCALE
 40
1.0
  9
$DIMASZ
 40
0.1875
  9
$DIMEXO
 40
0.0625
  9
$DIMDLI
 40
0.4443307087
  9
$DIMRND
 40
0.0
  9
$DIMDLE
 40
0.0
  9
$DIMEXE
 40
0.125
  9
$DIMTP
 40
0.01
  9
$DIMTM
 40
0.01
  9
$DIMTXT
 40
2.0
  9
$DIMCEN
 40
0.1052362205
  9
$DIMTSZ
 40
0.0
  9
$DIMTOL
 70
     1
  9
$DIMLIM
 70
     0
  9
$DIMTIH
 70
     1
  9
$DIMTOH
 70
     1
  9
$DIMSE1
 70
     0
  9
$DIMSE2
 70
     0
  9
$DIMTAD
 70
     0
  9
$DIMZIN
 70
     0
  9
$DIMBLK
  1

  9
$DIMASO
 70
     1
  9
$DIMSHO
 70
     1
  9
$DIMPOST
  1
\X
  9
$DIMAPOST
  1

  9
$DIMALT
 70
     1
  9
$DIMALTD
 70
     2
  9
$DIMALTF
 40
25.3999999999999986
  9
$DIMLFAC
 40
1.0
  9
$DIMTOFL
 70
     0
  9
$DIMTVP
 40
0.0
  9
$DIMTIX
 70
     0
  9
$DIMSOXD
 70
     0
  9
$DIMSAH
 70
     0
  9
$DIMBLK1
  1

  9
$DIMBLK2
  1

  9
$DIMSTYLE
  2
STANDARD
  9
$DIMCLRD
 70
     0
  9
$DIMCLRE
 70
     0
  9
$DIMCLRT
 70
     0
  9
$DIMTFAC
 40
1.0
  9
$DIMGAP
 40
0.09
  9
$LUNITS
 70
     2
  9
$LUPREC
 70
     4
  9
$SKETCHINC
 40
0.1
  9
$FILLETRAD
 40
0.0
  9
$AUNITS
 70
     0
  9
$AUPREC
 70
     0
  9
$MENU
  1
.
  9
$ELEVATION
 40
0.0
  9
$PELEVATION
 40
0.0
  9
$THICKNESS
 40
0.0
  9
$LIMCHECK
 70
     0
  9
$BLIPMODE
 70
     0
  9
$CHAMFERA
 40
0.0
  9
$CHAMFERB
 40
0.0
  9
$SKPOLY
 70
     0
  9
$TDCREATE
 40
2458060.468368056230247
  9
$TDUPDATE
 40
2459031.8094444437883794
  9
$TDINDWG
 40
0.3401690972
  9
$TDUSRTIMER
 40
0.3401690972
  9
$USRTIMER
 70
     1
  9
$ANGBASE
 50
0.0
  9
$ANGDIR
 70
     0
  9
$PDMODE
 70
     0
  9
$PDSIZE
 40
0.3125
  9
$PLINEWID
 40
0.0
  9
$COORDS
 70
     1
  9
$SPLFRAME
 70
     0
  9
$SPLINETYPE
 70
     6
  9
$SPLINESEGS
 70
     8
  9
$ATTDIA
 70
     1
  9
$ATTREQ
 70
     1
  9
$HANDLING
 70
     1
  9
$HANDSEED
  5
6C2F
  9
$SURFTAB1
 70
     6
  9
$SURFTAB2
 70
     6
  9
$SURFTYPE
 70
     6
  9
$SURFU
 70
     6
  9
$SURFV
 70
     6
  9
$UCSNAME
  2

  9
$UCSORG
 10
0.0
 20
0.0
 30
0.0
  9
$UCSXDIR
 10
1.0
 20
0.0
 30
0.0
  9
$UCSYDIR
 10
0.0
 20
1.0
 30
0.0
  9
$PUCSNAME
  2

  9
$PUCSORG
 10
0.0
 20
0.0
 30
0.0
  9
$PUCSXDIR
 10
1.0
 20
0.0
 30
0.0
  9
$PUCSYDIR
 10
0.0
 20
1.0
 30
0.0
  9
$USERI1
 70
     0
  9
$USERI2
 70
     0
  9
$USERI3
 70
     0
  9
$USERI4
 70
     0
  9
$USERI5
 70
     0
  9
$USERR1
 40
0.0
  9
$USERR2
 40
0.0
  9
$USERR3
 40
0.0
  9
$USERR4
 40
0.0
  9
$USERR5
 40
0.0
  9
$WORLDVIEW
 70
     1
  9
$SHADEDGE
 70
     3
  9
$SHADEDIF
 70
    70
  9
$TILEMODE
 70
     1
  9
$MAXACTVP
 70
    64
  9
$PLIMCHECK
 70
     0
  9
$PEXTMIN
 10
1.0000000000000000E+20
 20
1.0000000000000000E+20
 30
1.0000000000000000E+20
  9
$PEXTMAX
 10
-1.0000000000000000E+20
 20
-1.0000000000000000E+20
 30
-1.0000000000000000E+20
  9
$PLIMMIN
 10
0.0
 20
0.0
  9
$PLIMMAX
 10
12.0
 20
9.0
  9
$UNITMODE
 70
     0
  9
$VISRETAIN
 70
     1
  9
$PLINEGEN
 70
     0
  9
$PSLTSCALE
 70
     1
  0
ENDSEC
  0
SECTION
  2
TABLES
  0
TABLE
  2
VPORT
 70
     1
  0
VPORT
  2
*ACTIVE
 70
     0
 10
0.0
 20
0.0
 11
1.0
 21
1.0
 12
0.0
 22
0.0
 13
0.0
 23
0.0
 14
1.0
 24
1.0
 15
0.0
 25
0.0
 16
0.0
 26
0.0
 36
54.1624086655902275
 17
4092.9344482421870453
 27
146.9932223341137956
 37
0.0
 40
19.0519554407125185
 41
2.127494456762749
 42
50.0
 43
0.0
 44
0.0
 50
0.0
 51
0.0
 71
     0
 72
   100
 73
     1
 74
     1
 75
     0
 76
     0
 77
     0
 78
     0
  0
ENDTAB
  0
TABLE
  2
LTYPE
 70
     2
  0
LTYPE
  2
CONTINUOUS
 70
     0
  3
Solid line
 72
    65
 73
     0
 40
0.0
  0
LTYPE
  2
PHANTOM2
 70
     0
  3
___ _ _ ___ _ _ ___ _ _ ___ _ _
 72
    65
 73
     6
 40
1.25
 49
0.625
 49
-0.125
 49
0.125
 49
-0.125
 49
0.125
 49
-0.125
  0
ENDTAB
  0
TABLE
  2
LAYER
 70
     2
  0
LAYER
  2
0
 70
     0
 62
   255
  6
CONTINUOUS
  0
LAYER
  2
DEFPOINTS
 70
     0
 62
     7
  6
CONTINUOUS
  0
ENDTAB
  0
TABLE
  2
STYLE
 70
     1
  0
STYLE
  2
STANDARD
 70
     0
 40
0.0
 41
0.8
 50
0.0
 71
     0
 42
0.2
  3
txt
  4

  0
ENDTAB
  0
TABLE
  2
VIEW
 70
     0
  0
ENDTAB
  0
TABLE
  2
UCS
 70
     0
  0
ENDTAB
  0
TABLE
  2
APPID
 70
     9
  0
APPID
  2
ACAD
 70
     0
  0
APPID
  2
ACAD_MLEADERVER
 70
     0
  0
APPID
  2
ACAD_EXEMPT_FROM_CAD_STANDARDS
 70
     0
  0
APPID
  2
ACAD_NAV_VCDISPLAY
 70
     0
  0
APPID
  2
ACAECLAYERSTANDARD
 70
     0
  0
APPID
  2
ACCMTRANSPARENCY
 70
     0
  0
APPID
  2
ACAD_DSTYLE_DIMJAG
 70
     0
  0
APPID
  2
ACAD_DSTYLE_DIMTALN
 70
     0
  0
APPID
  2
ACDBATTR
 70
     0
  0
ENDTAB
  0
TABLE
  2
DIMSTYLE
 70
     1
  0
DIMSTYLE
  2
STANDARD
 70
     0
  3

  4

  5

  6

  7

 40
1.0
 41
0.1875
 42
0.0625
 43
0.38
 44
0.125
 45
0.0
 46
0.0
 47
0.01
 48
0.01
140
0.15625
141
0.09
142
0.0
143
25.3999999999999986
144
1.0
145
0.0
146
1.0
147
0.09
 71
     1
 72
     0
 73
     1
 74
     1
 75
     0
 76
     0
 77
     0
 78
     4
170
     0
171
     2
172
     0
173
     0
174
     0
175
     0
176
     0
177
     0
178
     0
  0
ENDTAB
  0
ENDSEC
  0
SECTION
  2
BLOCKS
  0
BLOCK
  8
0
  2
$MODEL_SPACE
 70
     0
 10
0.0
 20
0.0
 30
0.0
  3
$MODEL_SPACE
  1

  0
ENDBLK
  5
21
  8
0
  0
BLOCK
 67
     1
  8
0
  2
$PAPER_SPACE
 70
     0
 10
0.0
 20
0.0
 30
0.0
  3
$PAPER_SPACE
  1

  0
ENDBLK
  5
1D
 67
     1
  8
0
  0
BLOCK
  8
0
  2
_FILLED
 70
     0
 10
0.0
 20
0.0
 30
0.0
  3
_FILLED
  1

  0
SOLID
  5
67BB
  8
0
  6
BYBLOCK
 62
     0
 10
0.0
 20
0.0
 30
0.0
 11
-1.0
 21
0.1666666667
 31
0.0
 12
-1.0
 22
-0.1666666667
 32
0.0
 13
-1.0
 23
-0.1666666667
 33
0.0
  0
ENDBLK
  5
67BC
  8
0
  6
BYBLOCK
 62
     0
  0
ENDSEC
  0
SECTION
  2
ENTITIES
  0
ATTDEF
  5
3930
  8
DEFPOINTS
 10
4092.9315127080922139
 20
145.1927504136702964
 30
0.0
 40
0.001
  1
K-98068W-3M
  3

  2
MODELNUMBER
 70
     0
1001
ACDBATTR
1070
     0
1070
     1
  0
ATTDEF
  5
3931
  8
DEFPOINTS
 10
4092.9315127080922139
 20
145.1910837470036029
 30
0.0
 40
0.001
  1
ARTIFACTS
  3

  2
TRADENAME
 70
     0
1001
ACDBATTR
1070
     0
1070
     1
  0
ATTDEF
  5
3932
  8
DEFPOINTS
 10
4092.9315127080922139
 20
145.1894170803369093
 30
0.0
 40
0.001
  1
BATHROOM SINK FAUCET HANDLES
  3

  2
PRODUCT
 70
     0
1001
ACDBATTR
1070
     0
1070
     1
  0
ARC
  5
69D3
  8
0
 10
4101.4594691273778153
 20
146.1948666584027023
 30
0.0
 40
0.1050028234908213
 50
285.0100107154917737
 51
77.1541974328135325
  0
ARC
  5
69D4
  8
0
 10
4101.3446011040450685
 20
147.378036543756906
 30
0.0
 40
0.0578042319682059
 50
177.725968850566403
 51
222.0141158971181881
  0
ARC
  5
69D5
  8
0
 10
4101.3076176476715773
 20
148.6994949537804871
 30
0.0
 40
0.023972278680816
 50
208.3014309643027957
 51
263.4182430470465874
  0
ARC
  5
69D6
  8
0
 10
4101.2529615225394082
 20
148.4660241396472031
 30
0.0
 40
0.2159869034824611
 50
22.5025794315615109
 51
76.0939082882027407
  0
ARC
  5
69D7
  8
0
 10
4101.4269385920688364
 20
148.537228836198608
 30
0.0
 40
0.0286638857939981
 50
281.3917688893623108
 51
357.9339272986305787
  0
ARC
  5
69D8
  8
0
 10
4101.4144449664363492
 20
148.5326779035711979
 30
0.0
 40
0.0412889858866701
 50
4.8871383600991916
 51
22.8146073539753509
  0
ARC
  5
69D9
  8
0
 10
4101.4188361757060193
 20
148.331947284358904
 30
0.0
 40
0.1772615315396778
 50
91.7286118101156376
 51
119.0706469141490942
  0
ARC
  5
69DA
  8
0
 10
4101.3575895481708358
 20
148.4393317492514939
 30
0.0
 40
0.0536633305522446
 50
117.6247706597750948
 51
183.7603771857230868
  0
ARC
  5
69DB
  8
0
 10
4101.3355283974569829
 20
148.4333579835287082
 30
0.0
 40
0.0315821555562823
 50
175.5429272822497921
 51
255.1321981550773046
  0
ARC
  5
69DC
  8
0
 10
4101.3037597386473863
 20
148.313977001661101
 30
0.0
 40
0.0919535399116491
 50
359.8951856675907948
 51
75.0866345309799641
  0
ARC
  5
69DD
  8
0
 10
4101.3422347774821901
 20
146.3449458034367012
 30
0.0
 40
1.969589139392353
 50
67.5383292593255931
 51
88.4441119496141113
  0
ARC
  5
69DE
  8
0
 10
4101.9864227575271798
 20
147.8836480824442958
 30
0.0
 40
0.3015897180386778
 50
0.400132409818242
 51
68.9504220379406405
  0
ARC
  5
69DF
  8
0
 10
4102.0414669075398706
 20
147.8870735305366964
 30
0.0
 40
0.2465417434565035
 50
272.864367088666711
 51
359.6934018613681019
  0
LINE
  5
69E0
  8
0
 10
4102.0537870459711485
 20
147.6408398093375922
 30
0.0
 11
4101.930707683079163
 21
147.6408398093375922
 31
0.0
  0
ARC
  5
69E1
  8
0
 10
4101.9466729743799078
 20
147.8864722568226
 30
0.0
 40
0.2461507460557876
 50
198.5734891673371862
 51
266.2811959796521251
  0
ARC
  5
69E2
  8
0
 10
4101.6706692888292309
 20
147.8006809010888105
 30
0.0
 40
0.0432296668775165
 50
9.8954662035992413
 51
83.0716559846444937
  0
LINE
  5
69E3
  8
0
 10
4101.655162738479703
 20
147.8399107319849008
 30
0.0
 11
4101.6364970973563686
 21
147.8361837140681132
 31
0.0
  0
ARC
  5
69E4
  8
0
 10
4101.5869248638719
 20
147.8507830235672884
 30
0.0
 40
0.0299999996907791
 50
283.6788708944339987
 51
330.8436631023247969
  0
ARC
  5
69E5
  8
0
 10
4101.6607965026851161
 20
147.4646177540410861
 30
0.0
 40
0.3632075874251647
 50
100.5943375189035009
 51
149.8074390022487989
  0
ARC
  5
69E6
  8
0
 10
4101.8678042250357976
 20
147.3899303923402044
 30
0.0
 40
0.5810411463659979
 50
153.7104850978961963
 51
180.9467113353657055
  0
ARC
  5
69E7
  8
0
 10
4101.2911158536016956
 20
147.2231373350441004
 30
0.0
 40
0.0243106284866596
 50
108.7126420450918971
 51
182.8004805893135085
  0
LINE
  5
69E8
  8
0
 10
4101.266834258630297
 20
147.2219495627680885
 30
0.0
 11
4101.2588103640282498
 21
147.130249544568187
 31
0.0
  0
ARC
  5
69E9
  8
0
 10
4101.2327623004293855
 20
147.1288200433924089
 30
0.0
 40
0.0260872591684042
 50
263.858795031808711
 51
3.1412049920463372
  0
ARC
  5
69EA
  8
0
 10
4101.3458595601923662
 20
143.5896320025719888
 30
0.0
 40
3.5151613110324038
 50
91.8892730931590478
 51
92.3322130277501572
  0
ARC
  5
69EB
  8
0
 10
4101.2029603687551571
 20
147.0752135360044974
 30
0.0
 40
0.0266684740798022
 50
90.3120083963297446
 51
186.8247131179381029
  0
LINE
  5
69EC
  8
0
 10
4101.1764808582802289
 20
147.0720444612680922
 30
0.0
 11
4101.1765094593292815
 21
146.5817545742681034
 31
0.0
  0
ARC
  5
69ED
  8
0
 10
4101.4094969250963914
 20
146.3415823714423141
 30
0.0
 40
0.0500001723331234
 50
0.0000798996161075
 51
88.1126193111924891
  0
LINE
  5
69EE
  8
0
 10
4101.4594970974294483
 20
146.3415824411681001
 30
0.0
 11
4101.4595010696293684
 21
146.3264913145681021
 31
0.0
  0
ARC
  5
69EF
  8
0
 10
4101.4845195646130378
 20
146.3225163038270864
 30
0.0
 40
0.0253323074688194
 50
170.9721420768003952
 51
266.1399240656115808
  0
ARC
  5
69F0
  8
0
 10
4101.459563513237299
 20
146.1948684411838997
 30
0.0
 40
0.104980140699521
 50
284.9600026619714868
 51
77.2042054871380827
  0
ARC
  5
69F1
  8
0
 10
4101.502228418256891
 20
146.0354818174185993
 30
0.0
 40
0.0600180397142631
 50
105.0306678492333958
 51
161.3198640475200989
  0
ARC
  5
69F2
  8
0
 10
4101.6972352784641771
 20
145.9611985322329986
 30
0.0
 40
0.2686605395427942
 50
159.6321738580203942
 51
235.1784140246093102
  0
ARC
  5
69F3
  8
0
 10
4101.7234037316238755
 20
146.0001659393930993
 30
0.0
 40
0.3155939362861535
 50
235.3179718318519917
 51
261.3973175265090276
  0
ARC
  5
69F4
  8
0
 10
4101.6730347271632127
 20
145.6598060982404945
 30
0.0
 40
0.0284925241449818
 50
357.3637774741595763
 51
83.6284978567355495
  0
LINE
  5
69F5
  8
0
 10
4101.701497097428728
 20
145.6584955979681126
 30
0.0
 11
4101.701497097428728
 21
145.6145151244681131
 31
0.0
  0
ARC
  5
69F6
  8
0
 10
4101.6727990252702511
 20
145.6132322633237948
 30
0.0
 40
0.0287267310773942
 50
267.3699780141092219
 51
2.5595318116829691
  0
ARC
  5
69F7
  8
0
 10
4101.644694369066201
 20
147.9584238029987944
 30
0.0
 40
0.118974513066125
 50
275.0478880492831877
 51
285.180548883529184
  0
LINE
  5
69F8
  8
0
 10
4100.3701799312448202
 20
146.297241464468101
 30
0.0
 11
4101.4828141916132154
 21
146.297241464468101
 31
0.0
  0
LINE
  5
69F9
  8
0
 10
4100.4418504395798664
 20
146.3915554183859058
 30
0.0
 11
4101.4111436832790787
 21
146.3915554183859058
 31
0.0
  0
ARC
  5
69FA
  8
0
 10
4101.0417489375604418
 20
147.701114590940989
 30
0.0
 40
0.060316471807816
 50
270.4438152540395208
 51
0.6352045960308497
  0
ARC
  5
69FB
  8
0
 10
4089.6973125807280667
 20
147.923413432243791
 30
0.0
 40
11.4069024044114506
 50
358.8867028468444005
 51
1.0083363522007751
  0
ARC
  5
69FC
  8
0
 10
4101.1955131773265748
 20
148.1358977468401008
 30
0.0
 40
0.0938030529850979
 50
132.0005755026043062
 51
187.1940680297435904
  0
ARC
  5
69FD
  8
0
 10
4101.2229069530667402
 20
148.0420741573159091
 30
0.0
 40
0.1867398858722034
 50
92.5342069477548819
 51
118.8694692045960011
  0
ARC
  5
69FE
  8
0
 10
4101.3321731442238161
 20
146.714690677316014
 30
0.0
 40
1.518495378785188
 50
83.0462339594095909
 51
94.4388118264490402
  0
ARC
  5
69FF
  8
0
 10
4101.4167641664098483
 20
147.0670359160733085
 30
0.0
 40
1.159236951644153
 50
63.2146226734824168
 51
85.088475986701269
  0
ARC
  5
6A00
  8
0
 10
4101.8383078406413915
 20
147.8830042611373017
 30
0.0
 40
0.2410061310664346
 50
4.1966977399776217
 51
65.258749351227948
  0
ARC
  5
6A01
  8
0
 10
4101.88625799300371
 20
147.8902762226651078
 30
0.0
 40
0.1926887486587731
 50
281.9297675070448008
 51
3.0834843529463889
  0
ARC
  5
6A02
  8
0
 10
4101.9125861036391143
 20
147.8714709912613046
 30
0.0
 40
0.1702580769164153
 50
208.9938737284377908
 51
274.5488720765682729
  0
ARC
  5
6A03
  8
0
 10
4102.2063191409251885
 20
148.0187093765009081
 30
0.0
 40
0.498732064781385
 50
200.1358343917206923
 51
207.4322028388284878
  0
ARC
  5
6A04
  8
0
 10
4101.6485489180913646
 20
147.8066030260818025
 30
0.0
 40
0.0982229617375882
 50
24.2994831938328595
 51
87.439778382919954
  0
ARC
  5
6A05
  8
0
 10
4101.5424104614985481
 20
146.5261406508070081
 30
0.0
 40
1.383010816338808
 50
85.416210668166471
 51
95.4122208052942682
  0
ARC
  5
6A06
  8
0
 10
4101.3246375015532976
 20
149.2797495960631977
 30
0.0
 40
1.3795304983976879
 50
263.6267064570050138
 51
273.6293403808754192
  0
LINE
  5
6A07
  8
0
 10
4101.6364970973563686
 20
147.8361837140681132
 30
0.0
 11
4101.1038814530938907
 21
147.8361837140681132
 31
0.0
  0
LINE
  5
6A08
  8
0
 10
4100.8107779763204235
 20
147.6407999286514041
 30
0.0
 11
4101.0422161465376121
 21
147.6407999286514041
 31
0.0
  0
LINE
  5
6A09
  8
0
 10
4100.420393940028589
 20
148.5091296415681086
 30
0.0
 11
4101.4326001828294466
 21
148.5091296415681086
 31
0.0
  0
LINE
  5
6A0A
  8
0
 10
4100.5312232473788754
 20
148.4036785480348897
 30
0.0
 11
4101.327424737459296
 21
148.4028331850898894
 31
0.0
  0
ARC
  5
6A0B
  8
0
 10
4101.1586125852591067
 20
147.7987243000526121
 30
0.0
 40
0.1107730386867146
 50
83.3181322834813756
 51
106.6749801906473039
  0
ARC
  5
6A0C
  8
0
 10
4101.1623162346850222
 20
147.8695429613123054
 30
0.0
 40
0.0500529159901322
 50
135.1561998057024994
 51
169.5144146859738896
  0
LINE
  5
6A0D
  8
0
 10
4101.1130991661566441
 20
147.8786519988348971
 30
0.0
 11
4101.1039063992120646
 21
147.8404886331717023
 31
0.0
  0
ARC
  5
6A0E
  8
0
 10
4101.2566946710157936
 20
147.2997981315074867
 30
0.0
 40
0.0598787031633924
 50
296.3974582898534891
 51
41.3372087130052819
  0
LINE
  5
6A0F
  8
0
 10
4100.5661517289017866
 20
147.3803301527682095
 30
0.0
 11
4101.2868423939571585
 21
147.3803301527682095
 31
0.0
  0
LINE
  5
6A10
  8
0
 10
4100.5861598642295576
 20
147.2219495627680885
 30
0.0
 11
4101.266834258630297
 21
147.2219495627680885
 31
0.0
  0
LINE
  5
6A11
  8
0
 10
4101.6714808583792546
 20
145.5845357911682072
 30
0.0
 11
4100.1815132645788253
 21
145.5845357911680935
 31
0.0
  0
LINE
  5
6A12
  8
0
 10
4100.1767974481790588
 20
145.6881226308682074
 30
0.0
 11
4101.6761966746798862
 21
145.6881226308682074
 31
0.0
  0
LINE
  5
6A13
  8
0
 10
4100.407622076516418
 20
146.0547046700681051
 30
0.0
 11
4101.4453720463434365
 21
146.0547046700681904
 31
0.0
  0
LINE
  5
6A14
  8
0
 10
4100.5481241982306528
 20
148.6756806689240875
 30
0.0
 11
4101.3048699246282922
 21
148.6756806689240875
 31
0.0
  0
LINE
  5
6A15
  8
0
 10
4100.4573301153286593
 20
148.3138087860681082
 30
0.0
 11
4101.395713124696158
 21
148.3138087860681082
 31
0.0
  0
ARC
  5
6A16
  8
0
 10
4101.2021989651057083
 20
146.5780187403593118
 30
0.0
 40
0.0259597219174015
 50
171.7259013761199924
 51
270.0746376746209876
  0
ARC
  5
6A17
  8
0
 10
4101.110859670510763
 20
145.8686135971807971
 30
0.0
 40
0.6895264458141587
 50
68.9860389942319614
 51
82.3850080326352554
  0
ARC
  5
6A18
  8
0
 10
4101.3459477246005918
 20
146.4850155806969951
 30
0.0
 40
0.029860103919016
 50
359.920851812704484
 51
65.9416522605894357
  0
LINE
  5
6A19
  8
0
 10
4101.3758078000291789
 20
146.4849743320681057
 30
0.0
 11
4101.3758078150285655
 21
146.4216737584681027
 31
0.0
  0
ARC
  5
6A1A
  8
0
 10
4101.4061406770606482
 20
146.4218175991134103
 30
0.0
 40
0.0303332030812461
 50
180.2716987310080867
 51
266.177242811890892
  0
ARC
  5
6A1B
  8
0
 10
4101.4835020540258483
 20
145.5651904424854877
 30
0.0
 40
0.0295077509441248
 50
13.7826030159944199
 51
40.9653335102056317
  0
LINE
  5
6A1C
  8
0
 10
4101.5121601783293954
 20
145.572220327068095
 30
0.0
 11
4101.5206462064479638
 21
145.5376260679726954
 31
0.0
  0
ARC
  5
6A1D
  8
0
 10
4101.549567021123039
 20
145.5447203909320137
 30
0.0
 40
0.0297782292918661
 50
193.7826030159943969
 51
270.6799262300584132
  0
LINE
  5
6A1E
  8
0
 10
4100.2014970254285799
 20
145.5149442583681036
 30
0.0
 11
4101.6514970974285461
 21
145.5149442583681036
 31
0.0
  0
ARC
  5
6A1F
  8
0
 10
4101.6514970974285461
 20
144.9780336454230962
 30
0.0
 40
0.5369106129450393
 50
69.4663498517563767
 51
90.0
  0
ARC
  5
6A20
  8
0
 10
4101.7322707826269834
 20
145.1936864890897994
 30
0.0
 40
0.3066270112668834
 50
23.1109721308053793
 51
69.4663498517563767
  0
ARC
  5
6A21
  8
0
 10
4101.6055086498554374
 20
145.1395907746569947
 30
0.0
 40
0.4444493049033064
 50
7.1544217610156151
 51
23.1107811367880807
  0
LINE
  5
6A22
  8
0
 10
4102.046497511925736
 20
145.1949442583681105
 30
0.0
 11
4099.806496610933209
 21
145.1949442583681105
 31
0.0
  0
ARC
  5
6A23
  8
0
 10
4101.1224919353398946
 20
148.57103023984331
 30
0.0
 40
0.2015302475595199
 50
35.5244495614048503
 51
66.1303870108070981
  0
ARC
  5
6A24
  8
0
 10
4101.038237631732045
 20
148.3806270359208952
 30
0.0
 40
0.4097420813738026
 50
66.1303870108070981
 51
80.6624530172657188
  0
ARC
  5
6A25
  8
0
 10
4100.9697283019368115
 20
147.9639777335258088
 30
0.0
 40
0.8319862873201824
 50
80.6624530172657188
 51
87.0155216608690978
  0
ARC
  5
6A26
  8
0
 10
4100.9246823111716367
 20
147.0141515922036035
 30
0.0
 40
1.7828750943448171
 50
87.1591153056665888
 51
89.9416798468536314
  0
ARC
  5
6A27
  8
0
 10
4101.2750682547348333
 20
146.235489309130287
 30
0.0
 40
0.2889840294030612
 50
73.2979630411710019
 51
106.0971159935956933
  0
ARC
  5
6A28
  8
0
 10
4100.3935249954802202
 20
146.1948666584027023
 30
0.0
 40
0.1050028234908213
 50
102.8458025671864959
 51
254.9899892845081126
  0
ARC
  5
6A29
  8
0
 10
4100.5083930188120576
 20
147.378036543756906
 30
0.0
 40
0.0578042319682059
 50
317.9858841028818119
 51
2.2740311494335468
  0
ARC
  5
6A2A
  8
0
 10
4100.5453764751855488
 20
148.6994949537804871
 30
0.0
 40
0.023972278680816
 50
276.5817569529532989
 51
331.698569035697119
  0
ARC
  5
6A2B
  8
0
 10
4100.6000326003186274
 20
148.4660241396472031
 30
0.0
 40
0.2159869034824611
 50
103.9060917117972025
 51
157.497420568438514
  0
ARC
  5
6A2C
  8
0
 10
4100.4260555307891991
 20
148.537228836198608
 30
0.0
 40
0.0286638857939981
 50
182.0660727013693077
 51
258.6082311106376892
  0
ARC
  5
6A2D
  8
0
 10
4100.4385491564225958
 20
148.5326779035711979
 30
0.0
 40
0.0412889858866701
 50
157.18539264602461
 51
175.1128616399008138
  0
ARC
  5
6A2E
  8
0
 10
4100.4341579471529258
 20
148.331947284358904
 30
0.0
 40
0.1772615315396778
 50
60.9293530858508916
 51
88.2713881898843482
  0
ARC
  5
6A2F
  8
0
 10
4100.4954045746871998
 20
148.4393317492514939
 30
0.0
 40
0.0536633305522446
 50
356.2396228142769132
 51
62.3752293402248412
  0
ARC
  5
6A30
  8
0
 10
4100.5174657254019621
 20
148.4333579835287082
 30
0.0
 40
0.0315821555562823
 50
284.8678018449227238
 51
4.4570727177502141
  0
ARC
  5
6A31
  8
0
 10
4100.5491653911285539
 20
148.3140806060793864
 30
0.0
 40
0.0918356780744095
 50
104.8884061448679006
 51
180.1695872750603939
  0
ARC
  5
6A32
  8
0
 10
4100.4746918884848128
 20
146.5144963464198895
 30
0.0
 40
1.7993962005739379
 50
90.5528364246885644
 51
113.4630838863829041
  0
ARC
  5
6A33
  8
0
 10
4099.8665713653308558
 20
147.8836480824442958
 30
0.0
 40
0.3015897180386778
 50
111.0495779620593026
 51
179.5998675901817876
  0
ARC
  5
6A34
  8
0
 10
4099.8115272153190745
 20
147.8870735305366964
 30
0.0
 40
0.2465417434565035
 50
180.3065981386318981
 51
267.135632911333289
  0
LINE
  5
6A35
  8
0
 10
4099.7992070768877966
 20
147.6408398093375922
 30
0.0
 11
4099.9222864397797821
 21
147.6408398093375922
 31
0.0
  0
ARC
  5
6A36
  8
0
 10
4099.9063211536249582
 20
147.8864722501338917
 30
0.0
 40
0.2461507390473943
 50
273.7188029260482267
 51
341.4265119269620072
  0
ARC
  5
6A37
  8
0
 10
4100.1823248340297141
 20
147.8006809010888105
 30
0.0
 40
0.0432296668775165
 50
96.9283440153555205
 51
170.1045337964006876
  0
LINE
  5
6A38
  8
0
 10
4100.1978313843792421
 20
147.8399107319849008
 30
0.0
 11
4100.2164970255016669
 21
147.8361837140681132
 31
0.0
  0
ARC
  5
6A39
  8
0
 10
4100.266069258987045
 20
147.8507830235672884
 30
0.0
 40
0.0299999996907791
 50
209.1563368976752031
 51
256.3211291055658876
  0
ARC
  5
6A3A
  8
0
 10
4100.1921976201729194
 20
147.4646177540410861
 30
0.0
 40
0.3632075874251647
 50
30.1925609977511904
 51
79.4056624810964706
  0
ARC
  5
6A3B
  8
0
 10
4099.9851898978231475
 20
147.3899303923402044
 30
0.0
 40
0.5810411463659979
 50
359.0532886646342945
 51
26.2895149021037717
  0
ARC
  5
6A3C
  8
0
 10
4100.56187826925634
 20
147.2231373350441004
 30
0.0
 40
0.0243106284866596
 50
357.1995194106864915
 51
71.2873579549080461
  0
LINE
  5
6A3D
  8
0
 10
4100.5861598642295576
 20
147.2219495627680885
 30
0.0
 11
4100.5941837588288763
 21
147.130249544568187
 31
0.0
  0
ARC
  5
6A3E
  8
0
 10
4100.62023182242865
 20
147.1288200433924089
 30
0.0
 40
0.0260872591684042
 50
176.8587950079536029
 51
276.141204968191289
  0
ARC
  5
6A3F
  8
0
 10
4100.5071345626683978
 20
143.5896320025719888
 30
0.0
 40
3.5151613110324038
 50
87.6677869722498713
 51
88.110726906840938
  0
ARC
  5
6A40
  8
0
 10
4100.650033754101969
 20
147.0752135360044974
 30
0.0
 40
0.0266684740798022
 50
353.1752868820619256
 51
89.6879916036702838
  0
LINE
  5
6A41
  8
0
 10
4100.6765132645796257
 20
147.0720444612680922
 30
0.0
 11
4100.676484663528754
 21
146.5817545742681034
 31
0.0
  0
ARC
  5
6A42
  8
0
 10
4100.4434971977616442
 20
146.3415823714423141
 30
0.0
 40
0.0500001723331234
 50
91.8873806888074967
 51
179.9999201003838891
  0
LINE
  5
6A43
  8
0
 10
4100.3934970254304062
 20
146.3415824411681001
 30
0.0
 11
4100.3934930532286671
 21
146.3264913145681021
 31
0.0
  0
ARC
  5
6A44
  8
0
 10
4100.3684745582449978
 20
146.3225163038270864
 30
0.0
 40
0.0253323074688194
 50
273.8600759343884192
 51
9.0278579231979741
  0
ARC
  5
6A45
  8
0
 10
4100.393430609621646
 20
146.1948684411838997
 30
0.0
 40
0.104980140699521
 50
102.7957945128619031
 51
255.0399973380285132
  0
ARC
  5
6A46
  8
0
 10
4100.350765704602054
 20
146.0354818174185993
 30
0.0
 40
0.0600180397142631
 50
18.6801359524798904
 51
74.9693321507665473
  0
ARC
  5
6A47
  8
0
 10
4100.155758844392949
 20
145.9611985322329986
 30
0.0
 40
0.2686605395427942
 50
304.8215859753906898
 51
20.3678261419795987
  0
ARC
  5
6A48
  8
0
 10
4100.1295903912341601
 20
146.0001659393930993
 30
0.0
 40
0.3155939362861535
 50
278.6026824734909724
 51
304.6820281681480083
  0
ARC
  5
6A49
  8
0
 10
4100.1799593956957324
 20
145.6598060982404945
 30
0.0
 40
0.0284925241449818
 50
96.3715021432644647
 51
182.63622252584031
  0
LINE
  5
6A4A
  8
0
 10
4100.1514970254293075
 20
145.6584955979681126
 30
0.0
 11
4100.1514970254293075
 21
145.6145151244681131
 31
0.0
  0
ARC
  5
6A4B
  8
0
 10
4100.1801950975877844
 20
145.6132322633237948
 30
0.0
 40
0.0287267310773942
 50
177.4404681883169985
 51
272.6300219858907781
  0
ARC
  5
6A4C
  8
0
 10
4100.2082997537936535
 20
147.9584238029987944
 30
0.0
 40
0.118974513066125
 50
254.8194511164707023
 51
264.9521119507168123
  0
ARC
  5
6A4D
  8
0
 10
4100.8112451852975937
 20
147.701114590940989
 30
0.0
 40
0.060316471807816
 50
179.3647954039691115
 51
269.5561847459604792
  0
ARC
  5
6A4E
  8
0
 10
4112.1556815421299689
 20
147.923413432243791
 30
0.0
 40
11.4069024044114506
 50
178.9916636477991858
 51
181.1132971531540079
  0
ARC
  5
6A4F
  8
0
 10
4100.6574809455323702
 20
148.1358977468401008
 30
0.0
 40
0.0938030529850979
 50
352.8059319702563243
 51
47.9994244973956299
  0
ARC
  5
6A50
  8
0
 10
4100.6300871697922048
 20
148.0420741573159091
 30
0.0
 40
0.1867398858722034
 50
61.1305307954039634
 51
87.4657930522451181
  0
ARC
  5
6A51
  8
0
 10
4100.520820978635129
 20
146.714690677316014
 30
0.0
 40
1.518495378785188
 50
85.5611881735509456
 51
96.9537660405904234
  0
ARC
  5
6A52
  8
0
 10
4100.4362299564490968
 20
147.0670359160733085
 30
0.0
 40
1.159236951644153
 50
94.911524013298731
 51
116.7853773265176045
  0
ARC
  5
6A53
  8
0
 10
4100.014686282216644
 20
147.8830042611373017
 30
0.0
 40
0.2410061310664346
 50
114.7412506487719952
 51
175.8033022600224058
  0
ARC
  5
6A54
  8
0
 10
4099.966736129855235
 20
147.8902762226651078
 30
0.0
 40
0.1926887486587731
 50
176.9165156470535862
 51
258.0702324929551992
  0
ARC
  5
6A55
  8
0
 10
4099.9404080192198307
 20
147.8714709912613046
 30
0.0
 40
0.1702580769164153
 50
265.4511279234317271
 51
331.0061262715622092
  0
ARC
  5
6A56
  8
0
 10
4099.6466749819319375
 20
148.0187093765009081
 30
0.0
 40
0.498732064781385
 50
332.5677971611714838
 51
339.8641656082792224
  0
ARC
  5
6A57
  8
0
 10
4100.2044452047675804
 20
147.8066030260818025
 30
0.0
 40
0.0982229617375882
 50
92.5602216170800318
 51
155.7005168061670872
  0
ARC
  5
6A58
  8
0
 10
4100.310583661358578
 20
146.5261406508070081
 30
0.0
 40
1.383010816338808
 50
84.5877791947057176
 51
94.5837893318335432
  0
ARC
  5
6A59
  8
0
 10
4100.5283566213056474
 20
149.2797495960631977
 30
0.0
 40
1.3795304983976879
 50
266.3706596191245808
 51
276.3732935429949862
  0
LINE
  5
6A5A
  8
0
 10
4100.2164970255016669
 20
147.8361837140681132
 30
0.0
 11
4100.7491126697641448
 21
147.8361837140681132
 31
0.0
  0
ARC
  5
6A5B
  8
0
 10
4100.6943815375989288
 20
147.7987243000526121
 30
0.0
 40
0.1107730386867146
 50
73.3250198093526819
 51
96.6818677165186386
  0
ARC
  5
6A5C
  8
0
 10
4100.6906778881739228
 20
147.8695429613123054
 30
0.0
 40
0.0500529159901322
 50
10.4855853140260802
 51
44.843800194297458
  0
LINE
  5
6A5D
  8
0
 10
4100.739894956702301
 20
147.8786519988348971
 30
0.0
 11
4100.7490877236468805
 21
147.8404886331717023
 31
0.0
  0
ARC
  5
6A5E
  8
0
 10
4100.596299451842242
 20
147.2997981315074867
 30
0.0
 40
0.0598787031633924
 50
138.6627912869946897
 51
243.6025417101465109
  0
ARC
  5
6A5F
  8
0
 10
4100.6507951577532367
 20
146.5780187403593118
 30
0.0
 40
0.0259597219174015
 50
269.9253623253790124
 51
8.2740986238800058
  0
ARC
  5
6A60
  8
0
 10
4100.7421344523490916
 20
145.8686135971807971
 30
0.0
 40
0.6895264458141587
 50
97.6149919673647304
 51
111.013961005767996
  0
ARC
  5
6A61
  8
0
 10
4100.5070463982583533
 20
146.4850155806969951
 30
0.0
 40
0.029860103919016
 50
114.0583477394104932
 51
180.0791481872954876
  0
LINE
  5
6A62
  8
0
 10
4100.4771863228288566
 20
146.4849743320681057
 30
0.0
 11
4100.4771863078303795
 21
146.4216737584681027
 31
0.0
  0
ARC
  5
6A63
  8
0
 10
4100.4468534457982969
 20
146.4218175991134103
 30
0.0
 40
0.0303332030812461
 50
273.822757188109108
 51
359.7283012689917996
  0
ARC
  5
6A64
  8
0
 10
4100.3694920688321872
 20
145.5651904424854877
 30
0.0
 40
0.0295077509441248
 50
139.0346664897980133
 51
166.2173969840054895
  0
LINE
  5
6A65
  8
0
 10
4100.3408339445286401
 20
145.572220327068095
 30
0.0
 11
4100.3323479164109813
 21
145.5376260679726954
 31
0.0
  0
ARC
  5
6A66
  8
0
 10
4100.303427101734087
 20
145.5447203909320137
 30
0.0
 40
0.0297782292918661
 50
269.3200737699417004
 51
346.2173969840055747
  0
ARC
  5
6A67
  8
0
 10
4100.2014970254285799
 20
144.9780336454230962
 30
0.0
 40
0.5369106129450393
 50
90.0
 51
110.5336501482435949
  0
ARC
  5
6A68
  8
0
 10
4100.1207233402310521
 20
145.1936864890897994
 30
0.0
 40
0.3066270112668834
 50
110.5336501482435949
 51
156.8890278691945923
  0
ARC
  5
6A69
  8
0
 10
4100.2474854730044171
 20
145.1395907746569947
 30
0.0
 40
0.4444493049033064
 50
156.8892188632119087
 51
172.8455782389843876
  0
ARC
  5
6A6A
  8
0
 10
4100.7305021875190505
 20
148.57103023984331
 30
0.0
 40
0.2015302475595199
 50
113.8696129891929019
 51
144.4755504385952065
  0
ARC
  5
6A6B
  8
0
 10
4100.8147564911269001
 20
148.3806270359208952
 30
0.0
 40
0.4097420813738026
 50
99.3375469827343238
 51
113.8696129891929019
  0
ARC
  5
6A6C
  8
0
 10
4100.8832658209212241
 20
147.9639777335258088
 30
0.0
 40
0.8319862873201824
 50
92.984478339130888
 51
99.3375469827343238
  0
ARC
  5
6A6D
  8
0
 10
4100.9283118116863989
 20
147.0141515922036035
 30
0.0
 40
1.782875094344855
 50
90.0583201531463544
 51
92.840884694333397
  0
LINE
  5
6A6E
  8
0
 10
4101.202815144329179
 20
147.1018816146680876
 30
0.0
 11
4100.6501789785288565
 21
147.1018816146680876
 31
0.0
  0
ARC
  5
6A6F
  8
0
 10
4101.0357584930488883
 20
145.4035757475184027
 30
0.0
 40
1.1209279608389591
 50
81.8357623421717904
 51
98.1642498812329336
  0
ARC
  5
6A70
  8
0
 10
4100.7320118404668392
 20
145.5976576692588083
 30
0.0
 40
0.9268289336807407
 50
81.0266499817153232
 51
98.9733516986918005
  0
ARC
  5
6A71
  8
0
 10
4100.5426747524261373
 20
146.4305272990785056
 30
0.0
 40
0.0939689633053828
 50
61.5438654226715016
 51
101.9782622433796035
  0
ARC
  5
6A72
  8
0
 10
4101.0671627830579382
 20
146.4908475620356967
 30
0.0
 40
0.1297104766539995
 50
357.4047864745335232
 51
9.8975815254095725
  0
LINE
  5
6A73
  8
0
 10
4101.1967402229292929
 20
146.4849743320681057
 30
0.0
 11
4101.1967397405142037
 21
146.4217591322845919
 31
0.0
  0
ARC
  5
6A74
  8
0
 10
4101.2392847017536042
 20
146.4163559778488946
 30
0.0
 40
0.0428866856333391
 50
172.7622566948822964
 51
215.5001960174566875
  0
LINE
  5
6A75
  8
0
 10
4100.8765740248536531
 20
146.5131431400079975
 30
0.0
 11
4100.8772895827287357
 21
146.3912869466608981
 31
0.0
  0
ARC
  5
6A76
  8
0
 10
4100.5978414559403973
 20
146.4837448882244075
 30
0.0
 40
0.0311809007485525
 50
109.4678071292512982
 51
177.740276679275695
  0
LINE
  5
6A77
  8
0
 10
4100.5666848027285596
 20
146.4849743320681057
 30
0.0
 11
4100.5666845797286442
 21
146.4217472929680923
 31
0.0
  0
ARC
  5
6A78
  8
0
 10
4100.5357342314737252
 20
146.4219096228083004
 30
0.0
 40
0.0309507739498345
 50
275.7900275832033117
 51
359.6994951602021047
  0
LINE
  5
6A79
  8
0
 10
4101.1765094593292815
 20
146.5817545742681034
 30
0.0
 11
4100.6764846652313281
 21
146.5817837432036868
 31
0.0
  0
ARC
  5
6A7A
  8
0
 10
4085.4752171948780415
 20
146.1948593405026884
 30
0.0
 40
0.1050028234908213
 50
285.0100107154917737
 51
77.1541974328135325
  0
ARC
  5
6A7B
  8
0
 10
4085.3603491715462042
 20
147.3780292258570057
 30
0.0
 40
0.0578042319682059
 50
177.725968850566403
 51
222.0141158971181881
  0
ARC
  5
6A7C
  8
0
 10
4085.3233657151718035
 20
148.6994876358805016
 30
0.0
 40
0.023972278680816
 50
208.3014309643027957
 51
263.4182430470465874
  0
ARC
  5
6A7D
  8
0
 10
4085.2687095900391796
 20
148.4660168217471039
 30
0.0
 40
0.2159869034824611
 50
22.5025794315615109
 51
76.0939082882027407
  0
ARC
  5
6A7E
  8
0
 10
4085.4426866595699721
 20
148.537221518298594
 30
0.0
 40
0.0286638857939981
 50
281.3917688893623108
 51
357.9339272986305787
  0
ARC
  5
6A7F
  8
0
 10
4085.4301930339361206
 20
148.5326705856712124
 30
0.0
 40
0.0412889858866701
 50
4.8871383600991916
 51
22.8146073539753509
  0
ARC
  5
6A80
  8
0
 10
4085.4345842432057907
 20
148.33193996645889
 30
0.0
 40
0.1772615315396778
 50
91.7286118101156376
 51
119.0706469141490942
  0
ARC
  5
6A81
  8
0
 10
4085.3733376156719714
 20
148.4393244313515083
 30
0.0
 40
0.0536633305522446
 50
117.6247706597750948
 51
183.7603771857230868
  0
ARC
  5
6A82
  8
0
 10
4085.3512764649572091
 20
148.4333506656286943
 30
0.0
 40
0.0315821555562823
 50
175.5429272822497921
 51
255.1321981550773046
  0
ARC
  5
6A83
  8
0
 10
4085.3195078061471577
 20
148.313969683761087
 30
0.0
 40
0.0919535399116491
 50
359.8951856675907948
 51
75.0866345309799641
  0
ARC
  5
6A84
  8
0
 10
4085.357982844981052
 20
146.3449384855366873
 30
0.0
 40
1.969589139392353
 50
67.5383292593255931
 51
88.4441119496141113
  0
ARC
  5
6A85
  8
0
 10
4086.0021708250269512
 20
147.8836407645443103
 30
0.0
 40
0.3015897180386778
 50
0.400132409818242
 51
68.9504220379406405
  0
ARC
  5
6A86
  8
0
 10
4086.0572149750391873
 20
147.8870662126367108
 30
0.0
 40
0.2465417434565035
 50
272.864367088666711
 51
359.6934018613681019
  0
LINE
  5
6A87
  8
0
 10
4086.0695351134709199
 20
147.640832491437493
 30
0.0
 11
4085.9464557505789344
 21
147.6408324914376067
 31
0.0
  0
ARC
  5
6A88
  8
0
 10
4085.9624210418792245
 20
147.886464938922586
 30
0.0
 40
0.2461507460557876
 50
198.5734891673371862
 51
266.2811959796521251
  0
ARC
  5
6A89
  8
0
 10
4085.6864173563280929
 20
147.8006735831887966
 30
0.0
 40
0.0432296668775165
 50
9.8954662035992413
 51
83.0716559846444937
  0
LINE
  5
6A8A
  8
0
 10
4085.6709108059790196
 20
147.8399034140848869
 30
0.0
 11
4085.65224516485614
 21
147.8361763961680992
 31
0.0
  0
ARC
  5
6A8B
  8
0
 10
4085.6026729313712167
 20
147.8507757056673029
 30
0.0
 40
0.0299999996907791
 50
283.6788708944339987
 51
330.8436631023247969
  0
ARC
  5
6A8C
  8
0
 10
4085.6765445701848876
 20
147.4646104361409868
 30
0.0
 40
0.3632075874251647
 50
100.5943375189035009
 51
149.8074390022487989
  0
ARC
  5
6A8D
  8
0
 10
4085.8835522925360237
 20
147.3899230744401905
 30
0.0
 40
0.5810411463659979
 50
153.7104850978961963
 51
180.9467113353657055
  0
ARC
  5
6A8E
  8
0
 10
4085.3068639211019217
 20
147.2231300171440864
 30
0.0
 40
0.0243106284866596
 50
108.7126420450918971
 51
182.8004805893135085
  0
LINE
  5
6A8F
  8
0
 10
4085.2825823261291589
 20
147.221942244868103
 30
0.0
 11
4085.2745584315289307
 21
147.1302422266680878
 31
0.0
  0
ARC
  5
6A90
  8
0
 10
4085.2485103679300664
 20
147.128812725492395
 30
0.0
 40
0.0260872591684042
 50
263.858795031808711
 51
3.1412049920463372
  0
ARC
  5
6A91
  8
0
 10
4085.3616076276907734
 20
143.5896246846720032
 30
0.0
 40
3.5151613110324038
 50
91.8892730931590478
 51
92.3322130277501572
  0
ARC
  5
6A92
  8
0
 10
4085.218708436255838
 20
147.0752062181045119
 30
0.0
 40
0.0266684740798022
 50
90.3120083963297446
 51
186.8247131179381029
  0
LINE
  5
6A93
  8
0
 10
4085.1922289257790908
 20
147.0720371433681066
 30
0.0
 11
4085.1922575268299624
 21
146.5817472563680894
 31
0.0
  0
ARC
  5
6A94
  8
0
 10
4085.4252449925961628
 20
146.3415750535423001
 30
0.0
 40
0.0500001723331234
 50
0.0000798996161075
 51
88.1126193111924891
  0
LINE
  5
6A95
  8
0
 10
4085.4752451649292198
 20
146.3415751232680861
 30
0.0
 11
4085.4752491371291399
 21
146.3264839966680881
 31
0.0
  0
ARC
  5
6A96
  8
0
 10
4085.5002676321141735
 20
146.3225089859271009
 30
0.0
 40
0.0253323074688194
 50
170.9721420768003952
 51
266.1399240656115808
  0
ARC
  5
6A97
  8
0
 10
4085.475311580736161
 20
146.1948611232839141
 30
0.0
 40
0.104980140699521
 50
284.9600026619714868
 51
77.2042054871380827
  0
ARC
  5
6A98
  8
0
 10
4085.5179764857571172
 20
146.0354744995186138
 30
0.0
 40
0.0600180397142631
 50
105.0306678492333958
 51
161.3198640475200989
  0
ARC
  5
6A99
  8
0
 10
4085.712983345964858
 20
145.961191214333013
 30
0.0
 40
0.2686605395427942
 50
159.6321738580203942
 51
235.1784140246093102
  0
ARC
  5
6A9A
  8
0
 10
4085.7391517991241017
 20
146.0001586214931137
 30
0.0
 40
0.3155939362861535
 50
235.3179718318519917
 51
261.3973175265090276
  0
ARC
  5
6A9B
  8
0
 10
4085.6887827946629841
 20
145.6597987803403953
 30
0.0
 40
0.0284925241449818
 50
357.3637774741595763
 51
83.6284978567355495
  0
LINE
  5
6A9C
  8
0
 10
4085.7172451649289542
 20
145.6584882800680987
 30
0.0
 11
4085.7172451649289542
 21
145.6145078065680991
 31
0.0
  0
ARC
  5
6A9D
  8
0
 10
4085.6885470927700226
 20
145.6132249454238092
 30
0.0
 40
0.0287267310773942
 50
267.3699780141092219
 51
2.5595318116829691
  0
ARC
  5
6A9E
  8
0
 10
4085.6604424365659725
 20
147.9584164850988088
 30
0.0
 40
0.118974513066125
 50
275.0478880492831877
 51
285.180548883529184
  0
LINE
  5
6A9F
  8
0
 10
4084.3859279987459558
 20
146.297234146568087
 30
0.0
 11
4085.4985622591129868
 21
146.297234146568087
 31
0.0
  0
LINE
  5
6AA0
  8
0
 10
4084.457598507079183
 20
146.3915481004860055
 30
0.0
 11
4085.4268917507788501
 21
146.3915481004860055
 31
0.0
  0
ARC
  5
6AA1
  8
0
 10
4085.0574970050611228
 20
147.7011072730410035
 30
0.0
 40
0.060316471807816
 50
270.4438152540395208
 51
0.6352045960308497
  0
ARC
  5
6AA2
  8
0
 10
4073.7130606482278381
 20
147.9234061143438055
 30
0.0
 40
11.4069024044114506
 50
358.8867028468444005
 51
1.0083363522007751
  0
ARC
  5
6AA3
  8
0
 10
4085.2112612448258915
 20
148.1358904289400868
 30
0.0
 40
0.0938030529850979
 50
132.0005755026043062
 51
187.1940680297435904
  0
ARC
  5
6AA4
  8
0
 10
4085.2386550205669664
 20
148.0420668394158952
 30
0.0
 40
0.1867398858722034
 50
92.5342069477548819
 51
118.8694692045960011
  0
ARC
  5
6AA5
  8
0
 10
4085.3479212117240422
 20
146.714683359416
 30
0.0
 40
1.518495378785188
 50
83.0462339594095909
 51
94.4388118264490402
  0
ARC
  5
6AA6
  8
0
 10
4085.4325122339100744
 20
147.0670285981732945
 30
0.0
 40
1.159236951644153
 50
63.2146226734824168
 51
85.088475986701269
  0
ARC
  5
6AA7
  8
0
 10
4085.8540559081411629
 20
147.8829969432372877
 30
0.0
 40
0.2410061310664346
 50
4.1966977399776217
 51
65.258749351227948
  0
ARC
  5
6AA8
  8
0
 10
4085.9020060605039362
 20
147.8902689047650938
 30
0.0
 40
0.1926887486587731
 50
281.9297675070448008
 51
3.0834843529463889
  0
ARC
  5
6AA9
  8
0
 10
4085.9283341711388857
 20
147.8714636733612906
 30
0.0
 40
0.1702580769164153
 50
208.9938737284377908
 51
274.5488720765682729
  0
ARC
  5
6AAA
  8
0
 10
4086.2220672084258695
 20
148.0187020586008941
 30
0.0
 40
0.498732064781385
 50
200.1358343917206923
 51
207.4322028388284878
  0
ARC
  5
6AAB
  8
0
 10
4085.6642969855902265
 20
147.8065957081817885
 30
0.0
 40
0.0982229617375882
 50
24.2994831938328595
 51
87.439778382919954
  0
ARC
  5
6AAC
  8
0
 10
4085.5581585289987743
 20
146.5261333329069942
 30
0.0
 40
1.383010816338808
 50
85.416210668166471
 51
95.4122208052942682
  0
ARC
  5
6AAD
  8
0
 10
4085.340385569053069
 20
149.2797422781632122
 30
0.0
 40
1.3795304983976879
 50
263.6267064570050138
 51
273.6293403808754192
  0
LINE
  5
6AAE
  8
0
 10
4085.65224516485614
 20
147.8361763961680992
 30
0.0
 11
4085.1196295205941169
 21
147.8361763961680992
 31
0.0
  0
LINE
  5
6AAF
  8
0
 10
4084.8265260438201949
 20
147.6407926107513902
 30
0.0
 11
4085.0579642140378382
 21
147.6407926107513902
 31
0.0
  0
LINE
  5
6AB0
  8
0
 10
4084.4361420075288152
 20
148.5091223236682083
 30
0.0
 11
4085.4483482503301275
 21
148.5091223236682083
 31
0.0
  0
LINE
  5
6AB1
  8
0
 10
4084.5469713148791016
 20
148.4036712301349041
 30
0.0
 11
4085.3431728049590674
 21
148.4028258671899039
 31
0.0
  0
ARC
  5
6AB2
  8
0
 10
4085.1743606527588781
 20
147.7987169821525129
 30
0.0
 40
0.1107730386867146
 50
83.3181322834813756
 51
106.6749801906473039
  0
ARC
  5
6AB3
  8
0
 10
4085.1780643021861579
 20
147.8695356434124051
 30
0.0
 40
0.0500529159901322
 50
135.1561998057024994
 51
169.5144146859738896
  0
LINE
  5
6AB4
  8
0
 10
4085.1288472336568702
 20
147.8786446809349115
 30
0.0
 11
4085.119654466711836
 21
147.8404813152716883
 31
0.0
  0
ARC
  5
6AB5
  8
0
 10
4085.2724427385160197
 20
147.2997908136075011
 30
0.0
 40
0.0598787031633924
 50
296.3974582898534891
 51
41.3372087130052819
  0
LINE
  5
6AB6
  8
0
 10
4084.5818997964020127
 20
147.3803228348681102
 30
0.0
 11
4085.3025904614569299
 21
147.3803228348681102
 31
0.0
  0
LINE
  5
6AB7
  8
0
 10
4084.6019079317288742
 20
147.2219422448681883
 30
0.0
 11
4085.2825823261291589
 21
147.221942244868103
 31
0.0
  0
LINE
  5
6AB8
  8
0
 10
4085.6872289258799356
 20
145.584528473268108
 30
0.0
 11
4084.197261332079961
 21
145.584528473268108
 31
0.0
  0
LINE
  5
6AB9
  8
0
 10
4084.1925455156788303
 20
145.6881153129681934
 30
0.0
 11
4085.6919447421792029
 21
145.6881153129681081
 31
0.0
  0
LINE
  5
6ABA
  8
0
 10
4084.4233701440148252
 20
146.0546973521682048
 30
0.0
 11
4085.4611201138432079
 21
146.0546973521682048
 31
0.0
  0
LINE
  5
6ABB
  8
0
 10
4084.5638722657299695
 20
148.675673351024102
 30
0.0
 11
4085.3206179921280636
 21
148.675673351024102
 31
0.0
  0
LINE
  5
6ABC
  8
0
 10
4084.473078182829795
 20
148.3138014681680943
 30
0.0
 11
4085.4114611921959295
 21
148.3138014681680943
 31
0.0
  0
ARC
  5
6ABD
  8
0
 10
4085.2179470326059345
 20
146.5780114224592978
 30
0.0
 40
0.0259597219174015
 50
171.7259013761199924
 51
270.0746376746209876
  0
ARC
  5
6ABE
  8
0
 10
4085.1266077380100796
 20
145.8686062792808116
 30
0.0
 40
0.6895264458141587
 50
68.9860389942319614
 51
82.3850080326352554
  0
ARC
  5
6ABF
  8
0
 10
4085.3616957921008179
 20
146.4850082627970096
 30
0.0
 40
0.029860103919016
 50
359.920851812704484
 51
65.9416522605894357
  0
LINE
  5
6AC0
  8
0
 10
4085.3915558675298598
 20
146.4849670141680917
 30
0.0
 11
4085.3915558825287917
 21
146.4216664405680888
 31
0.0
  0
ARC
  5
6AC1
  8
0
 10
4085.4218887445608743
 20
146.4218102812133964
 30
0.0
 40
0.0303332030812461
 50
180.2716987310080867
 51
266.177242811890892
  0
ARC
  5
6AC2
  8
0
 10
4085.499250121526984
 20
145.5651831245855021
 30
0.0
 40
0.0295077509441248
 50
13.7826030159944199
 51
40.9653335102056317
  0
LINE
  5
6AC3
  8
0
 10
4085.5279082458291668
 20
145.5722130091681095
 30
0.0
 11
4085.5363942739468257
 21
145.5376187500727099
 31
0.0
  0
ARC
  5
6AC4
  8
0
 10
4085.5653150886241747
 20
145.5447130730319998
 30
0.0
 40
0.0297782292918661
 50
193.7826030159943969
 51
270.6799262300584132
  0
LINE
  5
6AC5
  8
0
 10
4084.2172450929288061
 20
145.5149369404680897
 30
0.0
 11
4085.6672451649301365
 21
145.5149369404680897
 31
0.0
  0
ARC
  5
6AC6
  8
0
 10
4085.6672451649301365
 20
144.9780263275231107
 30
0.0
 40
0.5369106129450393
 50
69.4663498517563767
 51
90.0
  0
ARC
  5
6AC7
  8
0
 10
4085.7480188501272096
 20
145.1936791711898138
 30
0.0
 40
0.3066270112668834
 50
23.1109721308053793
 51
69.4663498517563767
  0
ARC
  5
6AC8
  8
0
 10
4085.6212567173552088
 20
145.1395834567570091
 30
0.0
 40
0.4444493049033064
 50
7.1544217610156151
 51
23.1107811367880807
  0
LINE
  5
6AC9
  8
0
 10
4086.0622455794259622
 20
145.1949369404680965
 30
0.0
 11
4083.8222446784329804
 21
145.1949369404680965
 31
0.0
  0
ARC
  5
6ACA
  8
0
 10
4085.1382400028401207
 20
148.5710229219432961
 30
0.0
 40
0.2015302475595199
 50
35.5244495614048503
 51
66.1303870108070981
  0
ARC
  5
6ACB
  8
0
 10
4085.0539856992318164
 20
148.3806197180209097
 30
0.0
 40
0.4097420813738026
 50
66.1303870108070981
 51
80.6624530172657188
  0
ARC
  5
6ACC
  8
0
 10
4084.9854763694370376
 20
147.9639704156259086
 30
0.0
 40
0.8319862873201824
 50
80.6624530172657188
 51
87.0155216608690978
  0
ARC
  5
6ACD
  8
0
 10
4084.9404303786718629
 20
147.0141442743035896
 30
0.0
 40
1.7828750943448171
 50
87.1591153056665888
 51
89.9416798468536314
  0
ARC
  5
6ACE
  8
0
 10
4085.29081632223415
 20
146.2354819912303014
 30
0.0
 40
0.2889840294030612
 50
73.2979630411710019
 51
106.0971159935956933
  0
ARC
  5
6ACF
  8
0
 10
4084.4092730629799917
 20
146.1948593405026884
 30
0.0
 40
0.1050028234908213
 50
102.8458025671864959
 51
254.9899892845081126
  0
ARC
  5
6AD0
  8
0
 10
4084.5241410863131932
 20
147.3780292258570057
 30
0.0
 40
0.0578042319682059
 50
317.9858841028818119
 51
2.2740311494335468
  0
ARC
  5
6AD1
  8
0
 10
4084.5611245426871392
 20
148.6994876358805016
 30
0.0
 40
0.023972278680816
 50
276.5817569529532989
 51
331.698569035697119
  0
ARC
  5
6AD2
  8
0
 10
4084.6157806678202178
 20
148.4660168217471039
 30
0.0
 40
0.2159869034824611
 50
103.9060917117972025
 51
157.497420568438514
  0
ARC
  5
6AD3
  8
0
 10
4084.4418035982889705
 20
148.537221518298594
 30
0.0
 40
0.0286638857939981
 50
182.0660727013693077
 51
258.6082311106376892
  0
ARC
  5
6AD4
  8
0
 10
4084.454297223922822
 20
148.5326705856712124
 30
0.0
 40
0.0412889858866701
 50
157.18539264602461
 51
175.1128616399008138
  0
ARC
  5
6AD5
  8
0
 10
4084.4499060146531519
 20
148.33193996645889
 30
0.0
 40
0.1772615315396778
 50
60.9293530858508916
 51
88.2713881898843482
  0
ARC
  5
6AD6
  8
0
 10
4084.5111526421869712
 20
148.4393244313515083
 30
0.0
 40
0.0536633305522446
 50
356.2396228142769132
 51
62.3752293402248412
  0
ARC
  5
6AD7
  8
0
 10
4084.5332137929021883
 20
148.4333506656286943
 30
0.0
 40
0.0315821555562823
 50
284.8678018449227238
 51
4.4570727177502141
  0
ARC
  5
6AD8
  8
0
 10
4084.5649134586287801
 20
148.3140732881794861
 30
0.0
 40
0.0918356780744095
 50
104.8884061448679006
 51
180.1695872750603939
  0
ARC
  5
6AD9
  8
0
 10
4084.4904399559859485
 20
146.514489028519904
 30
0.0
 40
1.7993962005739379
 50
90.5528364246885644
 51
113.4630838863829041
  0
ARC
  5
6ADA
  8
0
 10
4083.8823194328310819
 20
147.8836407645443103
 30
0.0
 40
0.3015897180386778
 50
111.0495779620593026
 51
179.5998675901817876
  0
ARC
  5
6ADB
  8
0
 10
4083.8272752828188459
 20
147.8870662126367108
 30
0.0
 40
0.2465417434565035
 50
180.3065981386318981
 51
267.135632911333289
  0
LINE
  5
6ADC
  8
0
 10
4083.8149551443871133
 20
147.640832491437493
 30
0.0
 11
4083.9380345072790988
 21
147.640832491437493
 31
0.0
  0
ARC
  5
6ADD
  8
0
 10
4083.9220692211251844
 20
147.8864649322339062
 30
0.0
 40
0.2461507390473943
 50
273.7188029260482267
 51
341.4265119269620072
  0
ARC
  5
6ADE
  8
0
 10
4084.1980729015290308
 20
147.8006735831887966
 30
0.0
 40
0.0432296668775165
 50
96.9283440153555205
 51
170.1045337964006876
  0
LINE
  5
6ADF
  8
0
 10
4084.2135794518790135
 20
147.8399034140848869
 30
0.0
 11
4084.2322450930018931
 21
147.8361763961680992
 31
0.0
  0
ARC
  5
6AE0
  8
0
 10
4084.2818173264868165
 20
147.8507757056673029
 30
0.0
 40
0.0299999996907791
 50
209.1563368976752031
 51
256.3211291055658876
  0
ARC
  5
6AE1
  8
0
 10
4084.2079456876740551
 20
147.4646104361409868
 30
0.0
 40
0.3632075874251647
 50
30.1925609977511904
 51
79.4056624810964706
  0
ARC
  5
6AE2
  8
0
 10
4084.0009379653229189
 20
147.3899230744401905
 30
0.0
 40
0.5810411463659979
 50
359.0532886646342945
 51
26.2895149021037717
  0
ARC
  5
6AE3
  8
0
 10
4084.5776263367570209
 20
147.2231300171440864
 30
0.0
 40
0.0243106284866596
 50
357.1995194106864915
 51
71.2873579549080461
  0
LINE
  5
6AE4
  8
0
 10
4084.6019079317288742
 20
147.221942244868103
 30
0.0
 11
4084.609931826330012
 21
147.1302422266680878
 31
0.0
  0
ARC
  5
6AE5
  8
0
 10
4084.6359798899288762
 20
147.128812725492395
 30
0.0
 40
0.0260872591684042
 50
176.8587950079536029
 51
276.141204968191289
  0
ARC
  5
6AE6
  8
0
 10
4084.5228826301658955
 20
143.5896246846720032
 30
0.0
 40
3.5151613110324038
 50
87.6677869722498713
 51
88.110726906840938
  0
ARC
  5
6AE7
  8
0
 10
4084.6657818216031046
 20
147.0752062181045119
 30
0.0
 40
0.0266684740798022
 50
353.1752868820619256
 51
89.6879916036702838
  0
LINE
  5
6AE8
  8
0
 10
4084.6922613320789424
 20
147.0720371433681066
 30
0.0
 11
4084.6922327310289802
 21
146.5817472563680894
 31
0.0
  0
ARC
  5
6AE9
  8
0
 10
4084.4592452652627799
 20
146.3415750535423001
 30
0.0
 40
0.0500001723331234
 50
91.8873806888074967
 51
179.9999201003838891
  0
LINE
  5
6AEA
  8
0
 10
4084.4092450929288134
 20
146.3415751232680861
 30
0.0
 11
4084.4092411207288933
 21
146.3264839966680881
 31
0.0
  0
ARC
  5
6AEB
  8
0
 10
4084.3842226257452239
 20
146.3225089859271009
 30
0.0
 40
0.0253323074688194
 50
273.8600759343884192
 51
9.0278579231979741
  0
ARC
  5
6AEC
  8
0
 10
4084.4091786771218722
 20
146.1948611232839141
 30
0.0
 40
0.104980140699521
 50
102.7957945128619031
 51
255.0399973380285132
  0
ARC
  5
6AED
  8
0
 10
4084.3665137721018255
 20
146.0354744995186138
 30
0.0
 40
0.0600180397142631
 50
18.6801359524798904
 51
74.9693321507665473
  0
ARC
  5
6AEE
  8
0
 10
4084.1715069118940846
 20
145.961191214333013
 30
0.0
 40
0.2686605395427942
 50
304.8215859753906898
 51
20.3678261419795987
  0
ARC
  5
6AEF
  8
0
 10
4084.145338458734841
 20
146.0001586214931137
 30
0.0
 40
0.3155939362861535
 50
278.6026824734909724
 51
304.6820281681480083
  0
ARC
  5
6AF0
  8
0
 10
4084.1957074631959586
 20
145.6597987803403953
 30
0.0
 40
0.0284925241449818
 50
96.3715021432644647
 51
182.63622252584031
  0
LINE
  5
6AF1
  8
0
 10
4084.167245092929079
 20
145.6584882800680987
 30
0.0
 11
4084.167245092929079
 21
145.6145078065680991
 31
0.0
  0
ARC
  5
6AF2
  8
0
 10
4084.1959431650889201
 20
145.6132249454238092
 30
0.0
 40
0.0287267310773942
 50
177.4404681883169985
 51
272.6300219858907781
  0
ARC
  5
6AF3
  8
0
 10
4084.2240478212929702
 20
147.9584164850988088
 30
0.0
 40
0.118974513066125
 50
254.8194511164707023
 51
264.9521119507168123
  0
ARC
  5
6AF4
  8
0
 10
4084.8269932527978199
 20
147.7011072730410035
 30
0.0
 40
0.060316471807816
 50
179.3647954039691115
 51
269.5561847459604792
  0
ARC
  5
6AF5
  8
0
 10
4096.1714296096306498
 20
147.9234061143438055
 30
0.0
 40
11.4069024044114506
 50
178.9916636477991858
 51
181.1132971531540079
  0
ARC
  5
6AF6
  8
0
 10
4084.6732290130321417
 20
148.1358904289400868
 30
0.0
 40
0.0938030529850979
 50
352.8059319702563243
 51
47.9994244973956299
  0
ARC
  5
6AF7
  8
0
 10
4084.6458352372910667
 20
148.0420668394158952
 30
0.0
 40
0.1867398858722034
 50
61.1305307954039634
 51
87.4657930522451181
  0
ARC
  5
6AF8
  8
0
 10
4084.5365690461349004
 20
146.714683359416
 30
0.0
 40
1.518495378785188
 50
85.5611881735509456
 51
96.9537660405904234
  0
ARC
  5
6AF9
  8
0
 10
4084.4519780239479587
 20
147.0670285981732945
 30
0.0
 40
1.159236951644153
 50
94.911524013298731
 51
116.7853773265176045
  0
ARC
  5
6AFA
  8
0
 10
4084.0304343497177797
 20
147.8829969432372877
 30
0.0
 40
0.2410061310664346
 50
114.7412506487719952
 51
175.8033022600224058
  0
ARC
  5
6AFB
  8
0
 10
4083.9824841973550065
 20
147.8902689047650938
 30
0.0
 40
0.1926887486587731
 50
176.9165156470535862
 51
258.0702324929551992
  0
ARC
  5
6AFC
  8
0
 10
4083.9561560867200569
 20
147.8714636733612906
 30
0.0
 40
0.1702580769164153
 50
265.4511279234317271
 51
331.0061262715622092
  0
ARC
  5
6AFD
  8
0
 10
4083.6624230494330732
 20
148.0187020586008941
 30
0.0
 40
0.498732064781385
 50
332.5677971611714838
 51
339.8641656082792224
  0
ARC
  5
6AFE
  8
0
 10
4084.2201932722678066
 20
147.8065957081817885
 30
0.0
 40
0.0982229617375882
 50
92.5602216170800318
 51
155.7005168061670872
  0
ARC
  5
6AFF
  8
0
 10
4084.3263317288588041
 20
146.5261333329069942
 30
0.0
 40
1.383010816338808
 50
84.5877791947057176
 51
94.5837893318335432
  0
ARC
  5
6B00
  8
0
 10
4084.5441046888049641
 20
149.2797422781632122
 30
0.0
 40
1.3795304983976879
 50
266.3706596191245808
 51
276.3732935429949862
  0
LINE
  5
6B01
  8
0
 10
4084.2322450930018931
 20
147.8361763961680992
 30
0.0
 11
4084.7648607372648257
 21
147.8361763961680992
 31
0.0
  0
ARC
  5
6B02
  8
0
 10
4084.710129605099155
 20
147.7987169821525129
 30
0.0
 40
0.1107730386867146
 50
73.3250198093526819
 51
96.6818677165186386
  0
ARC
  5
6B03
  8
0
 10
4084.706425955674149
 20
147.8695356434124051
 30
0.0
 40
0.0500529159901322
 50
10.4855853140260802
 51
44.843800194297458
  0
LINE
  5
6B04
  8
0
 10
4084.7556430242020724
 20
147.8786446809349115
 30
0.0
 11
4084.7648357911471066
 21
147.8404813152716883
 31
0.0
  0
ARC
  5
6B05
  8
0
 10
4084.6120475193420134
 20
147.2997908136075011
 30
0.0
 40
0.0598787031633924
 50
138.6627912869946897
 51
243.6025417101465109
  0
ARC
  5
6B06
  8
0
 10
4084.6665432252520986
 20
146.5780114224592978
 30
0.0
 40
0.0259597219174015
 50
269.9253623253790124
 51
8.2740986238800058
  0
ARC
  5
6B07
  8
0
 10
4084.7578825198479535
 20
145.8686062792808116
 30
0.0
 40
0.6895264458141587
 50
97.6149919673647304
 51
111.013961005767996
  0
ARC
  5
6B08
  8
0
 10
4084.5227944657572152
 20
146.4850082627970096
 30
0.0
 40
0.029860103919016
 50
114.0583477394104932
 51
180.0791481872954876
  0
LINE
  5
6B09
  8
0
 10
4084.4929343903290828
 20
146.4849670141680917
 30
0.0
 11
4084.4929343753301509
 21
146.4216664405680888
 31
0.0
  0
ARC
  5
6B0A
  8
0
 10
4084.4626015132971588
 20
146.4218102812133964
 30
0.0
 40
0.0303332030812461
 50
273.822757188109108
 51
359.7283012689917996
  0
ARC
  5
6B0B
  8
0
 10
4084.3852401363319586
 20
145.5651831245855021
 30
0.0
 40
0.0295077509441248
 50
139.0346664897980133
 51
166.2173969840054895
  0
LINE
  5
6B0C
  8
0
 10
4084.3565820120297758
 20
145.5722130091681095
 30
0.0
 11
4084.3480959839098432
 21
145.5376187500727099
 31
0.0
  0
ARC
  5
6B0D
  8
0
 10
4084.3191751692352227
 20
145.5447130730319998
 30
0.0
 40
0.0297782292918661
 50
269.3200737699417004
 51
346.2173969840055747
  0
ARC
  5
6B0E
  8
0
 10
4084.2172450929288061
 20
144.9780263275231107
 30
0.0
 40
0.5369106129450393
 50
90.0
 51
110.5336501482435949
  0
ARC
  5
6B0F
  8
0
 10
4084.1364714077321878
 20
145.1936791711898138
 30
0.0
 40
0.3066270112668834
 50
110.5336501482435949
 51
156.8890278691945923
  0
ARC
  5
6B10
  8
0
 10
4084.2632335405028243
 20
145.1395834567570091
 30
0.0
 40
0.4444493049033064
 50
156.8892188632119087
 51
172.8455782389843876
  0
ARC
  5
6B11
  8
0
 10
4084.7462502550179124
 20
148.5710229219432961
 30
0.0
 40
0.2015302475595199
 50
113.8696129891929019
 51
144.4755504385952065
  0
ARC
  5
6B12
  8
0
 10
4084.8305045586271262
 20
148.3806197180209097
 30
0.0
 40
0.4097420813738026
 50
99.3375469827343238
 51
113.8696129891929019
  0
ARC
  5
6B13
  8
0
 10
4084.899013888421905
 20
147.9639704156259086
 30
0.0
 40
0.8319862873201824
 50
92.984478339130888
 51
99.3375469827343238
  0
ARC
  5
6B14
  8
0
 10
4084.9440598791870798
 20
147.0141442743035896
 30
0.0
 40
1.782875094344855
 50
90.0583201531463544
 51
92.840884694333397
  0
LINE
  5
6B15
  8
0
 10
4085.2185632118289504
 20
147.1018742967681021
 30
0.0
 11
4084.6659270460290827
 21
147.1018742967681021
 31
0.0
  0
ARC
  5
6B16
  8
0
 10
4085.0515065605491145
 20
145.4035684296183035
 30
0.0
 40
1.1209279608389591
 50
81.8357623421717904
 51
98.1642498812329336
  0
ARC
  5
6B17
  8
0
 10
4084.7477599079670654
 20
145.5976503513587943
 30
0.0
 40
0.9268289336807407
 50
81.0266499817153232
 51
98.9733516986918005
  0
ARC
  5
6B18
  8
0
 10
4084.5584228199259087
 20
146.4305199811786053
 30
0.0
 40
0.0939689633053828
 50
61.5438654226715016
 51
101.9782622433796035
  0
ARC
  5
6B19
  8
0
 10
4085.0829108505581644
 20
146.4908402441357111
 30
0.0
 40
0.1297104766539995
 50
357.4047864745335232
 51
9.8975815254095725
  0
LINE
  5
6B1A
  8
0
 10
4085.2124882904290644
 20
146.4849670141680917
 30
0.0
 11
4085.2124878080148846
 21
146.4217518143846064
 31
0.0
  0
ARC
  5
6B1B
  8
0
 10
4085.2550327692538303
 20
146.4163486599487953
 30
0.0
 40
0.0428866856333391
 50
172.7622566948822964
 51
215.5001960174566875
  0
LINE
  5
6B1C
  8
0
 10
4084.8923220923538793
 20
146.513135822108012
 30
0.0
 11
4084.8930376502289619
 21
146.3912796287609126
 31
0.0
  0
ARC
  5
6B1D
  8
0
 10
4084.6135895234401687
 20
146.4837375703243936
 30
0.0
 40
0.0311809007485525
 50
109.4678071292512982
 51
177.740276679275695
  0
LINE
  5
6B1E
  8
0
 10
4084.58243287023015
 20
146.4849670141680917
 30
0.0
 11
4084.5824326472297798
 21
146.4217399750681068
 31
0.0
  0
ARC
  5
6B1F
  8
0
 10
4084.5514822989739514
 20
146.4219023049082011
 30
0.0
 40
0.0309507739498345
 50
275.7900275832033117
 51
359.6994951602021047
  0
LINE
  5
6B20
  8
0
 10
4085.1922575268299624
 20
146.5817472563680894
 30
0.0
 11
4084.6922327327310995
 21
146.5817764253037012
 31
0.0
  0
ENDSEC
  0
EOF
