  0
SECTION
  2
HEADER
  9
$ACADVER
  1
AC1009
  9
$INSBASE
 10
3447.491613992036946
 20
134.7650588753529917
 30
0.0
  9
$EXTMIN
 10
3442.747519503886906
 20
131.8816263659589083
 30
0.0
  9
$EXTMAX
 10
3453.1864935697949477
 20
186.6390746235030065
 30
0.0
  9
$LIMMIN
 10
0.0
 20
0.0
  9
$LIMMAX
 10
11.6929133858000007
 20
8.2677165353999982
  9
$ORTHOMODE
 70
     0
  9
$REGENMODE
 70
     1
  9
$FILLMODE
 70
     1
  9
$QTEXTMODE
 70
     0
  9
$MIRRTEXT
 70
     0
  9
$DRAGMODE
 70
     2
  9
$LTSCALE
 40
0.6431102362
  9
$OSMODE
 70
  3839
  9
$ATTMODE
 70
     1
  9
$TEXTSIZE
 40
0.2
  9
$TRACEWID
 40
0.05
  9
$TEXTSTYLE
  7
STANDARD
  9
$CLAYER
  8
0
  9
$CELTYPE
  6
BYLAYER
  9
$CECOLOR
 62
   256
  9
$DIMSCALE
 40
1.0
  9
$DIMASZ
 40
0.1875
  9
$DIMEXO
 40
0.0625
  9
$DIMDLI
 40
0.4443307087
  9
$DIMRND
 40
0.0
  9
$DIMDLE
 40
0.0
  9
$DIMEXE
 40
0.125
  9
$DIMTP
 40
0.01
  9
$DIMTM
 40
0.01
  9
$DIMTXT
 40
2.0
  9
$DIMCEN
 40
0.1052362205
  9
$DIMTSZ
 40
0.0
  9
$DIMTOL
 70
     1
  9
$DIMLIM
 70
     0
  9
$DIMTIH
 70
     1
  9
$DIMTOH
 70
     1
  9
$DIMSE1
 70
     0
  9
$DIMSE2
 70
     0
  9
$DIMTAD
 70
     0
  9
$DIMZIN
 70
     0
  9
$DIMBLK
  1

  9
$DIMASO
 70
     1
  9
$DIMSHO
 70
     1
  9
$DIMPOST
  1
\X
  9
$DIMAPOST
  1

  9
$DIMALT
 70
     1
  9
$DIMALTD
 70
     2
  9
$DIMALTF
 40
25.3999999999999986
  9
$DIMLFAC
 40
1.0
  9
$DIMTOFL
 70
     0
  9
$DIMTVP
 40
0.0
  9
$DIMTIX
 70
     0
  9
$DIMSOXD
 70
     0
  9
$DIMSAH
 70
     0
  9
$DIMBLK1
  1

  9
$DIMBLK2
  1

  9
$DIMSTYLE
  2
STANDARD
  9
$DIMCLRD
 70
     0
  9
$DIMCLRE
 70
     0
  9
$DIMCLRT
 70
     0
  9
$DIMTFAC
 40
1.0
  9
$DIMGAP
 40
0.09
  9
$LUNITS
 70
     2
  9
$LUPREC
 70
     4
  9
$SKETCHINC
 40
0.1
  9
$FILLETRAD
 40
0.0
  9
$AUNITS
 70
     0
  9
$AUPREC
 70
     0
  9
$MENU
  1
.
  9
$ELEVATION
 40
0.0
  9
$PELEVATION
 40
0.0
  9
$THICKNESS
 40
0.0
  9
$LIMCHECK
 70
     0
  9
$BLIPMODE
 70
     0
  9
$CHAMFERA
 40
0.0
  9
$CHAMFERB
 40
0.0
  9
$SKPOLY
 70
     0
  9
$TDCREATE
 40
2458060.468368056230247
  9
$TDUPDATE
 40
2459159.5349305560812354
  9
$TDINDWG
 40
0.575284838
  9
$TDUSRTIMER
 40
0.575284838
  9
$USRTIMER
 70
     1
  9
$ANGBASE
 50
0.0
  9
$ANGDIR
 70
     0
  9
$PDMODE
 70
     0
  9
$PDSIZE
 40
0.3125
  9
$PLINEWID
 40
0.0
  9
$COORDS
 70
     1
  9
$SPLFRAME
 70
     0
  9
$SPLINETYPE
 70
     6
  9
$SPLINESEGS
 70
     8
  9
$ATTDIA
 70
     1
  9
$ATTREQ
 70
     1
  9
$HANDLING
 70
     1
  9
$HANDSEED
  5
1D030
  9
$SURFTAB1
 70
     6
  9
$SURFTAB2
 70
     6
  9
$SURFTYPE
 70
     6
  9
$SURFU
 70
     6
  9
$SURFV
 70
     6
  9
$UCSNAME
  2

  9
$UCSORG
 10
0.0
 20
0.0
 30
0.0
  9
$UCSXDIR
 10
1.0
 20
0.0
 30
0.0
  9
$UCSYDIR
 10
0.0
 20
1.0
 30
0.0
  9
$PUCSNAME
  2

  9
$PUCSORG
 10
0.0
 20
0.0
 30
0.0
  9
$PUCSXDIR
 10
1.0
 20
0.0
 30
0.0
  9
$PUCSYDIR
 10
0.0
 20
1.0
 30
0.0
  9
$USERI1
 70
     0
  9
$USERI2
 70
     0
  9
$USERI3
 70
     0
  9
$USERI4
 70
     0
  9
$USERI5
 70
     0
  9
$USERR1
 40
0.0
  9
$USERR2
 40
0.0
  9
$USERR3
 40
0.0
  9
$USERR4
 40
0.0
  9
$USERR5
 40
0.0
  9
$WORLDVIEW
 70
     1
  9
$SHADEDGE
 70
     3
  9
$SHADEDIF
 70
    70
  9
$TILEMODE
 70
     1
  9
$MAXACTVP
 70
    64
  9
$PLIMCHECK
 70
     0
  9
$PEXTMIN
 10
1.0000000000000000E+20
 20
1.0000000000000000E+20
 30
1.0000000000000000E+20
  9
$PEXTMAX
 10
-1.0000000000000000E+20
 20
-1.0000000000000000E+20
 30
-1.0000000000000000E+20
  9
$PLIMMIN
 10
0.0
 20
0.0
  9
$PLIMMAX
 10
12.0
 20
9.0
  9
$UNITMODE
 70
     0
  9
$VISRETAIN
 70
     1
  9
$PLINEGEN
 70
     0
  9
$PSLTSCALE
 70
     1
  0
ENDSEC
  0
SECTION
  2
TABLES
  0
TABLE
  2
VPORT
 70
     1
  0
VPORT
  2
*ACTIVE
 70
     0
 10
0.0
 20
0.0
 11
1.0
 21
1.0
 12
0.0
 22
0.0
 13
0.0
 23
0.0
 14
1.0
 24
1.0
 15
0.0
 25
0.0
 16
0.0
 26
0.0
 36
219.0951969426016888
 17
3447.967041015625
 27
159.2603454589842897
 37
0.0
 40
55.7436087018826996
 41
3.1182994454713491
 42
50.0
 43
0.0
 44
0.0
 50
0.0
 51
0.0
 71
     0
 72
   100
 73
     1
 74
     1
 75
     0
 76
     0
 77
     0
 78
     0
  0
ENDTAB
  0
TABLE
  2
LTYPE
 70
     2
  0
LTYPE
  2
CONTINUOUS
 70
     0
  3
Solid line
 72
    65
 73
     0
 40
0.0
  0
LTYPE
  2
PHANTOM2
 70
     0
  3
___ _ _ ___ _ _ ___ _ _ ___ _ _
 72
    65
 73
     6
 40
1.25
 49
0.625
 49
-0.125
 49
0.125
 49
-0.125
 49
0.125
 49
-0.125
  0
ENDTAB
  0
TABLE
  2
LAYER
 70
     2
  0
LAYER
  2
0
 70
     0
 62
   255
  6
CONTINUOUS
  0
LAYER
  2
DEFPOINTS
 70
     0
 62
     7
  6
CONTINUOUS
  0
ENDTAB
  0
TABLE
  2
STYLE
 70
     1
  0
STYLE
  2
STANDARD
 70
     0
 40
0.0
 41
0.8
 50
0.0
 71
     0
 42
0.2
  3
txt
  4

  0
ENDTAB
  0
TABLE
  2
VIEW
 70
     0
  0
ENDTAB
  0
TABLE
  2
UCS
 70
     0
  0
ENDTAB
  0
TABLE
  2
APPID
 70
     9
  0
APPID
  2
ACAD
 70
     0
  0
APPID
  2
ACAD_MLEADERVER
 70
     0
  0
APPID
  2
ACAD_EXEMPT_FROM_CAD_STANDARDS
 70
     0
  0
APPID
  2
ACAD_NAV_VCDISPLAY
 70
     0
  0
APPID
  2
ACAECLAYERSTANDARD
 70
     0
  0
APPID
  2
ACCMTRANSPARENCY
 70
     0
  0
APPID
  2
ACAD_DSTYLE_DIMJAG
 70
     0
  0
APPID
  2
ACAD_DSTYLE_DIMTALN
 70
     0
  0
APPID
  2
ACDBATTR
 70
     0
  0
ENDTAB
  0
TABLE
  2
DIMSTYLE
 70
     1
  0
DIMSTYLE
  2
STANDARD
 70
     0
  3

  4

  5

  6

  7

 40
1.0
 41
0.1875
 42
0.0625
 43
0.38
 44
0.125
 45
0.0
 46
0.0
 47
0.01
 48
0.01
140
0.15625
141
0.09
142
0.0
143
25.3999999999999986
144
1.0
145
0.0
146
1.0
147
0.09
 71
     1
 72
     0
 73
     1
 74
     1
 75
     0
 76
     0
 77
     0
 78
     4
170
     0
171
     2
172
     0
173
     0
174
     0
175
     0
176
     0
177
     0
178
     0
  0
ENDTAB
  0
ENDSEC
  0
SECTION
  2
BLOCKS
  0
BLOCK
  8
0
  2
$MODEL_SPACE
 70
     0
 10
0.0
 20
0.0
 30
0.0
  3
$MODEL_SPACE
  1

  0
ENDBLK
  5
21
  8
0
  0
BLOCK
 67
     1
  8
0
  2
$PAPER_SPACE
 70
     0
 10
0.0
 20
0.0
 30
0.0
  3
$PAPER_SPACE
  1

  0
ENDBLK
  5
1D
 67
     1
  8
0
  0
BLOCK
  8
0
  2
_FILLED
 70
     0
 10
0.0
 20
0.0
 30
0.0
  3
_FILLED
  1

  0
SOLID
  5
9E2C
  8
0
  6
BYBLOCK
 62
     0
 10
0.0
 20
0.0
 30
0.0
 11
-1.0
 21
0.1666666667
 31
0.0
 12
-1.0
 22
-0.1666666667
 32
0.0
 13
-1.0
 23
-0.1666666667
 33
0.0
  0
ENDBLK
  5
9E2D
  8
0
  6
BYBLOCK
 62
     0
  0
BLOCK
  8
0
  2
A$C6B0F1CD5
 70
     2
 10
0.0
 20
0.0
 30
0.0
  3
A$C6B0F1CD5
  1

  0
ATTDEF
  5
B779
  8
DEFPOINTS
 10
0.0005209962714616
 20
0.000347009907216
 30
0.0
 40
0.001
  1
BATH FAUCET
  3

  2
PRODUCT
 70
     0
1001
ACDBATTR
1070
     0
1070
     1
  0
ATTDEF
  5
B77A
  8
DEFPOINTS
 10
0.0005209962714616
 20
0.0020136765738812
 30
0.0
 40
0.001
  1
SINGULIER
  3

  2
TRADENAME
 70
     0
1001
ACDBATTR
1070
     0
1070
     1
  0
ATTDEF
  5
B77B
  8
DEFPOINTS
 10
0.0005209962714616
 20
0.0036803432405463
 30
0.0
 40
0.001
  1
K-10873W
  3

  2
MODELNUMBER
 70
     0
1001
ACDBATTR
1070
     0
1070
     1
  0
ENDBLK
  5
B77F
  8
0
  0
BLOCK
  8
0
  2
A$C790C4779
 70
     0
 10
0.0
 20
0.0
 30
0.0
  3
A$C790C4779
  1

  0
LINE
  5
135B8
  8
0
 62
     1
 10
0.0000000000000002
 20
-37.3954278042999988
 30
0.0
 11
0.000000000000002
 21
186.673743319295653
 31
0.0
  0
LINE
  5
135B9
  8
0
 10
-4.232274871249996
 20
-0.0000000000500009
 30
0.0
 11
-1.6732305542500019
 21
0.0000000000500009
 31
0.0
  0
ARC
  5
135BA
  8
0
 10
-1.673230554249227
 20
-0.019685039349227
 30
0.0
 40
0.0196850393992278
 50
359.9999999977458174
 51
90.0000000022289299
  0
LINE
  5
135BB
  8
0
 10
-1.65354551485
 20
-0.0196850393500014
 30
0.0
 11
-1.6535455148548031
 21
-0.1417322834500041
 31
0.0
  0
ARC
  5
135BC
  8
0
 10
-1.8503959085783681
 20
-0.1417322834422592
 30
0.0
 40
0.1968503937235679
 50
308.0000000051189204
 51
359.9999999977458174
  0
ARC
  5
135BD
  8
0
 10
206402.867126322700642
 20
-264186.1327213866170496
 30
0.0
 40
335256.6379051808035001
 50
128.0000000051190909
 51
128.0001315430347972
  0
ARC
  5
135BE
  8
0
 10
-2.3841858483936611
 20
-0.7086672312258245
 30
0.0
 40
0.0787343436991881
 50
269.9974989648274004
 51
308.0001315430346835
  0
LINE
  5
135BF
  8
0
 10
-2.3841892852500002
 20
-0.7874015748500014
 30
0.0
 11
-3.521326940266623
 21
-0.7873519373147886
 31
0.0
  0
ARC
  5
135C0
  8
0
 10
-3.5213234946367509
 20
-0.7084166022533154
 30
0.0
 40
0.0789353351366763
 50
232.1074321309334039
 51
269.9974989648262067
  0
ARC
  5
135C1
  8
0
 10
122.5627830190684051
 20
161.2970992303251876
 30
0.0
 40
205.3665118602133077
 50
231.8926994283673935
 51
232.1074321309334039
  0
ARC
  5
135C2
  8
0
 10
-4.05438302028411
 20
-0.1413806812727074
 30
0.0
 40
0.1975826044299356
 50
180.1019590338792966
 51
231.894492101153304
  0
LINE
  5
135C3
  8
0
 10
-3.4665376408499968
 20
-0.8464569578199387
 30
0.0
 11
-3.4665376408499968
 21
-0.7873543289388536
 31
0.0
  0
LINE
  5
135C4
  8
0
 10
-2.4389785857499979
 20
-0.8464564280499971
 30
0.0
 11
-2.4389785857499979
 21
-0.7873991832258938
 31
0.0
  0
LINE
  5
135C5
  8
0
 10
-4.1763149515081661
 20
-0.2968525105499964
 30
0.0
 11
-1.729202704762441
 21
-0.2968525105499964
 31
0.0
  0
ARC
  5
135C6
  8
0
 10
-4.2322710507446732
 20
-0.0196942628668566
 30
0.0
 40
0.0196942632874289
 50
90.0111148525494258
 51
179.9731663683137128
  0
LINE
  5
135C7
  8
0
 10
-4.2519653118722616
 20
-0.0196850393500014
 30
0.0
 11
-4.2519653118722616
 21
-0.1417322834500041
 31
0.0
  0
LINE
  5
135C8
  8
0
 10
4.2322748712499969
 20
-0.0000000000500009
 30
0.0
 11
1.6732305542500019
 21
0.0000000000500009
 31
0.0
  0
ARC
  5
135C9
  8
0
 10
1.6732305542492281
 20
-0.019685039349227
 30
0.0
 40
0.0196850393992278
 50
89.9999999977710843
 51
180.0000000022540974
  0
LINE
  5
135CA
  8
0
 10
1.65354551485
 20
-0.0196850393500014
 30
0.0
 11
1.6535455148548031
 21
-0.1417322834500041
 31
0.0
  0
ARC
  5
135CB
  8
0
 10
1.8503959085783681
 20
-0.1417322834422592
 30
0.0
 40
0.1968503937235679
 50
180.0000000022540974
 51
231.999999994881108
  0
ARC
  5
135CC
  8
0
 10
-206402.867126322700642
 20
-264186.1327213866170496
 30
0.0
 40
335256.6379051808035001
 50
51.9998684569652525
 51
51.9999999948808806
  0
ARC
  5
135CD
  8
0
 10
2.3841858483936611
 20
-0.7086672312258245
 30
0.0
 40
0.0787343436991881
 50
231.9998684569652028
 51
270.0025010351724859
  0
LINE
  5
135CE
  8
0
 10
2.3841892852500002
 20
-0.7874015748500014
 30
0.0
 11
3.5213269402666239
 21
-0.7873519373147886
 31
0.0
  0
ARC
  5
135CF
  8
0
 10
3.5213234946367522
 20
-0.7084166022533154
 30
0.0
 40
0.0789353351366763
 50
270.0025010351737933
 51
307.8925678690666246
  0
ARC
  5
135D0
  8
0
 10
-122.5627830190684051
 20
161.2970992303251876
 30
0.0
 40
205.3665118602133077
 50
307.8925678690666246
 51
308.1073005716326065
  0
ARC
  5
135D1
  8
0
 10
4.0543830206346447
 20
-0.1413806814436782
 30
0.0
 40
0.1975826040790903
 50
308.1055078494570125
 51
359.8980410155184018
  0
LINE
  5
135D2
  8
0
 10
3.5236243727499978
 20
-0.8464569872500007
 30
0.0
 11
2.3818920892499991
 21
-0.8464563986499982
 31
0.0
  0
LINE
  5
135D3
  8
0
 10
2.3818920892499991
 20
-0.8464563986499982
 30
0.0
 11
2.3228369407499989
 21
-0.9055114862499991
 31
0.0
  0
LINE
  5
135D4
  8
0
 10
2.3228369407499989
 20
-0.9055114862499991
 30
0.0
 11
2.32283669621774
 21
-1.377952431149992
 31
0.0
  0
LINE
  5
135D5
  8
0
 10
2.32283669621774
 20
-1.377952431149992
 30
0.0
 11
2.3818917848499961
 21
-1.4370075797500019
 31
0.0
  0
LINE
  5
135D6
  8
0
 10
2.3818917848499961
 20
-1.4370075797500019
 30
0.0
 11
3.5236240682500002
 21
-1.4370092896499991
 31
0.0
  0
LINE
  5
135D7
  8
0
 10
3.5236240682500002
 20
-1.4370092896499991
 30
0.0
 11
3.5826792168500021
 21
-1.377954201950004
 31
0.0
  0
LINE
  5
135D8
  8
0
 10
3.5826792168500021
 20
-1.377954201950004
 30
0.0
 11
3.582679460450001
 21
-0.905512135849996
 31
0.0
  0
LINE
  5
135D9
  8
0
 10
3.582679460450001
 20
-0.905512135849996
 30
0.0
 11
3.5236243727499978
 21
-0.8464569872500007
 31
0.0
  0
LINE
  5
135DA
  8
0
 10
3.4665376408499982
 20
-0.8464569578199387
 30
0.0
 11
3.4665376408499982
 21
-0.7873543289388536
 31
0.0
  0
LINE
  5
135DB
  8
0
 10
2.4389785857499979
 20
-0.8464564280499971
 30
0.0
 11
2.4389785857499979
 21
-0.7873991832258938
 31
0.0
  0
LINE
  5
135DC
  8
0
 10
4.176314951508167
 20
-0.2968525105499964
 30
0.0
 11
1.729202704762441
 21
-0.2968525105499964
 31
0.0
  0
ARC
  5
135DD
  8
0
 10
4.2322710507446706
 20
-0.0196942628668637
 30
0.0
 40
0.01969426328744
 50
0.0268336317070377
 51
89.9888851474415361
  0
LINE
  5
135DE
  8
0
 10
4.2519653118722616
 20
-0.0196850393500014
 30
0.0
 11
4.2519653118722616
 21
-0.1417322834500041
 31
0.0
  0
LINE
  5
135DF
  8
0
 10
3.5433038938999988
 20
-0.9055123383000065
 30
0.0
 11
3.543303893900001
 21
-1.3779528689999969
 31
0.0
  0
LINE
  5
135E0
  8
0
 10
3.5826792168507078
 20
-1.377952833859438
 30
0.0
 11
3.4378639481999991
 21
-1.3779529631
 31
0.0
  0
ARC
  5
135E1
  8
0
 10
3.248028303433538
 20
-0.9399295068502055
 30
0.0
 40
0.4773909512347318
 50
246.5685011794114985
 51
293.4314988205883878
  0
LINE
  5
135E2
  8
0
 10
3.0581926583999999
 20
-1.3779529631
 30
0.0
 11
2.8473127671000542
 21
-1.3779527748999949
 31
0.0
  0
ARC
  5
135E3
  8
0
 10
2.6574772525882229
 20
-0.9398586328204601
 30
0.0
 40
0.4774560333709902
 50
246.5718688740558946
 51
293.4280970205315953
  0
LINE
  5
135E4
  8
0
 10
2.4676414772999991
 20
-1.3779529631
 30
0.0
 11
2.322837098936501
 21
-1.3779528338691589
 31
0.0
  0
LINE
  5
135E5
  8
0
 10
2.3622015316999998
 20
-1.3779528689999969
 30
0.0
 11
2.3622015316999989
 21
-0.9055123382999994
 31
0.0
  0
LINE
  5
135E6
  8
0
 10
3.582679460449878
 20
-0.9055123734407715
 30
0.0
 11
3.4378639481999991
 21
-0.9055122441999969
 31
0.0
  0
ARC
  5
135E7
  8
0
 10
3.248028303433538
 20
-1.343535700449791
 30
0.0
 40
0.4773909512347318
 50
66.5685011794114843
 51
113.4314988205885015
  0
LINE
  5
135E8
  8
0
 10
3.0581926583999999
 20
-0.9055122441999969
 30
0.0
 11
2.8473127671000542
 21
-0.9055124324000018
 31
0.0
  0
ARC
  5
135E9
  8
0
 10
2.6574772525882229
 20
-1.3436065744795369
 30
0.0
 40
0.4774560333709902
 50
66.5719029794683621
 51
113.4281311259440059
  0
LINE
  5
135EA
  8
0
 10
2.4676414772999991
 20
-0.9055122441999969
 30
0.0
 11
2.3228369407495402
 21
-0.9055123734309802
 31
0.0
  0
LINE
  5
135EB
  8
0
 10
3.4378639481999982
 20
-0.9055122441999969
 30
0.0
 11
3.4378639481999982
 21
-1.3779529631
 31
0.0
  0
LINE
  5
135EC
  8
0
 10
3.0581926583999999
 20
-0.9055122442336838
 30
0.0
 11
3.058192658399999
 21
-1.377952963066313
 31
0.0
  0
LINE
  5
135ED
  8
0
 10
2.8473127671
 20
-0.9055124324000018
 30
0.0
 11
2.8473127671
 21
-1.3779527748999949
 31
0.0
  0
LINE
  5
135EE
  8
0
 10
2.4676414772999991
 20
-0.9055122441999969
 30
0.0
 11
2.4676414772999999
 21
-1.3779529631
 31
0.0
  0
LINE
  5
135EF
  8
0
 10
-3.6169677232999988
 20
-1.523622219399996
 30
0.0
 11
3.6169677232999988
 21
-1.523622219399996
 31
0.0
  0
LINE
  5
135F0
  8
0
 10
-3.6169677232999988
 20
-1.523622219399996
 30
0.0
 11
-3.6169655664706148
 21
-1.79921328830644
 31
0.0
  0
LINE
  5
135F1
  8
0
 10
3.6169677233000002
 20
-1.523622219399996
 30
0.0
 11
3.6169655664706148
 21
-1.79921328830644
 31
0.0
  0
ARC
  5
135F2
  8
0
 10
2.6574690738000011
 20
-1.7992057790999989
 30
0.0
 40
0.9594964926999981
 50
270.0002677998999729
 51
359.9995515920693947
  0
LINE
  5
135F3
  8
0
 10
2.6574735584770042
 20
-2.7587022717895162
 30
0.0
 11
2.2392906997799491
 21
-2.7587042263720098
 31
0.0
  0
ARC
  5
135F4
  8
0
 10
1.907109920768588
 20
-4.075208196272551
 30
0.0
 40
1.3083373122455031
 50
92.8163441161551788
 51
111.9714302184384991
  0
ARC
  5
135F5
  8
0
 10
1.6844007503543561
 20
-3.5169014528423679
 30
0.0
 40
0.7072586572166115
 50
112.1620754251559049
 51
163.3646549416143046
  0
ARC
  5
135F6
  8
0
 10
2.7186311955143219
 20
-3.8197152938323948
 30
0.0
 40
1.784901853957199
 50
163.5553001483318099
 51
178.3862015974247868
  0
ARC
  5
135F7
  8
0
 10
17.0322942082439717
 20
-4.2229819411431349
 30
0.0
 40
16.1042444656422106
 50
178.3862015974247868
 51
179.0624040412432976
  0
LINE
  5
135F8
  8
0
 10
0.9302059317510785
 20
-3.9594616474315032
 30
0.0
 11
0.9302059317510789
 21
-6.2430797267999969
 31
0.0
  0
ARC
  5
135F9
  8
0
 10
-11.7908390203851798
 20
-5.718937694217189
 30
0.0
 40
12.7318384196702503
 50
355.5078398175591019
 51
357.6405908905456954
  0
ARC
  5
135FA
  8
0
 10
0.2226689771053312
 20
-6.6400791684104936
 30
0.0
 40
0.6834632913349376
 50
333.5756682723919084
 51
353.6113554237957146
  0
ARC
  5
135FB
  8
0
 10
-0.000004227200002
 20
-6.543456277899991
 30
0.0
 40
0.9259561775000049
 50
270.0002615682309965
 51
334.3531834573997799
  0
ARC
  5
135FC
  8
0
 10
-0.0039294877421534
 20
-2.5412034252165361
 30
0.0
 40
0.8186418030565732
 50
2.3872099443528429
 51
89.7249787062001758
  0
ARC
  5
135FD
  8
0
 10
-1.2042913979932119
 20
-4.5679724788304936
 30
0.0
 40
2.0296260080375919
 50
339.3436971396209856
 51
353.942414238114111
  0
ARC
  5
135FE
  8
0
 10
0.004017697323935
 20
-4.9538129150649262
 30
0.0
 40
0.7656678747152985
 50
269.6993498564817742
 51
334.446170457167284
  0
ARC
  5
135FF
  8
0
 10
2.1686245118476162
 20
-7.9508769724150801
 30
0.0
 40
5.192656081247792
 50
89.2201525049801347
 51
93.5971406112717261
  0
LINE
  5
13600
  8
0
 10
10.3808581070999999
 20
0.0000014401000001
 30
0.0
 11
12.3030732488000005
 21
0.0000014401000001
 31
0.0
  0
LINE
  5
13601
  8
0
 10
12.3030732488000005
 20
0.0000014401000001
 30
0.0
 11
12.29657102
 21
-1.033483819499998
 31
0.0
  0
ARC
  5
13602
  8
0
 10
8.1992593507892622
 20
-1.007705359971282
 30
0.0
 40
4.0973927616993393
 50
345.2166835011761918
 51
359.6395252388066979
  0
ARC
  5
13603
  8
0
 10
7.665804588572442
 20
-0.8630059943421527
 30
0.0
 40
4.6501126065208096
 50
341.9974842144903278
 51
345.1699741906389818
  0
ARC
  5
13604
  8
0
 10
12.0028788648755391
 20
-2.2764817731436571
 30
0.0
 40
0.0886059968295827
 50
318.0992830752639975
 51
344.4977818221523762
  0
ARC
  5
13605
  8
0
 10
12.0222500335543199
 20
-2.2924277543286129
 30
0.0
 40
0.0635475594357337
 50
280.4396121136027205
 51
317.1360971380005935
  0
LINE
  5
13606
  8
0
 10
12.0337647944999997
 20
-2.3549233748999958
 30
0.0
 11
11.9798079277565606
 21
-2.3627665272333331
 31
0.0
  0
ARC
  5
13607
  8
0
 10
11.9770126687480296
 20
-2.3433200881157599
 30
0.0
 40
0.0196466119684799
 50
190.154941106188403
 51
277.939795250628606
  0
LINE
  5
13608
  8
0
 10
11.95767382945
 20
-2.3467839957999952
 30
0.0
 11
11.9571443876300005
 21
-2.308943896012607
 31
0.0
  0
LINE
  5
13609
  8
0
 10
10.7521216164000002
 20
-1.210324162899993
 30
0.0
 11
11.9318097393000002
 21
-1.210324196599998
 31
0.0
  0
ARC
  5
1360A
  8
0
 10
11.9318097387331292
 20
-1.230167867049893
 30
0.0
 40
0.0198436704498946
 50
359.8147381281693242
 51
89.9999983632289542
  0
LINE
  5
1360B
  8
0
 10
11.9516533054496605
 20
-1.2302320300503231
 30
0.0
 11
11.9566201102960505
 21
-2.208815112944535
 31
0.0
  0
ARC
  5
1360C
  8
0
 10
11.8551802160073105
 20
-2.2804312542049838
 30
0.0
 40
0.1058756961608776
 50
344.3772049374097719
 51
2.5461677608355711
  0
ARC
  5
1360D
  8
0
 10
10.6067466818612992
 20
-2.3297893135268088
 30
0.0
 40
1.3552833762090479
 50
2.2861042438788921
 51
5.1211050264768181
  0
LINE
  5
1360E
  8
0
 10
11.9443278825999997
 20
-1.214818001299995
 30
0.0
 11
11.9443278825999997
 21
-2.0771530284999988
 31
0.0
  0
ARC
  5
1360F
  8
0
 10
7.7738742757910222
 20
-2.5360116965846942
 30
0.0
 40
4.1956208794196908
 50
4.4909549061469374
 51
6.2787749749526132
  0
ARC
  5
13610
  8
0
 10
8.9328028997891487
 20
-2.4084993214452619
 30
0.0
 40
3.0296985143644992
 50
6.2787749749526123
 51
11.4328692858054399
  0
ARC
  5
13611
  8
0
 10
6.2269925402716213
 20
-2.9813099462674368
 30
0.0
 40
5.7954158466209558
 50
11.6810173414004108
 51
12.6660501549976203
  0
ARC
  5
13612
  8
0
 10
11.3410135079070997
 20
-1.8142682605241871
 30
0.0
 40
0.5503239048216554
 50
10.86426564846942
 51
89.8999399818415554
  0
ARC
  5
13613
  8
0
 10
11.9403624301628604
 20
-1.271832645922472
 30
0.0
 40
0.011990444703853
 50
16.7031499675962891
 51
70.6476770153719542
  0
ARC
  5
13614
  8
0
 10
11.9403908746999896
 20
-1.8779516345999949
 30
0.0
 40
0.011811023600004
 50
289.5118474172356855
 51
0.0
  0
LINE
  5
13615
  8
0
 10
11.9522018983000002
 20
-1.8779516345999949
 30
0.0
 11
11.9528880707079601
 21
-1.4735112468700251
 31
0.0
  0
ARC
  5
13616
  8
0
 10
11.8716683941174104
 20
-2.2845554211270871
 30
0.0
 40
0.0888872497842505
 50
331.9619538346584022
 51
344.0752043370417255
  0
ARC
  5
13617
  8
0
 10
13.6448174646469802
 20
-2.6082002513809708
 30
0.0
 40
1.7179739166623069
 50
170.5569657723497983
 51
176.416341704627996
  0
ARC
  5
13618
  8
0
 10
40.6176326128047194
 20
-4.5165655329799712
 30
0.0
 40
28.7581617563696206
 50
175.9806653773430867
 51
177.8243949032508056
  0
ARC
  5
13619
  8
0
 10
11.3109454596221699
 20
-3.9843821651330771
 30
0.0
 40
2.3739108471967758
 50
270.7487131088689125
 51
304.0721119084967086
  0
ARC
  5
1361A
  8
0
 10
11.9392484018913105
 20
-4.9930688185020671
 30
0.0
 40
1.1872246568299929
 50
306.2278427815676878
 51
341.1817607006785806
  0
ARC
  5
1361B
  8
0
 10
12.2872573453760499
 20
-5.1116643625316414
 30
0.0
 40
0.8195629538895935
 50
341.1817607006785806
 51
357.4079159961017922
  0
ARC
  5
1361C
  8
0
 10
11.8011570714692908
 20
-5.0896579760327496
 30
0.0
 40
1.3061611015833281
 50
357.4079159961017922
 51
1.859337335707236
  0
LINE
  5
1361D
  8
0
 10
13.1066304719000009
 20
-5.0472784519999934
 30
0.0
 11
13.0868023329999996
 21
-4.6459973220999942
 31
0.0
  0
ARC
  5
1361E
  8
0
 10
12.1079914253851406
 20
-4.7028268321022209
 30
0.0
 40
0.9804592730312299
 50
3.322847899046351
 51
30.3415943727762816
  0
ARC
  5
1361F
  8
0
 10
11.7444886779769906
 20
-4.9405605757694451
 30
0.0
 40
1.4144290415860841
 50
31.2144213116060705
 51
59.0490585062247391
  0
ARC
  5
13620
  8
0
 10
10.8464265443629309
 20
-6.5341546809798103
 30
0.0
 40
3.2433612945695489
 50
59.9218854450547767
 51
66.9248125443956212
  0
ARC
  5
13621
  8
0
 10
12.6684623023076401
 20
-2.2204077592796159
 30
0.0
 40
1.4394475239673199
 50
236.7965187613311002
 51
247.5006852366697103
  0
ARC
  5
13622
  8
0
 10
12.0955923033801795
 20
-3.08839684311718
 30
0.0
 40
0.3994826227261367
 50
222.6214766235947025
 51
237.3723914536045925
  0
ARC
  5
13623
  8
0
 10
11.8438483531682408
 20
-3.3152100033849901
 30
0.0
 40
0.0609266116601539
 50
200.1534310629050992
 51
225.9817505718258133
  0
ARC
  5
13624
  8
0
 10
11.9762488603168809
 20
-3.3085488660547631
 30
0.0
 40
0.1916027213839594
 50
177.8119439527129089
 51
188.2980249856892101
  0
LINE
  5
13625
  8
0
 10
11.7847858370215999
 20
-3.3012335704231068
 30
0.0
 11
11.8417615188000003
 21
-1.918661399399987
 31
0.0
  0
ARC
  5
13626
  8
0
 10
12.9657332026160592
 20
-1.9649801770574551
 30
0.0
 40
1.124925675404381
 50
165.616448583165095
 51
177.6401810463889888
  0
ARC
  5
13627
  8
0
 10
11.3471134242308
 20
-3.5432079149980491
 30
0.0
 40
2.3829989295199301
 50
269.8762315409881012
 51
287.8607440399625261
  0
ARC
  5
13628
  8
0
 10
11.51442690145727
 20
-4.062436459526416
 30
0.0
 40
1.837478919699338
 50
287.8607440399622988
 51
310.9111810268066733
  0
ARC
  5
13629
  8
0
 10
11.9834054086248099
 20
-4.6036266166918827
 30
0.0
 40
1.1213590788920349
 50
310.9111810268066733
 51
334.6055649638310001
  0
ARC
  5
1362A
  8
0
 10
12.1240198547220093
 20
-4.6703785286917103
 30
0.0
 40
0.9657048460332601
 50
334.6055649638310001
 51
351.8644030939661889
  0
ARC
  5
1362B
  8
0
 10
12.2224814324441091
 20
-4.6844541034681866
 30
0.0
 40
0.866242269690127
 50
351.8644030939661889
 51
359.9718430927334225
  0
LINE
  5
1362C
  8
0
 10
10.3808581069999999
 20
0.0000014401000001
 30
0.0
 11
10.3873603358000004
 21
-1.033483819499998
 31
0.0
  0
ARC
  5
1362D
  8
0
 10
14.48467200501074
 20
-1.007705359971282
 30
0.0
 40
4.0973927616993393
 50
180.3604747611933021
 51
194.7833164988236945
  0
ARC
  5
1362E
  8
0
 10
15.0181267672275602
 20
-0.8630059943421527
 30
0.0
 40
4.6501126065208096
 50
194.8300258093609898
 51
198.0025157855097007
  0
ARC
  5
1362F
  8
0
 10
10.6810524909244595
 20
-2.2764817731436571
 30
0.0
 40
0.0886059968295827
 50
195.5022181778475101
 51
221.9007169247360025
  0
ARC
  5
13630
  8
0
 10
10.6616813222456894
 20
-2.2924277543286129
 30
0.0
 40
0.0635475594357337
 50
222.8639028619994065
 51
259.5603878863972227
  0
LINE
  5
13631
  8
0
 10
10.6501665613000007
 20
-2.3549233748999958
 30
0.0
 11
10.7041234280434399
 21
-2.3627665272333331
 31
0.0
  0
ARC
  5
13632
  8
0
 10
10.7069186870519708
 20
-2.3433200881157599
 30
0.0
 40
0.0196466119684799
 50
262.0602047493715077
 51
349.845058893811597
  0
LINE
  5
13633
  8
0
 10
10.7262575263500004
 20
-2.3467839957999952
 30
0.0
 11
10.7267869681699999
 21
-2.308943896012607
 31
0.0
  0
ARC
  5
13634
  8
0
 10
10.7521216170668694
 20
-1.230167867049893
 30
0.0
 40
0.0198436704498946
 50
90.0000016367710316
 51
180.1852618718305905
  0
LINE
  5
13635
  8
0
 10
10.7322780503503399
 20
-1.2302320300503231
 30
0.0
 11
10.7273112455039605
 21
-2.208815112944535
 31
0.0
  0
ARC
  5
13636
  8
0
 10
10.8287511397926899
 20
-2.2804312542049838
 30
0.0
 40
0.1058756961608776
 50
177.4538322391643987
 51
195.6227950625901997
  0
ARC
  5
13637
  8
0
 10
12.0771846739387101
 20
-2.3297893135268088
 30
0.0
 40
1.3552833762090479
 50
174.8788949735231881
 51
177.7138957561211043
  0
LINE
  5
13638
  8
0
 10
10.7396034732000007
 20
-1.214818001299995
 30
0.0
 11
10.7396034732000007
 21
-2.0771530284999988
 31
0.0
  0
ARC
  5
13639
  8
0
 10
14.9100570800089791
 20
-2.5360116965846942
 30
0.0
 40
4.1956208794196908
 50
173.7212250250474028
 51
175.5090450938533877
  0
ARC
  5
1363A
  8
0
 10
13.75112845601085
 20
-2.4084993214452619
 30
0.0
 40
3.0296985143644992
 50
168.5671307141944908
 51
173.7212250250474028
  0
ARC
  5
1363B
  8
0
 10
16.4569388155283782
 20
-2.9813099462674368
 30
0.0
 40
5.7954158466209558
 50
167.3339498450023086
 51
168.3189826585995093
  0
ARC
  5
1363C
  8
0
 10
11.3429178478929007
 20
-1.8142682605241871
 30
0.0
 40
0.5503239048216554
 50
90.1000600181584446
 51
169.1357343515306013
  0
ARC
  5
1363D
  8
0
 10
10.7435689256371294
 20
-1.271832645922472
 30
0.0
 40
0.011990444703853
 50
109.3523229846280032
 51
163.2968500324037109
  0
ARC
  5
1363E
  8
0
 10
10.7435404811000108
 20
-1.8779516345999949
 30
0.0
 40
0.011811023600004
 50
180.0
 51
250.4881525827642861
  0
LINE
  5
1363F
  8
0
 10
10.7317294575000002
 20
-1.8779516345999949
 30
0.0
 11
10.7310432850920296
 21
-1.4735112468700251
 31
0.0
  0
ARC
  5
13640
  8
0
 10
10.81226296168259
 20
-2.2845554211270871
 30
0.0
 40
0.0888872497842505
 50
195.9247956629581893
 51
208.0380461653415125
  0
ARC
  5
13641
  8
0
 10
9.0391138911530184
 20
-2.6082002513809708
 30
0.0
 40
1.7179739166623069
 50
3.583658295372016
 51
9.4430342276501467
  0
ARC
  5
13642
  8
0
 10
-17.9337012570047207
 20
-4.5165655329799712
 30
0.0
 40
28.7581617563696206
 50
2.1756050967491292
 51
4.0193346226568458
  0
ARC
  5
13643
  8
0
 10
11.4255435852618508
 20
-3.8167771224841109
 30
0.0
 40
2.5426871789811072
 50
237.0628215887417127
 51
268.1163533938930073
  0
ARC
  5
13644
  8
0
 10
10.7446829539086792
 20
-4.9930688185020671
 30
0.0
 40
1.1872246568299929
 50
198.8182392993213909
 51
233.7721572184323975
  0
ARC
  5
13645
  8
0
 10
10.3966740104239399
 20
-5.1116643625316414
 30
0.0
 40
0.8195629538895935
 50
182.5920840038982078
 51
198.8182392993213909
  0
ARC
  5
13646
  8
0
 10
10.8827742843307096
 20
-5.0896579760327496
 30
0.0
 40
1.3061611015833281
 50
178.1406626642927051
 51
182.5920840038982078
  0
LINE
  5
13647
  8
0
 10
9.5773008839000013
 20
-5.0472784519999934
 30
0.0
 11
9.5971290228000043
 21
-4.6459973220999942
 31
0.0
  0
ARC
  5
13648
  8
0
 10
10.5759399304148705
 20
-4.7028268321022209
 30
0.0
 40
0.9804592730312299
 50
149.6584056272236865
 51
176.6771521009536059
  0
ARC
  5
13649
  8
0
 10
10.9394426778230098
 20
-4.9405605757694451
 30
0.0
 40
1.4144290415860841
 50
120.9509414937752041
 51
148.7855786883939118
  0
ARC
  5
1364A
  8
0
 10
11.8375048114370696
 20
-6.5341546809798103
 30
0.0
 40
3.2433612945695489
 50
113.075187455604393
 51
120.0781145549451026
  0
ARC
  5
1364B
  8
0
 10
10.0154690534923603
 20
-2.2204077592796159
 30
0.0
 40
1.4394475239673199
 50
292.4993147633302897
 51
303.2034812386688145
  0
ARC
  5
1364C
  8
0
 10
10.5883390524198209
 20
-3.08839684311718
 30
0.0
 40
0.3994826227261367
 50
302.6276085463953223
 51
317.378523376405326
  0
ARC
  5
1364D
  8
0
 10
10.8400830026317703
 20
-3.3152100033849901
 30
0.0
 40
0.0609266116601539
 50
314.0182494281742152
 51
339.8465689370949008
  0
ARC
  5
1364E
  8
0
 10
10.7076824954831196
 20
-3.3085488660547631
 30
0.0
 40
0.1916027213839594
 50
351.7019750143107899
 51
2.1880560472870609
  0
LINE
  5
1364F
  8
0
 10
10.8991455187783899
 20
-3.3012335704231068
 30
0.0
 11
10.8421698370000001
 21
-1.918661399399987
 31
0.0
  0
ARC
  5
13650
  8
0
 10
9.7181981531839376
 20
-1.9649801770574551
 30
0.0
 40
1.124925675404381
 50
2.3598189536110099
 51
14.3835514168352994
  0
ARC
  5
13651
  8
0
 10
11.3368179315692004
 20
-3.5432079149980491
 30
0.0
 40
2.3829989295199301
 50
252.1392559600373886
 51
270.1237684590118988
  0
ARC
  5
13652
  8
0
 10
11.1695044543427304
 20
-4.062436459526416
 30
0.0
 40
1.837478919699338
 50
229.088818973193213
 51
252.1392559600375876
  0
ARC
  5
13653
  8
0
 10
10.7005259471751906
 20
-4.6036266166918827
 30
0.0
 40
1.1213590788920349
 50
205.3944350361689999
 51
229.088818973193213
  0
ARC
  5
13654
  8
0
 10
10.559911501078
 20
-4.6703785286917103
 30
0.0
 40
0.9657048460332601
 50
188.1355969060338111
 51
205.3944350361689999
  0
ARC
  5
13655
  8
0
 10
10.4614499233558895
 20
-4.6844541034681866
 30
0.0
 40
0.866242269690127
 50
180.0281569072666059
 51
188.1355969060338111
  0
LINE
  5
13656
  8
0
 10
10.4604561302098205
 20
-1.7786230187561849
 30
0.0
 11
0.9302059317510789
 21
-4.5311086975323072
 31
0.0
  0
LINE
  5
13657
  8
0
 10
0.9302059317510792
 20
-5.1048187572632591
 30
0.0
 11
10.5999036389994501
 21
-2.312061071976216
 31
0.0
  0
LINE
  5
13658
  8
0
 10
11.2336978269000003
 20
-0.1102346034999968
 30
0.0
 11
11.4502333625000006
 21
-0.1102346034999968
 31
0.0
  0
ARC
  5
13659
  8
0
 10
11.4502333625000006
 20
-0.1200771551352986
 30
0.0
 40
0.0098425516353018
 50
0.0048522026362922
 51
90.0000000000394493
  0
LINE
  5
1365A
  8
0
 10
11.4600759141000008
 20
-0.1200763215999956
 30
0.0
 11
11.4600909177550001
 21
-0.2972424812523968
 31
0.0
  0
ARC
  5
1365B
  8
0
 10
11.4502492180850197
 20
-0.2972433147155584
 30
0.0
 40
0.0098416997052721
 50
269.9078786402786818
 51
0.0048522026338495
  0
LINE
  5
1365C
  8
0
 10
11.4502333943999997
 20
-0.3070850016999955
 30
0.0
 11
11.2336979033999995
 21
-0.3070850016000008
 31
0.0
  0
ARC
  5
1365D
  8
0
 10
11.23369796110393
 20
-0.2972424820962374
 30
0.0
 40
0.0098425195039326
 50
179.9999994397452099
 51
269.999664090888075
  0
LINE
  5
1365E
  8
0
 10
11.2238554415999996
 20
-0.2972424819999944
 30
0.0
 11
11.2238554433323703
 21
-0.1200771232158502
 31
0.0
  0
ARC
  5
1365F
  8
0
 10
11.2336979631454099
 20
-0.1200771233120932
 30
0.0
 40
0.0098425198130396
 50
90.0007931187747943
 51
179.9999994397468015
  0
LINE
  5
13660
  8
0
 10
11.2435404810000001
 20
-0.285157346899993
 30
0.0
 11
11.4403908747000003
 21
-0.285157346899993
 31
0.0
  0
LINE
  5
13661
  8
0
 10
11.4403908747000003
 20
-0.285157346899993
 30
0.0
 11
11.4403908747000003
 21
-0.1259827065999985
 31
0.0
  0
LINE
  5
13662
  8
0
 10
11.4403908747000003
 20
-0.1259827065999985
 30
0.0
 11
11.2435404810000001
 21
-0.1259827065999985
 31
0.0
  0
LINE
  5
13663
  8
0
 10
11.2435404810000001
 20
-0.1259827065999985
 30
0.0
 11
11.2435404810000001
 21
-0.285157346899993
 31
0.0
  0
LINE
  5
13664
  8
0
 10
11.2435404810000001
 20
-0.1329247435999932
 30
0.0
 11
11.4403908747000003
 21
-0.1329247435999932
 31
0.0
  0
LINE
  5
13665
  8
0
 10
11.4403908747000003
 20
-0.1758951483000004
 30
0.0
 11
11.2435404810000001
 21
-0.1758951483000004
 31
0.0
  0
LINE
  5
13666
  8
0
 62
     1
 10
2.9527527127499957
 20
0.0
 30
0.0
 11
3454.4402381098302612
 21
0.0
 31
0.0
  0
LINE
  5
13667
  8
0
 10
-3.3740125552999989
 20
-1.437007873999995
 30
0.0
 11
-3.3740125552999989
 21
-1.5236220473000011
 31
0.0
  0
LINE
  5
13668
  8
0
 10
-2.5314928702999988
 20
-1.523622219399996
 30
0.0
 11
-2.5314928702999988
 21
-1.4370080725999941
 31
0.0
  0
LINE
  5
13669
  8
0
 10
2.5315011772
 20
-1.5236210477475041
 30
0.0
 11
2.5315013069151591
 21
-1.4370078038106859
 31
0.0
  0
LINE
  5
1366A
  8
0
 10
3.3740208622000001
 20
-1.5236209259999991
 30
0.0
 11
3.3740208622000001
 21
-1.437009065598772
 31
0.0
  0
ARC
  5
1366B
  8
0
 10
2.271510834839332
 20
-1.5234519131982931
 30
0.0
 40
0.0207238646051601
 50
359.5319609112299872
 51
56.0224196324593322
  0
ARC
  5
1366C
  8
0
 10
2.2754550412557482
 20
-1.5175994482230091
 30
0.0
 40
0.0136663784704072
 50
56.0224196324582806
 51
91.2475798736429198
  0
LINE
  5
1366D
  8
0
 10
2.2751574879000001
 20
-1.503936309399996
 30
0.0
 11
-2.2752329068285522
 21
-1.5039382334107709
 31
0.0
  0
ARC
  5
1366E
  8
0
 10
-2.2740689617853578
 20
-1.521347485033139
 30
0.0
 40
0.0174094494500777
 50
89.727221817396412
 51
153.1828808872606089
  0
ARC
  5
1366F
  8
0
 10
-2.270154145968919
 20
-1.5238287508724959
 30
0.0
 40
0.022027201329863
 50
152.016809705136609
 51
179.4627927975514012
  0
LINE
  5
13670
  8
0
 10
-1.7716502950999991
 20
-1.503936318799993
 30
0.0
 11
-1.7716502967500001
 21
-1.4842512795
 31
0.0
  0
LINE
  5
13671
  8
0
 10
-1.7716502967500001
 20
-1.4842512795
 30
0.0
 11
-1.5354298242999991
 21
-1.484251260299998
 31
0.0
  0
LINE
  5
13672
  8
0
 10
-1.5354298242999991
 20
-1.484251260299998
 30
0.0
 11
-1.5354298226999989
 21
-1.5039362989999949
 31
0.0
  0
LINE
  5
13673
  8
0
 10
-2.3818893597500002
 20
-0.8464569872500007
 30
0.0
 11
-3.5236216432499989
 21
-0.8464563986499982
 31
0.0
  0
LINE
  5
13674
  8
0
 10
-3.5236216432499989
 20
-0.8464563986499982
 30
0.0
 11
-3.5826767917499991
 21
-0.9055114862499991
 31
0.0
  0
LINE
  5
13675
  8
0
 10
-3.5826767917499991
 20
-0.9055114862499991
 30
0.0
 11
-3.5826770362822589
 21
-1.377952431149992
 31
0.0
  0
LINE
  5
13676
  8
0
 10
-3.5826770362822589
 20
-1.377952431149992
 30
0.0
 11
-3.5236219476500028
 21
-1.4370075797500019
 31
0.0
  0
LINE
  5
13677
  8
0
 10
-3.5236219476500028
 20
-1.4370075797500019
 30
0.0
 11
-2.3818896642499992
 21
-1.4370092896499991
 31
0.0
  0
LINE
  5
13678
  8
0
 10
-2.3818896642499992
 20
-1.4370092896499991
 30
0.0
 11
-2.3228345156499959
 21
-1.377954201950004
 31
0.0
  0
LINE
  5
13679
  8
0
 10
-2.3228345156499959
 20
-1.377954201950004
 30
0.0
 11
-2.322834272049997
 21
-0.905512135849996
 31
0.0
  0
LINE
  5
1367A
  8
0
 10
-2.322834272049997
 20
-0.905512135849996
 30
0.0
 11
-2.3818893597500002
 21
-0.8464569872500007
 31
0.0
  0
LINE
  5
1367B
  8
0
 10
-2.3622098386000001
 20
-0.9055123383000065
 30
0.0
 11
-2.3622098385999979
 21
-1.3779528689999969
 31
0.0
  0
LINE
  5
1367C
  8
0
 10
-2.3228345156492902
 20
-1.377952833859438
 30
0.0
 11
-2.4676497842999989
 21
-1.3779529631
 31
0.0
  0
ARC
  5
1367D
  8
0
 10
-2.65748542906646
 20
-0.9399295068502055
 30
0.0
 40
0.4773909512347318
 50
246.5685011794114985
 51
293.4314988205883878
  0
LINE
  5
1367E
  8
0
 10
-2.847321074099999
 20
-1.3779529631
 30
0.0
 11
-3.0582009653999451
 21
-1.3779527748999949
 31
0.0
  0
ARC
  5
1367F
  8
0
 10
-3.248036479911776
 20
-0.9398586328204601
 30
0.0
 40
0.4774560333709902
 50
246.5718688740558946
 51
293.4280970205315953
  0
LINE
  5
13680
  8
0
 10
-3.4378722551999989
 20
-1.3779529631
 30
0.0
 11
-3.582676633563497
 21
-1.3779528338691589
 31
0.0
  0
LINE
  5
13681
  8
0
 10
-3.5433122007999991
 20
-1.3779528689999969
 30
0.0
 11
-3.5433122007999991
 21
-0.9055123382999994
 31
0.0
  0
LINE
  5
13682
  8
0
 10
-2.3228342720501201
 20
-0.9055123734407715
 30
0.0
 11
-2.4676497842999989
 21
-0.9055122441999969
 31
0.0
  0
ARC
  5
13683
  8
0
 10
-2.65748542906646
 20
-1.343535700449791
 30
0.0
 40
0.4773909512347318
 50
66.5685011794115127
 51
113.4314988205885015
  0
LINE
  5
13684
  8
0
 10
-2.847321074099999
 20
-0.9055122441999969
 30
0.0
 11
-3.0582009653999451
 21
-0.9055124324000018
 31
0.0
  0
ARC
  5
13685
  8
0
 10
-3.248036479911776
 20
-1.3436065744795369
 30
0.0
 40
0.4774560333709902
 50
66.5719029794683905
 51
113.4281311259440059
  0
LINE
  5
13686
  8
0
 10
-3.4378722551999989
 20
-0.9055122441999969
 30
0.0
 11
-3.5826767917504578
 21
-0.9055123734309802
 31
0.0
  0
LINE
  5
13687
  8
0
 10
-2.4676497842999998
 20
-0.9055122441999969
 30
0.0
 11
-2.4676497842999998
 21
-1.3779529631
 31
0.0
  0
LINE
  5
13688
  8
0
 10
-2.847321074099999
 20
-0.9055122442336838
 30
0.0
 11
-2.847321074099999
 21
-1.377952963066313
 31
0.0
  0
LINE
  5
13689
  8
0
 10
-3.058200965399998
 20
-0.9055124324000018
 30
0.0
 11
-3.0582009653999989
 21
-1.3779527748999949
 31
0.0
  0
LINE
  5
1368A
  8
0
 10
-3.4378722551999989
 20
-0.9055122441999969
 30
0.0
 11
-3.4378722551999981
 21
-1.3779529631
 31
0.0
  0
LINE
  5
1368B
  8
0
 10
0.8140018595208253
 20
-2.5071048493476691
 30
0.0
 11
0.8140018595208253
 21
-4.7821547824318884
 31
0.0
  0
ARC
  5
1368C
  8
0
 10
-2.6574690738000011
 20
-1.7992057790999989
 30
0.0
 40
0.9594964926999981
 50
180.0004484079302074
 51
269.9997322001000271
  0
LINE
  5
1368D
  8
0
 10
-2.6574735584770042
 20
-2.7587022717895162
 30
0.0
 11
-2.2392906997799491
 21
-2.7587042263720098
 31
0.0
  0
ARC
  5
1368E
  8
0
 10
-1.907109920768588
 20
-4.075208196272551
 30
0.0
 40
1.3083373122455031
 50
68.0285697815615009
 51
87.1836558838448354
  0
ARC
  5
1368F
  8
0
 10
-1.6844007503543561
 20
-3.5169014528423679
 30
0.0
 40
0.7072586572166115
 50
16.635345058385699
 51
67.8379245748440667
  0
ARC
  5
13690
  8
0
 10
-2.718631195514321
 20
-3.8197152938323948
 30
0.0
 40
1.784901853957199
 50
1.6137984025751699
 51
16.4446998516682008
  0
ARC
  5
13691
  8
0
 10
-17.0322942082439717
 20
-4.2229819411431349
 30
0.0
 40
16.1042444656422106
 50
0.9375959587566665
 51
1.6137984025751699
  0
LINE
  5
13692
  8
0
 10
-0.930205931751078
 20
-3.9594616474315032
 30
0.0
 11
-0.9302059317510785
 21
-6.2430797267999969
 31
0.0
  0
ARC
  5
13693
  8
0
 10
11.7908390203851798
 20
-5.718937694217189
 30
0.0
 40
12.7318384196702503
 50
182.3594091094543046
 51
184.4921601824408981
  0
ARC
  5
13694
  8
0
 10
-0.2226689771053307
 20
-6.6400791684104936
 30
0.0
 40
0.6834632913349376
 50
186.3886445762043138
 51
206.4243317276082053
  0
ARC
  5
13695
  8
0
 10
0.0000042272000025
 20
-6.543456277899991
 30
0.0
 40
0.9259561775000049
 50
205.6468165426001065
 51
269.9997384317690035
  0
ARC
  5
13696
  8
0
 10
0.000001751300015
 20
-2.531514959500007
 30
0.0
 40
0.8089439065000162
 50
90.0001240408620333
 51
178.2708212361322921
  0
ARC
  5
13697
  8
0
 10
0.9295205756342417
 20
-4.6520449919252647
 30
0.0
 40
1.742957414251957
 50
184.2810471217289034
 51
201.2565944974953993
  0
ARC
  5
13698
  8
0
 10
-0.0040176973239345
 20
-4.9538129150649262
 30
0.0
 40
0.7656678747152985
 50
205.5538295428326876
 51
270.3006501435182258
  0
ARC
  5
13699
  8
0
 10
-2.1686245118476162
 20
-7.9508769724150801
 30
0.0
 40
5.192656081247792
 50
86.4028593887282739
 51
90.7798474950198369
  0
LINE
  5
1369A
  8
0
 10
-0.8085737803517024
 20
-2.5071048493476691
 30
0.0
 11
-0.8085737803517024
 21
-4.7821547824318884
 31
0.0
  0
ENDBLK
  5
1369E
  8
0
  0
ENDSEC
  0
SECTION
  2
ENTITIES
  0
ATTDEF
  5
1BF3F
  8
DEFPOINTS
 10
3447.4918193528928896
 20
134.7636137097624953
 30
0.0
 40
0.001
  1
K-97826T-4
  3

  2
MODELNUMBER
 70
     0
1001
ACDBATTR
1070
     0
1070
     1
  0
ATTDEF
  5
1BF40
  8
DEFPOINTS
 10
3447.4918193528928896
 20
134.761947043095887
 30
0.0
 40
0.001
  1
ALEO
  3

  2
TRADENAME
 70
     0
1001
ACDBATTR
1070
     0
1070
     1
  0
ATTDEF
  5
1BF41
  8
DEFPOINTS
 10
3447.4918193528928896
 20
134.7602803764291934
 30
0.0
 40
0.001
  1
BATH AND SHOWER FAUCET
  3

  2
PRODUCT
 70
     0
1001
ACDBATTR
1070
     0
1070
     1
  0
LINE
  5
1C812
  8
0
 10
3446.9994880078370443
 20
136.875295095853005
 30
0.0
 11
3446.9994880078370443
 21
136.8359250171529879
 31
0.0
  0
LINE
  5
1C813
  8
0
 10
3446.9994880078370443
 20
136.8359250171529879
 30
0.0
 11
3447.9837399763359826
 21
136.8359250171529879
 31
0.0
  0
LINE
  5
1C814
  8
0
 10
3447.9837399763359826
 20
136.8359250171529879
 30
0.0
 11
3447.9837399763359826
 21
136.875295095853005
 31
0.0
  0
LINE
  5
1C815
  8
0
 10
3446.9994880078370443
 20
136.875295095853005
 30
0.0
 11
3447.9837399763359826
 21
136.875295095853005
 31
0.0
  0
LINE
  5
1C816
  8
0
 10
3447.9837399762368477
 20
168.163499744105593
 30
0.0
 11
3447.9837399762368477
 21
168.509153363653013
 31
0.0
  0
ARC
  5
1C817
  8
0
 10
3447.9738974565370881
 20
136.885137615552992
 30
0.0
 40
0.0098425197000047
 50
270.0
 51
0.0
  0
ARC
  5
1C818
  8
0
 10
3447.0093305273371698
 20
136.885137615552992
 30
0.0
 40
0.0098425197000047
 50
180.0
 51
270.0
  0
LINE
  5
1C819
  8
0
 10
3446.9994880077369999
 20
137.5052163557529923
 30
0.0
 11
3447.9837399763359826
 21
137.5052163557529923
 31
0.0
  0
LINE
  5
1C81A
  8
0
 10
3446.8617076927371272
 20
168.509153363653013
 30
0.0
 11
3448.1215202912371751
 21
168.509153363653013
 31
0.0
  0
LINE
  5
1C81B
  8
0
 10
3446.8617076927371272
 20
169.7493108439529124
 30
0.0
 11
3448.1215202912371751
 21
169.7493108439529124
 31
0.0
  0
LINE
  5
1C81C
  8
0
 10
3446.8420076927368427
 20
168.5288533636530133
 30
0.0
 11
3446.8420076927368427
 21
169.7296108439529121
 31
0.0
  0
LINE
  5
1C81D
  8
0
 10
3448.1412202912370049
 20
169.7296108439529121
 30
0.0
 11
3448.1412202912370049
 21
168.5288533636530133
 31
0.0
  0
ARC
  5
1C81E
  8
0
 10
3448.1215202912371751
 20
168.5288533636530133
 30
0.0
 40
0.0197
 50
270.0
 51
0.0
  0
ARC
  5
1C81F
  8
0
 10
3446.8617076927371272
 20
168.5288533636530133
 30
0.0
 40
0.0197
 50
179.9999999999901945
 51
270.0
  0
ARC
  5
1C820
  8
0
 10
3446.8617076927371272
 20
169.7296108439529121
 30
0.0
 40
0.0197
 50
90.0
 51
179.9999999999901945
  0
ARC
  5
1C821
  8
0
 10
3448.1215202912371751
 20
169.7296108439529121
 30
0.0
 40
0.0197
 50
0.0
 51
90.0
  0
LINE
  5
1C822
  8
0
 10
3448.1215202912371751
 20
169.8124564411529036
 30
0.0
 11
3446.8617076927371272
 21
169.8124564411529036
 31
0.0
  0
LINE
  5
1C823
  8
0
 10
3448.1215202912371751
 20
170.2848973860529895
 30
0.0
 11
3446.8617076927371272
 21
170.2848973860529895
 31
0.0
  0
LINE
  5
1C824
  8
0
 10
3446.8420076927368427
 20
170.2651973860529893
 30
0.0
 11
3446.8420076927368427
 21
169.8321564411529039
 31
0.0
  0
LINE
  5
1C825
  8
0
 10
3448.1412202912370049
 20
169.8321564411529039
 30
0.0
 11
3448.1412202912370049
 21
170.2651973860529893
 31
0.0
  0
ARC
  5
1C826
  8
0
 10
3448.1215202912371751
 20
169.8321564411529039
 30
0.0
 40
0.0197
 50
269.9999999999739089
 51
0.0
  0
ARC
  5
1C827
  8
0
 10
3448.1215202912371751
 20
170.2651973860529893
 30
0.0
 40
0.0197
 50
0.0
 51
90.0
  0
ARC
  5
1C828
  8
0
 10
3446.8617076927371272
 20
170.2651973860529893
 30
0.0
 40
0.0197
 50
89.9999999999739515
 51
179.9999999999901945
  0
ARC
  5
1C829
  8
0
 10
3446.8617076927371272
 20
169.8321564411529039
 30
0.0
 40
0.0197
 50
179.9999999999901945
 51
270.0
  0
LINE
  5
1C82A
  8
0
 10
3445.660910511421207
 20
159.3307941542176138
 30
0.0
 11
3446.9089270468211907
 21
159.3307941542176138
 31
0.0
  0
LINE
  5
1C82B
  8
0
 10
3448.074281377520947
 20
159.3307941542176138
 30
0.0
 11
3448.3198169895581486
 21
159.3307941542176138
 31
0.0
  0
LINE
  5
1C82C
  8
0
 10
3448.3616042122198451
 20
159.3307941542176138
 30
0.0
 11
3449.6025473707618403
 21
159.3276633281228953
 31
0.0
  0
LINE
  5
1C82D
  8
0
 10
3445.660910511421207
 20
160.9055973038175864
 30
0.0
 11
3446.1492881368399139
 21
160.9055973038175864
 31
0.0
  0
LINE
  5
1C82E
  8
0
 10
3446.7867597163981372
 20
160.9055973038175864
 30
0.0
 11
3446.9089270468211907
 21
160.9055973038175864
 31
0.0
  0
LINE
  5
1C82F
  8
0
 10
3448.074281377520947
 20
160.9055973038175864
 30
0.0
 11
3448.3198169895581486
 21
160.9055973038175864
 31
0.0
  0
LINE
  5
1C830
  8
0
 10
3448.3616042122198451
 20
160.9055973038175864
 30
0.0
 11
3448.9393031629601865
 21
160.9055973038175864
 31
0.0
  0
LINE
  5
1C831
  8
0
 10
3445.6412105114200131
 20
160.8858973038175861
 30
0.0
 11
3445.6412105114200131
 21
159.3504941542176141
 31
0.0
  0
ARC
  5
1C832
  8
0
 10
3445.660910511421207
 20
160.8858973038175861
 30
0.0
 40
0.0197
 50
90.0
 51
180.0000000000048885
  0
ARC
  5
1C833
  8
0
 10
3445.660910511421207
 20
159.3504941542176141
 30
0.0
 40
0.0197
 50
180.0
 51
270.0
  0
LINE
  5
1C834
  8
0
 10
3446.2238768481638544
 20
161.071765527354188
 30
0.0
 11
3446.1796578258640693
 21
160.8944127155506862
 31
0.0
  0
LINE
  5
1C835
  8
0
 10
3446.8119859166408787
 20
161.0622338046646007
 30
0.0
 11
3446.7717445401799523
 21
160.900834459566795
 31
0.0
  0
LINE
  5
1C836
  8
0
 10
3446.2429916739720284
 20
161.0866996660176085
 30
0.0
 11
3446.7928710908349785
 21
161.0866996660176085
 31
0.0
  0
ARC
  5
1C837
  8
0
 10
3446.2429916739720284
 20
161.0669996660176082
 30
0.0
 40
0.0197
 50
90.0
 51
166.0000000203035029
  0
ARC
  5
1C838
  8
0
 10
3446.7928710908349785
 20
161.0669996660176082
 30
0.0
 40
0.0197
 50
345.9999999707665097
 51
89.9999999999739515
  0
ARC
  5
1C839
  8
0
 10
3446.4680239266199351
 20
161.6054689185529014
 30
0.0
 40
0.7673043280813433
 50
246.1089495454249914
 51
293.8910504545750086
  0
ARC
  5
1C83A
  8
0
 10
3446.1492881368399139
 20
160.8858973038175861
 30
0.0
 40
0.0197
 50
66.1089495454249629
 51
90.0
  0
ARC
  5
1C83B
  8
0
 10
3446.7867597163981372
 20
160.8858973038173872
 30
0.0
 40
0.0197
 50
90.0000000000521254
 51
113.8910504544051037
  0
LINE
  5
1C83C
  8
0
 10
3446.9089270468211907
 20
159.2914390361175947
 30
0.0
 11
3446.9089270468211907
 21
159.3307941542176138
 31
0.0
  0
LINE
  5
1C83D
  8
0
 10
3448.0073515069270798
 20
159.2717390361175944
 30
0.0
 11
3448.0545813775211172
 21
159.2717390361175944
 31
0.0
  0
ARC
  5
1C83E
  8
0
 10
3447.7255161262460206
 20
158.1290776983640001
 30
0.0
 40
1.3634445130815209
 50
109.3430060945889011
 51
122.8201632191269965
  0
ARC
  5
1C83F
  8
0
 10
3447.490858527961791
 20
158.7975457041897016
 30
0.0
 40
0.6549858599164406
 50
72.8284495071064839
 51
109.3430060945889011
  0
ARC
  5
1C840
  8
0
 10
3447.2580990402448151
 20
158.1234500638973088
 30
0.0
 40
1.3679517927982701
 50
57.3202611870034175
 51
71.849626785226917
  0
ARC
  5
1C841
  8
0
 10
3448.0073515069270798
 20
159.2914390361175094
 30
0.0
 40
0.0197
 50
237.320261186913001
 51
270.0000000000259774
  0
LINE
  5
1C842
  8
0
 10
3446.9758462892082207
 20
159.2717390361175944
 30
0.0
 11
3446.9286270468210205
 21
159.2717390361175944
 31
0.0
  0
ARC
  5
1C843
  8
0
 10
3446.9758462892082207
 20
159.2914390361177084
 30
0.0
 40
0.0197
 50
270.0000000000259774
 51
302.8201632190891814
  0
ARC
  5
1C844
  8
0
 10
3446.9286270468210205
 20
159.2914390361175947
 30
0.0
 40
0.0197
 50
179.9999999999901945
 51
270.0
  0
LINE
  5
1C845
  8
0
 10
3448.074281377520947
 20
159.2914390361175947
 30
0.0
 11
3448.074281377520947
 21
159.3307941542176138
 31
0.0
  0
ARC
  5
1C846
  8
0
 10
3448.0545813775211172
 20
159.2914390361175947
 30
0.0
 40
0.0197
 50
269.9999999999739089
 51
0.0000000000048853
  0
ARC
  5
1C847
  8
0
 10
3448.1757328421149396
 20
157.5019432822033991
 30
0.0
 40
2.2247454764669699
 50
119.7867868054926959
 51
124.7095156102094933
  0
ARC
  5
1C848
  8
0
 10
3447.6678036612261167
 20
158.3893120838577886
 30
0.0
 40
1.202289881856756
 50
107.600825220291398
 51
119.7867868054926959
  0
ARC
  5
1C849
  8
0
 10
3447.4924866069550262
 20
158.9419538469219901
 30
0.0
 40
0.6225063120649317
 50
70.558044590053413
 51
107.600825220291398
  0
ARC
  5
1C84A
  8
0
 10
3447.2344441980289957
 20
158.2109117684908881
 30
0.0
 40
1.397753630822772
 50
56.135273432013939
 51
70.558044590053413
  0
ARC
  5
1C84B
  8
0
 10
3459.3018228406149319
 20
176.192969372367287
 30
0.0
 40
20.2581006116835916
 50
236.1352734320138893
 51
236.3426634909947097
  0
LINE
  5
1C84C
  8
0
 10
3446.9089270468211907
 20
160.9449524219176055
 30
0.0
 11
3446.9089270468211907
 21
160.9055973038175864
 31
0.0
  0
LINE
  5
1C84D
  8
0
 10
3448.0073515069270798
 20
160.9646524219176058
 30
0.0
 11
3448.0545813775211172
 21
160.9646524219176058
 31
0.0
  0
ARC
  5
1C84E
  8
0
 10
3447.7255161262460206
 20
162.1073137596712002
 30
0.0
 40
1.3634445130815209
 50
237.1798367808511045
 51
250.6569939054110989
  0
ARC
  5
1C84F
  8
0
 10
3447.490858527961791
 20
161.4388457538456123
 30
0.0
 40
0.6549858599164406
 50
250.6569939054110989
 51
287.1715504928935161
  0
ARC
  5
1C850
  8
0
 10
3447.2580990402448151
 20
162.1129413941378914
 30
0.0
 40
1.3679517927982701
 50
288.150373214773083
 51
302.679738812996618
  0
ARC
  5
1C851
  8
0
 10
3448.0073515069270798
 20
160.9449524219176908
 30
0.0
 40
0.0197
 50
89.9999999999739515
 51
122.679738813086999
  0
LINE
  5
1C852
  8
0
 10
3446.9758462892082207
 20
160.9646524219176058
 30
0.0
 11
3446.9286270468210205
 21
160.9646524219176058
 31
0.0
  0
ARC
  5
1C853
  8
0
 10
3446.9758462892082207
 20
160.9449524219176055
 30
0.0
 40
0.0197
 50
57.1798367809107972
 51
89.9999999999739515
  0
ARC
  5
1C854
  8
0
 10
3446.9286270468210205
 20
160.9449524219176055
 30
0.0
 40
0.0197
 50
89.9999999999739515
 51
180.0000000000098055
  0
LINE
  5
1C855
  8
0
 10
3448.074281377520947
 20
160.9449524219176055
 30
0.0
 11
3448.074281377520947
 21
160.9055973038175864
 31
0.0
  0
ARC
  5
1C856
  8
0
 10
3448.0545813775211172
 20
160.9449524219176055
 30
0.0
 40
0.0197
 50
359.9999999999951115
 51
90.0
  0
ARC
  5
1C857
  8
0
 10
3448.1757328421149396
 20
162.7344481758318011
 30
0.0
 40
2.2247454764669699
 50
235.2904843897904072
 51
240.2132131945072899
  0
ARC
  5
1C858
  8
0
 10
3447.6678036612261167
 20
161.8470793741774116
 30
0.0
 40
1.202289881856756
 50
240.2132131945072899
 51
252.3991747797080052
  0
ARC
  5
1C859
  8
0
 10
3447.4924866069550262
 20
161.2944376111132954
 30
0.0
 40
0.6225063120649317
 50
252.3991747797080052
 51
289.4419554099465017
  0
ARC
  5
1C85A
  8
0
 10
3447.2344441980289957
 20
162.0254796895443974
 30
0.0
 40
1.397753630822772
 50
289.4419554099465017
 51
303.864726567985997
  0
ARC
  5
1C85B
  8
0
 10
3459.3018228406149319
 20
144.0434220856679133
 30
0.0
 40
20.2581006116835916
 50
123.6573365090053045
 51
123.864726567985997
  0
LINE
  5
1C85C
  8
0
 10
3449.9368750594999256
 20
159.3384039846737892
 30
0.0
 11
3449.6025473707618403
 21
159.3276633281228101
 31
0.0
  0
LINE
  5
1C85D
  8
0
 10
3449.9570062921211502
 20
159.3589986504186982
 30
0.0
 11
3449.9570062921211502
 21
160.606265470906493
 31
0.0
  0
ARC
  5
1C85E
  8
0
 10
3449.9364062921199547
 20
159.3589986504186982
 30
0.0
 40
0.0206
 50
271.3039180072203749
 51
0.0
  0
LINE
  5
1C85F
  8
0
 10
3448.3616042122198451
 20
159.3307941542176138
 30
0.0
 11
3448.3616042122198451
 21
160.9055973038175864
 31
0.0
  0
LINE
  5
1C860
  8
0
 10
3448.3198169895581486
 20
160.7992980912175938
 30
0.0
 11
3448.3616042122198451
 21
160.7992980912175938
 31
0.0
  0
LINE
  5
1C861
  8
0
 10
3448.3198169895581486
 20
159.4370933668176065
 30
0.0
 11
3448.3616042122198451
 21
159.4370933668176065
 31
0.0
  0
ARC
  5
1C862
  8
0
 10
3447.491613992036946
 20
169.1292321037529973
 30
0.0
 40
1.2401574802999991
 50
108.5094049816960933
 51
111.2718185656579948
  0
ARC
  5
1C863
  8
0
 10
3447.491613992036946
 20
169.1292321037529973
 30
0.0
 40
1.2401574802999991
 50
121.5881355103739025
 51
246.6201318815780041
  0
ARC
  5
1C864
  8
0
 10
3447.491613992036946
 20
169.1292321037529973
 30
0.0
 40
1.2401574802999991
 50
325.4794081183197818
 51
58.4118644950643784
  0
ARC
  5
1C865
  8
0
 10
3447.491613992036946
 20
169.1292321037529973
 30
0.0
 40
1.2401574802999991
 50
68.728181434341991
 51
71.4905950183039351
  0
LINE
  5
1C866
  8
0
 10
3447.097913204636825
 20
183.4894683243030045
 30
0.0
 11
3447.8853147793370226
 21
183.4894683243030045
 31
0.0
  0
LINE
  5
1C867
  8
0
 10
3447.1274407636369688
 20
183.3713580974529975
 30
0.0
 11
3447.1274407636369688
 21
183.4894683243030045
 31
0.0
  0
ARC
  5
1C868
  8
0
 10
3447.491613992036946
 20
186.2453738361029991
 30
0.0
 40
0.3937007873999967
 50
90.0000000072693638
 51
180.0
  0
ARC
  5
1C869
  8
0
 10
3449.4362166365967823
 20
161.1176156908616122
 30
0.0
 40
0.595795150378115
 50
292.273194850623895
 51
305.8252483892331952
  0
ARC
  5
1C86A
  8
0
 10
3449.4978139432000717
 20
160.9672255696584955
 30
0.0
 40
0.4332792535058774
 50
261.9624231666895184
 51
292.273194850623895
  0
ARC
  5
1C86B
  8
0
 10
3449.5175453208448744
 20
161.0286821564357069
 30
0.0
 40
0.4970115352014585
 50
234.3836138589257132
 51
260.7006290632227206
  0
ARC
  5
1C86C
  8
0
 10
3484.584162799772912
 20
221.2080808911343013
 30
0.0
 40
70.1455870751332498
 50
239.6218235465528892
 51
239.7324738136734936
  0
LINE
  5
1C86D
  8
0
 10
3448.0427950943371798
 20
169.8124564411529036
 30
0.0
 11
3448.0427950943371798
 21
169.7493108439529124
 31
0.0
  0
LINE
  5
1C86E
  8
0
 10
3446.9404328896362131
 20
169.7493108439529124
 30
0.0
 11
3446.9404328896362131
 21
169.8124564411529036
 31
0.0
  0
ARC
  5
1C86F
  8
0
 10
3447.7847848108099242
 20
162.206785299495408
 30
0.0
 40
1.536017263469627
 50
235.2348856214711077
 51
249.1855189733319094
  0
ARC
  5
1C870
  8
0
 10
3447.4918330834848348
 20
161.437674129527494
 30
0.0
 40
0.713003234503237
 50
249.228434801546797
 51
280.6531204054195996
  0
ARC
  5
1C871
  8
0
 10
3447.3026228918388369
 20
162.0246634017026963
 30
0.0
 40
1.3271143953682829
 50
283.9982102574851979
 51
305.5530076688895065
  0
ARC
  5
1C872
  8
0
 10
3447.7798807123490406
 20
158.0360321437956941
 30
0.0
 40
1.527941999156734
 50
110.0647313337678952
 51
124.7514454986413028
  0
ARC
  5
1C873
  8
0
 10
3447.4904783565229991
 20
158.8261193832883862
 30
0.0
 40
0.6865204400891524
 50
73.9224359996195375
 51
110.0002272433976032
  0
ARC
  5
1C874
  8
0
 10
3447.2400917459608536
 20
158.0975808809612886
 30
0.0
 40
1.4564235771351841
 50
55.0566797451488696
 51
72.3945581883784541
  0
LINE
  5
1C875
  8
0
 10
3447.0623400386061803
 20
169.8124564411529036
 30
0.0
 11
3447.0623400386061803
 21
170.2848973860529895
 31
0.0
  0
LINE
  5
1C876
  8
0
 10
3446.9994880077369999
 20
136.816239977753014
 30
0.0
 11
3447.9837399763359826
 21
136.816239977753014
 31
0.0
  0
ARC
  5
1C877
  8
0
 10
3449.5087003651988198
 20
161.1559096165435108
 30
0.0
 40
0.6219882859182841
 50
203.7307378262462976
 51
216.1771806741352862
  0
ARC
  5
1C878
  8
0
 10
3449.2535658326210068
 20
160.9534922409283126
 30
0.0
 40
0.2968366709487893
 50
213.7079649204046063
 51
241.3344582596484997
  0
LINE
  5
1C879
  8
0
 10
3449.7849444915218555
 20
160.6345414269920013
 30
0.0
 11
3449.9570062921211502
 21
160.606265470906493
 31
0.0
  0
LINE
  5
1C87A
  8
0
 10
3448.3198169895581486
 20
160.9055973038175864
 30
0.0
 11
3448.3198169895581486
 21
159.3307941542176138
 31
0.0
  0
LINE
  5
1C87B
  8
0
 10
3446.7731100549858638
 20
181.2245391903830978
 30
0.0
 11
3446.7731100549858638
 21
182.3032793478529925
 31
0.0
  0
LINE
  5
1C87C
  8
0
 10
3446.7731100549858638
 20
182.3032793478529925
 30
0.0
 11
3448.2101179290862092
 21
182.3032793478529925
 31
0.0
  0
LINE
  5
1C87D
  8
0
 10
3447.287752622186872
 20
181.8308384029529918
 30
0.0
 11
3447.287752622186872
 21
182.3032793478529925
 31
0.0
  0
LINE
  5
1C87E
  8
0
 10
3447.287752622186872
 20
181.8308384029529918
 30
0.0
 11
3447.69547536188702
 21
181.8308384029529918
 31
0.0
  0
LINE
  5
1C87F
  8
0
 10
3447.8557872203368788
 20
183.3713580974529975
 30
0.0
 11
3447.1274407636369688
 21
183.3713580974529975
 31
0.0
  0
LINE
  5
1C880
  8
0
 10
3447.1274407636369688
 20
183.3713580974529975
 30
0.0
 11
3447.0782281651368066
 21
183.3221455003528888
 31
0.0
  0
LINE
  5
1C881
  8
0
 10
3447.0782281651368066
 20
183.3221455003528888
 30
0.0
 11
3447.0782281651368066
 21
183.2796573006529002
 31
0.0
  0
LINE
  5
1C882
  8
0
 10
3447.023425019187016
 20
183.2796573006530139
 30
0.0
 11
3447.9598029684871108
 21
183.2796573006530139
 31
0.0
  0
ARC
  5
1C883
  8
0
 10
3447.0234250155858717
 20
183.2596573006530036
 30
0.0
 40
0.0199999999999999
 50
89.9999896867645361
 51
180.0
  0
LINE
  5
1C884
  8
0
 10
3447.0034250155858899
 20
183.2596573006530036
 30
0.0
 11
3447.0034250155858899
 21
183.1517045446530005
 31
0.0
  0
LINE
  5
1C885
  8
0
 10
3447.0034250155858899
 20
183.1517045446530005
 30
0.0
 11
3447.0447635982868633
 21
183.1103659620530095
 31
0.0
  0
LINE
  5
1C886
  8
0
 10
3447.0447635982868633
 20
183.1103659620530095
 30
0.0
 11
3447.0447635982650354
 21
182.6117706580980951
 31
0.0
  0
ARC
  5
1C887
  8
0
 10
3447.2317714717428316
 20
182.742805612240403
 30
0.0
 40
0.2283464559601202
 50
215.018628235121497
 51
248.0877878012501867
  0
ARC
  5
1C888
  8
0
 10
3447.1204328894918945
 20
182.4660126789075889
 30
0.0
 40
0.070000000094667
 50
309.3709896796016778
 51
68.0877876768406765
  0
ARC
  5
1C889
  8
0
 10
3447.4994880077870221
 20
182.0040667494529885
 30
0.0
 40
0.5275590551000331
 50
129.3709895358958022
 51
145.4348305407042119
  0
LINE
  5
1C88A
  8
0
 10
3447.8557872203368788
 20
183.3713580974529975
 30
0.0
 11
3447.8557872203368788
 21
183.4894683243030045
 31
0.0
  0
ARC
  5
1C88B
  8
0
 10
3447.4916139919369016
 20
186.2453738361029991
 30
0.0
 40
0.3937007873999967
 50
0.0
 51
89.9999999927306362
  0
LINE
  5
1C88C
  8
0
 10
3448.2101179290862092
 20
181.2245391905433962
 30
0.0
 11
3448.2101179290862092
 21
182.3032793478529925
 31
0.0
  0
LINE
  5
1C88D
  8
0
 10
3447.69547536188702
 20
181.8308384029529918
 30
0.0
 11
3447.69547536188702
 21
182.3032793478529925
 31
0.0
  0
LINE
  5
1C88E
  8
0
 10
3447.8557872203368788
 20
183.3713580974529975
 30
0.0
 11
3447.9049998188370409
 21
183.3221455003528888
 31
0.0
  0
LINE
  5
1C88F
  8
0
 10
3447.9049998188370409
 20
183.3221455003528888
 30
0.0
 11
3447.9049998188370409
 21
183.2796573006529002
 31
0.0
  0
ARC
  5
1C890
  8
0
 10
3447.9598029684871108
 20
183.2596573006530036
 30
0.0
 40
0.0199999999999999
 50
0.0
 51
90.0000103132354639
  0
LINE
  5
1C891
  8
0
 10
3447.9798029684861831
 20
183.2596573006530036
 30
0.0
 11
3447.9798029684861831
 21
183.1517045446530005
 31
0.0
  0
LINE
  5
1C892
  8
0
 10
3447.9798029684861831
 20
183.1517045446530005
 30
0.0
 11
3447.9384643857861192
 21
183.1103659620530095
 31
0.0
  0
LINE
  5
1C893
  8
0
 10
3447.9384643857861192
 20
183.1103659620530095
 30
0.0
 11
3447.9384643858088566
 21
182.6117706580980951
 31
0.0
  0
ARC
  5
1C894
  8
0
 10
3447.7514565123310604
 20
182.742805612240403
 30
0.0
 40
0.2283464559601202
 50
291.9122121987497849
 51
324.9813717648784746
  0
ARC
  5
1C895
  8
0
 10
3447.8627950945810881
 20
182.4660126789075889
 30
0.0
 40
0.070000000094667
 50
111.9122123231592951
 51
230.629010320397299
  0
ARC
  5
1C896
  8
0
 10
3447.4837399762859604
 20
182.0040667494529885
 30
0.0
 40
0.5275590551000331
 50
34.565169459295781
 51
50.6290104641042191
  0
LINE
  5
1C897
  8
0
 10
3447.8853147793370226
 20
186.2453738361029991
 30
0.0
 11
3447.8853147793370226
 21
183.3418305392929142
 31
0.0
  0
LINE
  5
1C898
  8
0
 10
3447.8853147793370226
 20
182.5523549313141984
 30
0.0
 11
3447.8853147793370226
 21
182.3552399102568984
 31
0.0
  0
LINE
  5
1C899
  8
0
 10
3447.8853147793370226
 20
180.8815414892048068
 30
0.0
 11
3447.8853147793370226
 21
170.2848973860529895
 31
0.0
  0
LINE
  5
1C89A
  8
0
 10
3447.9837399763359826
 20
165.9733418086954089
 30
0.0
 11
3447.9837399763359826
 21
160.9533132902664079
 31
0.0
  0
LINE
  5
1C89B
  8
0
 10
3447.9837399763359826
 20
159.2830781677687924
 30
0.0
 11
3447.9837399763359826
 21
139.2493108438530101
 31
0.0
  0
LINE
  5
1C89C
  8
0
 10
3447.9837399763359826
 20
139.2374998202529923
 30
0.0
 11
3447.9837399763359826
 21
136.885137615552992
 31
0.0
  0
LINE
  5
1C89D
  8
0
 10
3446.9994880076360459
 20
159.2831418695612911
 30
0.0
 11
3446.9994880076360459
 21
139.2493108438530101
 31
0.0
  0
LINE
  5
1C89E
  8
0
 10
3446.9994880076360459
 20
139.2374998202529923
 30
0.0
 11
3446.9994880076360459
 21
136.885137615552992
 31
0.0
  0
LINE
  5
1C89F
  8
0
 10
3446.9994880076360459
 20
168.509153363653013
 30
0.0
 11
3446.9994880076360459
 21
160.9533132902664079
 31
0.0
  0
LINE
  5
1C8A0
  8
0
 10
3447.097913204636825
 20
180.8815414913393056
 30
0.0
 11
3447.097913204636825
 21
170.2848973860529895
 31
0.0
  0
LINE
  5
1C8A1
  8
0
 10
3447.097913204636825
 20
186.2453738361029991
 30
0.0
 11
3447.097913204636825
 21
183.3418305392929142
 31
0.0
  0
LINE
  5
1C8A2
  8
0
 10
3447.097913204636825
 20
182.5523622272403088
 30
0.0
 11
3447.097913204636825
 21
182.3552275454046878
 31
0.0
  0
LINE
  5
1C8A3
  8
0
 10
3447.0761776403369367
 20
136.8359250171529879
 30
0.0
 11
3447.0761776403369367
 21
136.816239977753014
 31
0.0
  0
LINE
  5
1C8A4
  8
0
 10
3447.9070503438360902
 20
136.8359250171529879
 30
0.0
 11
3447.9070503438360902
 21
136.816239977753014
 31
0.0
  0
ARC
  5
1C8A5
  8
0
 10
3450.3948686104058652
 20
166.102688270030086
 30
0.0
 40
0.0158605807137526
 50
324.2394184961818269
 51
67.0033838462698981
  0
ARC
  5
1C8A6
  8
0
 10
3450.365971270260161
 20
166.1317571596580933
 30
0.0
 40
0.0566950177214783
 50
246.4731974511296073
 51
317.4517227797338137
  0
ARC
  5
1C8A7
  8
0
 10
3450.3477978218429598
 20
166.0951269999528961
 30
0.0
 40
0.0159861554976066
 50
152.4446030863057047
 51
253.8076090149448021
  0
ARC
  5
1C8A8
  8
0
 10
3450.3764298074320322
 20
166.0684131584528984
 30
0.0
 40
0.0547327900958636
 50
63.2499767706408633
 51
141.4502634687277975
  0
ARC
  5
1C8A9
  8
0
 10
3450.4375741657058825
 20
166.1162372146278869
 30
0.0
 40
0.0486730783452054
 50
319.1578359819349089
 51
61.2885480124258066
  0
ARC
  5
1C8AA
  8
0
 10
3450.3584870580370989
 20
166.1910294875185059
 30
0.0
 40
0.1574910575545338
 50
242.5655543709669928
 51
317.3893934999989028
  0
ARC
  5
1C8AB
  8
0
 10
3450.30955791442193
 20
166.098285461092388
 30
0.0
 40
0.0526384696859408
 50
150.5540833620383978
 51
243.3234032705927916
  0
ARC
  5
1C8AC
  8
0
 10
3450.3838933586080202
 20
166.0192449947819
 30
0.0
 40
0.1595290558649843
 50
61.1140649164381173
 51
138.8775098927004024
  0
LINE
  5
1C8AD
  8
0
 10
3450.4862469382260315
 20
166.1164097570724891
 30
0.0
 11
3450.4903782012279407
 21
166.1595281340088093
 31
0.0
  0
ARC
  5
1C8AE
  8
0
 10
3450.4514001409679622
 20
166.1445385474522993
 30
0.0
 40
0.0417609493044361
 50
328.0191707770692915
 51
29.0545641892040116
  0
ARC
  5
1C8AF
  8
0
 10
3450.3954376090309779
 20
166.0793999242575865
 30
0.0
 40
0.1258843011852876
 50
42.7308816232725732
 51
91.8063237887285766
  0
ARC
  5
1C8B0
  8
0
 10
3450.3800605863198143
 20
166.0421419040602018
 30
0.0
 40
0.1634783664592842
 50
85.9981239425629553
 51
136.4914950191663934
  0
ARC
  5
1C8B1
  8
0
 10
3450.2969224748358101
 20
166.1227330530668098
 30
0.0
 40
0.0477120670867652
 50
137.9483835643085001
 51
213.0788411731743963
  0
LINE
  5
1C8B2
  8
0
 10
3450.256937139990896
 20
166.0969206940127947
 30
0.0
 11
3450.253353319802045
 21
166.1421796485346931
 31
0.0
  0
ARC
  5
1C8B3
  8
0
 10
3450.8272288761331765
 20
166.2337434688409985
 30
0.0
 40
0.0102232792820635
 50
320.1661347978127878
 51
69.0763881104431903
  0
ARC
  5
1C8B4
  8
0
 10
3450.80584664561502
 20
166.2515798934275892
 30
0.0
 40
0.0380681679321529
 50
253.6225302683155007
 51
320.1661347978115941
  0
ARC
  5
1C8B5
  8
0
 10
3450.7983498492758372
 20
166.2260709348543912
 30
0.0
 40
0.0114804090412692
 50
147.6195894756762073
 51
253.6225302683149891
  0
ARC
  5
1C8B6
  8
0
 10
3450.8177417160600271
 20
166.2073473777331003
 30
0.0
 40
0.0382709979693845
 50
69.9224314584453168
 51
139.4670564415270917
  0
ARC
  5
1C8B7
  8
0
 10
3450.8482748468009049
 20
166.2455753221724137
 30
0.0
 40
0.0278277611967817
 50
318.0431887654643788
 51
56.5040373540970933
  0
ARC
  5
1C8B8
  8
0
 10
3450.8005179105671232
 20
166.2827964443918063
 30
0.0
 40
0.0883293699154341
 50
246.1535248913158114
 51
320.8006819835379133
  0
ARC
  5
1C8B9
  8
0
 10
3450.7783808232998126
 20
166.2288331869442004
 30
0.0
 40
0.0300640914076377
 50
144.4852524984854085
 51
243.1612748828532915
  0
ARC
  5
1C8BA
  8
0
 10
3450.8232858420678895
 20
166.1867062155619124
 30
0.0
 40
0.0914560481217059
 50
63.8222294724333068
 51
139.3386335615788028
  0
LINE
  5
1C8BB
  8
0
 10
3450.8760352457470617
 20
166.2475104044906118
 30
0.0
 11
3450.8813184232321873
 21
166.3139231883330922
 31
0.0
  0
ARC
  5
1C8BC
  8
0
 10
3450.8596864730097877
 20
166.296578023975087
 30
0.0
 40
0.0277271707354273
 50
312.1796146265472771
 51
41.9374134521764788
  0
ARC
  5
1C8BD
  8
0
 10
3450.8305563062681358
 20
166.2342857833417042
 30
0.0
 40
0.0949102752243234
 50
58.382932761868517
 51
108.1448976636943939
  0
ARC
  5
1C8BE
  8
0
 10
3450.8251209110298987
 20
166.215552705410289
 30
0.0
 40
0.1115626171787395
 50
102.4869038774720025
 51
136.8909041366659096
  0
ARC
  5
1C8BF
  8
0
 10
3450.7631378208129718
 20
166.2700650570650112
 30
0.0
 40
0.029171141471741
 50
131.8530034892214076
 51
231.5572467250892998
  0
LINE
  5
1C8C0
  8
0
 10
3450.7484853092341837
 20
166.2256539054320115
 30
0.0
 11
3450.7387286362600207
 21
166.2860383849645984
 31
0.0
  0
ARC
  5
1C8C1
  8
0
 10
3450.3007813671329131
 20
166.3362643795410065
 30
0.0
 40
0.0102232792820635
 50
320.1661347978127878
 51
69.0763881104431903
  0
ARC
  5
1C8C2
  8
0
 10
3450.2793991366152113
 20
166.3541008041277109
 30
0.0
 40
0.0380681679321529
 50
253.6225302683155007
 51
320.1661347978115941
  0
ARC
  5
1C8C3
  8
0
 10
3450.271902340276938
 20
166.3285918455543992
 30
0.0
 40
0.0114804090412692
 50
147.6195894756762073
 51
253.6225302683149891
  0
ARC
  5
1C8C4
  8
0
 10
3450.2912942070602185
 20
166.3098682884331083
 30
0.0
 40
0.0382709979693845
 50
69.9224314584453168
 51
139.4670564415270917
  0
ARC
  5
1C8C5
  8
0
 10
3450.3218273378010963
 20
166.3480962328723933
 30
0.0
 40
0.0278277611967817
 50
318.0431887654643788
 51
56.5040373540970933
  0
ARC
  5
1C8C6
  8
0
 10
3450.2740704015668598
 20
166.3853173550917859
 30
0.0
 40
0.0883293699154341
 50
246.1535248913158114
 51
320.8006819835379133
  0
ARC
  5
1C8C7
  8
0
 10
3450.251933314300004
 20
166.3313540976442084
 30
0.0
 40
0.0300640914076377
 50
144.4852524984854085
 51
243.1612748828532915
  0
ARC
  5
1C8C8
  8
0
 10
3450.2968383330680808
 20
166.289227126261892
 30
0.0
 40
0.0914560481217059
 50
63.8222294724333068
 51
139.3386335615788028
  0
LINE
  5
1C8C9
  8
0
 10
3450.3495877367467983
 20
166.3500313151905061
 30
0.0
 11
3450.354870914231924
 21
166.4164440990331002
 31
0.0
  0
ARC
  5
1C8CA
  8
0
 10
3450.3332389640099791
 20
166.3990989346750098
 30
0.0
 40
0.0277271707354273
 50
312.1796146265472771
 51
41.9374134521764788
  0
ARC
  5
1C8CB
  8
0
 10
3450.3041087972687819
 20
166.3368066940417123
 30
0.0
 40
0.0949102752243234
 50
58.382932761868517
 51
108.1448976636943939
  0
ARC
  5
1C8CC
  8
0
 10
3450.2986734020291806
 20
166.3180736161102118
 30
0.0
 40
0.1115626171787395
 50
102.4869038774720025
 51
136.8909041366659096
  0
ARC
  5
1C8CD
  8
0
 10
3450.2366903118131631
 20
166.3725859677649908
 30
0.0
 40
0.029171141471741
 50
131.8530034892214076
 51
231.5572467250892998
  0
LINE
  5
1C8CE
  8
0
 10
3450.2220378002339203
 20
166.3281748161319911
 30
0.0
 11
3450.2122811272588478
 21
166.3885592956646065
 31
0.0
  0
ARC
  5
1C8CF
  8
0
 10
3451.2295184896329374
 20
166.5364755835410051
 30
0.0
 40
0.0102232792820635
 50
320.1661347978127878
 51
69.0763881104431903
  0
ARC
  5
1C8D0
  8
0
 10
3451.2081362591147808
 20
166.5543120081277095
 30
0.0
 40
0.0380681679321529
 50
253.6225302683155007
 51
320.1661347978115941
  0
ARC
  5
1C8D1
  8
0
 10
3451.2006394627760528
 20
166.5288030495543978
 30
0.0
 40
0.0114804090412692
 50
147.6195894756762073
 51
253.6225302683149891
  0
ARC
  5
1C8D2
  8
0
 10
3451.220031329559788
 20
166.5100794924331069
 30
0.0
 40
0.0382709979693845
 50
69.9224314584453168
 51
139.4670564415270917
  0
ARC
  5
1C8D3
  8
0
 10
3451.2505644603011206
 20
166.5483074368723919
 30
0.0
 40
0.0278277611967817
 50
318.0431887654643788
 51
56.5040373540970933
  0
ARC
  5
1C8D4
  8
0
 10
3451.2028075240668841
 20
166.5855285590918129
 30
0.0
 40
0.0883293699154341
 50
246.1535248913158114
 51
320.8006819835379133
  0
ARC
  5
1C8D5
  8
0
 10
3451.1806704368000283
 20
166.531565301644207
 30
0.0
 40
0.0300640914076377
 50
144.4852524984854085
 51
243.1612748828532915
  0
ARC
  5
1C8D6
  8
0
 10
3451.2255754555681051
 20
166.4894383302618905
 30
0.0
 40
0.0914560481217059
 50
63.8222294724333068
 51
139.3386335615788028
  0
LINE
  5
1C8D7
  8
0
 10
3451.2783248592468226
 20
166.5502425191905047
 30
0.0
 11
3451.2836080367319482
 21
166.6166553030330988
 31
0.0
  0
ARC
  5
1C8D8
  8
0
 10
3451.2619760865100034
 20
166.5993101386750936
 30
0.0
 40
0.0277271707354273
 50
312.1796146265472771
 51
41.9374134521764788
  0
ARC
  5
1C8D9
  8
0
 10
3451.2328459197688062
 20
166.5370178980417109
 30
0.0
 40
0.0949102752243234
 50
58.382932761868517
 51
108.1448976636943939
  0
ARC
  5
1C8DA
  8
0
 10
3451.2274105245292048
 20
166.5182848201102104
 30
0.0
 40
0.1115626171787395
 50
102.4869038774720025
 51
136.8909041366659096
  0
ARC
  5
1C8DB
  8
0
 10
3451.1654274343131874
 20
166.5727971717649893
 30
0.0
 40
0.029171141471741
 50
131.8530034892214076
 51
231.5572467250892998
  0
LINE
  5
1C8DC
  8
0
 10
3451.1507749227339445
 20
166.5283860201319897
 30
0.0
 11
3451.1410182497588721
 21
166.588770499664605
 31
0.0
  0
ARC
  5
1C8DD
  8
0
 10
3450.9413141324830576
 20
166.7809509281410101
 30
0.0
 40
0.0102232792820635
 50
320.1661347978127878
 51
69.0763881104431903
  0
ARC
  5
1C8DE
  8
0
 10
3450.919931901964901
 20
166.7987873527276861
 30
0.0
 40
0.0380681679321529
 50
253.6225302683155007
 51
320.1661347978115941
  0
ARC
  5
1C8DF
  8
0
 10
3450.9124351056270825
 20
166.7732783941542891
 30
0.0
 40
0.0114804090412692
 50
147.6195894756762073
 51
253.6225302683149891
  0
ARC
  5
1C8E0
  8
0
 10
3450.9318269724099082
 20
166.7545548370331119
 30
0.0
 40
0.0382709979693845
 50
69.9224314584453168
 51
139.4670564415270917
  0
ARC
  5
1C8E1
  8
0
 10
3450.962360103150786
 20
166.7927827814723969
 30
0.0
 40
0.0278277611967817
 50
318.0431887654643788
 51
56.5040373540970933
  0
ARC
  5
1C8E2
  8
0
 10
3450.9146031669179138
 20
166.8300039036917894
 30
0.0
 40
0.0883293699154341
 50
246.1535248913158114
 51
320.8006819835379133
  0
ARC
  5
1C8E3
  8
0
 10
3450.8924660796501485
 20
166.776040646244212
 30
0.0
 40
0.0300640914076377
 50
144.4852524984854085
 51
243.1612748828532915
  0
ARC
  5
1C8E4
  8
0
 10
3450.9373710984168611
 20
166.7339136748618955
 30
0.0
 40
0.0914560481217059
 50
63.8222294724333068
 51
139.3386335615788028
  0
LINE
  5
1C8E5
  8
0
 10
3450.9901205020978523
 20
166.7947178637905097
 30
0.0
 11
3450.9954036795820684
 21
166.8611306476331038
 31
0.0
  0
ARC
  5
1C8E6
  8
0
 10
3450.9737717293610331
 20
166.8437854832750986
 30
0.0
 40
0.0277271707354273
 50
312.1796146265472771
 51
41.9374134521764788
  0
ARC
  5
1C8E7
  8
0
 10
3450.9446415626198359
 20
166.7814932426416874
 30
0.0
 40
0.0949102752243234
 50
58.382932761868517
 51
108.1448976636943939
  0
ARC
  5
1C8E8
  8
0
 10
3450.9392061673797798
 20
166.7627601647103006
 30
0.0
 40
0.1115626171787395
 50
102.4869038774720025
 51
136.8909041366659096
  0
ARC
  5
1C8E9
  8
0
 10
3450.8772230771628529
 20
166.8172725163649943
 30
0.0
 40
0.029171141471741
 50
131.8530034892214076
 51
231.5572467250892998
  0
LINE
  5
1C8EA
  8
0
 10
3450.8625705655840648
 20
166.7728613647319946
 30
0.0
 11
3450.8528138926099018
 21
166.83324584426461
 31
0.0
  0
ARC
  5
1C8EB
  8
0
 10
3451.0899347259410206
 20
167.200452448786308
 30
0.0
 40
0.0102232792820635
 50
320.1661347978127878
 51
69.0763881104431903
  0
ARC
  5
1C8EC
  8
0
 10
3451.068552495422864
 20
167.2182888733728987
 30
0.0
 40
0.0380681679321529
 50
253.6225302683155007
 51
320.1661347978115941
  0
ARC
  5
1C8ED
  8
0
 10
3451.0610556990850455
 20
167.192779914799587
 30
0.0
 40
0.0114804090412692
 50
147.6195894756762073
 51
253.6225302683149891
  0
ARC
  5
1C8EE
  8
0
 10
3451.0804475658678712
 20
167.1740563576784098
 30
0.0
 40
0.0382709979693845
 50
69.9224314584453168
 51
139.4670564415270917
  0
ARC
  5
1C8EF
  8
0
 10
3451.1109806966092037
 20
167.2122843021176095
 30
0.0
 40
0.0278277611967817
 50
318.0431887654643788
 51
56.5040373540970933
  0
ARC
  5
1C8F0
  8
0
 10
3451.0632237603758767
 20
167.2495054243370021
 30
0.0
 40
0.0883293699154341
 50
246.1535248913158114
 51
320.8006819835379133
  0
ARC
  5
1C8F1
  8
0
 10
3451.0410866731081114
 20
167.1955421668893962
 30
0.0
 40
0.0300640914076377
 50
144.4852524984854085
 51
243.1612748828532915
  0
ARC
  5
1C8F2
  8
0
 10
3451.0859916918761883
 20
167.1534151955071081
 30
0.0
 40
0.0914560481217059
 50
63.8222294724333068
 51
139.3386335615788028
  0
LINE
  5
1C8F3
  8
0
 10
3451.1387410955558153
 20
167.2142193844358076
 30
0.0
 11
3451.1440242730400314
 21
167.280632168278288
 31
0.0
  0
ARC
  5
1C8F4
  8
0
 10
3451.122392322818996
 20
167.2632870039203112
 30
0.0
 40
0.0277271707354273
 50
312.1796146265472771
 51
41.9374134521764788
  0
ARC
  5
1C8F5
  8
0
 10
3451.0932621560777989
 20
167.2009947632869
 30
0.0
 40
0.0949102752243234
 50
58.382932761868517
 51
108.1448976636943939
  0
ARC
  5
1C8F6
  8
0
 10
3451.0878267608381975
 20
167.1822616853555132
 30
0.0
 40
0.1115626171787395
 50
102.4869038774720025
 51
136.8909041366659096
  0
ARC
  5
1C8F7
  8
0
 10
3451.0258436706221801
 20
167.2367740370102069
 30
0.0
 40
0.029171141471741
 50
131.8530034892214076
 51
231.5572467250892998
  0
LINE
  5
1C8F8
  8
0
 10
3451.0111911590429372
 20
167.1923628853772072
 30
0.0
 11
3451.0014344860678648
 21
167.2527473649097942
 31
0.0
  0
ARC
  5
1C8F9
  8
0
 10
3450.6047251768859496
 20
167.2905327953403116
 30
0.0
 40
0.0102232792820635
 50
320.1661347978127878
 51
69.0763881104431903
  0
ARC
  5
1C8FA
  8
0
 10
3450.5833429463691573
 20
167.3083692199269876
 30
0.0
 40
0.0380681679321529
 50
253.6225302683155007
 51
320.1661347978115941
  0
ARC
  5
1C8FB
  8
0
 10
3450.5758461500299745
 20
167.2828602613537043
 30
0.0
 40
0.0114804090412692
 50
147.6195894756762073
 51
253.6225302683149891
  0
ARC
  5
1C8FC
  8
0
 10
3450.5952380168141644
 20
167.2641367042324134
 30
0.0
 40
0.0382709979693845
 50
69.9224314584453168
 51
139.4670564415270917
  0
ARC
  5
1C8FD
  8
0
 10
3450.6257711475550423
 20
167.3023646486716984
 30
0.0
 40
0.0278277611967817
 50
318.0431887654643788
 51
56.5040373540970933
  0
ARC
  5
1C8FE
  8
0
 10
3450.57801421132217
 20
167.339585770891091
 30
0.0
 40
0.0883293699154341
 50
246.1535248913158114
 51
320.8006819835379133
  0
ARC
  5
1C8FF
  8
0
 10
3450.55587712405395
 20
167.2856225134433998
 30
0.0
 40
0.0300640914076377
 50
144.4852524984854085
 51
243.1612748828532915
  0
ARC
  5
1C900
  8
0
 10
3450.6007821428211173
 20
167.2434955420611971
 30
0.0
 40
0.0914560481217059
 50
63.8222294724333068
 51
139.3386335615788028
  0
LINE
  5
1C901
  8
0
 10
3450.653531546501199
 20
167.3042997309898112
 30
0.0
 11
3450.6588147239849604
 21
167.3707125148324053
 31
0.0
  0
ARC
  5
1C902
  8
0
 10
3450.6371827737639251
 20
167.3533673504742865
 30
0.0
 40
0.0277271707354273
 50
312.1796146265472771
 51
41.9374134521764788
  0
ARC
  5
1C903
  8
0
 10
3450.6080526070231826
 20
167.2910751098409889
 30
0.0
 40
0.0949102752243234
 50
58.382932761868517
 51
108.1448976636943939
  0
ARC
  5
1C904
  8
0
 10
3450.602617211784036
 20
167.2723420319094885
 30
0.0
 40
0.1115626171787395
 50
102.4869038774720025
 51
136.8909041366659096
  0
ARC
  5
1C905
  8
0
 10
3450.5406341215680186
 20
167.3268543835642959
 30
0.0
 40
0.029171141471741
 50
131.8530034892214076
 51
231.5572467250892998
  0
LINE
  5
1C906
  8
0
 10
3450.5259816099878662
 20
167.2824432319312962
 30
0.0
 11
3450.5162249370127938
 21
167.3428277114639116
 31
0.0
  0
ARC
  5
1C907
  8
0
 10
3450.4504977718820555
 20
167.7140930521910036
 30
0.0
 40
0.0102232792820635
 50
320.1661347978127878
 51
69.0763881104431903
  0
ARC
  5
1C908
  8
0
 10
3450.4291155413648085
 20
167.731929476777708
 30
0.0
 40
0.0380681679321529
 50
253.6225302683155007
 51
320.1661347978115941
  0
ARC
  5
1C909
  8
0
 10
3450.4216187450260804
 20
167.7064205182043111
 30
0.0
 40
0.0114804090412692
 50
147.6195894756762073
 51
253.6225302683149891
  0
ARC
  5
1C90A
  8
0
 10
3450.4410106118098156
 20
167.6876969610831054
 30
0.0
 40
0.0382709979693845
 50
69.9224314584453168
 51
139.4670564415270917
  0
ARC
  5
1C90B
  8
0
 10
3450.4715437425511482
 20
167.7259249055223904
 30
0.0
 40
0.0278277611967817
 50
318.0431887654643788
 51
56.5040373540970933
  0
ARC
  5
1C90C
  8
0
 10
3450.4237868063169117
 20
167.7631460277418114
 30
0.0
 40
0.0883293699154341
 50
246.1535248913158114
 51
320.8006819835379133
  0
ARC
  5
1C90D
  8
0
 10
3450.4016497190500559
 20
167.7091827702942055
 30
0.0
 40
0.0300640914076377
 50
144.4852524984854085
 51
243.1612748828532915
  0
ARC
  5
1C90E
  8
0
 10
3450.4465547378181327
 20
167.667055798911889
 30
0.0
 40
0.0914560481217059
 50
63.8222294724333068
 51
139.3386335615788028
  0
LINE
  5
1C90F
  8
0
 10
3450.4993041414968502
 20
167.7278599878405032
 30
0.0
 11
3450.5045873189810663
 21
167.7942727716830973
 31
0.0
  0
ARC
  5
1C910
  8
0
 10
3450.482955368760031
 20
167.7769276073250921
 30
0.0
 40
0.0277271707354273
 50
312.1796146265472771
 51
41.9374134521764788
  0
ARC
  5
1C911
  8
0
 10
3450.4538252020188338
 20
167.7146353666917094
 30
0.0
 40
0.0949102752243234
 50
58.382932761868517
 51
108.1448976636943939
  0
ARC
  5
1C912
  8
0
 10
3450.448389806780142
 20
167.6959022887602941
 30
0.0
 40
0.1115626171787395
 50
102.4869038774720025
 51
136.8909041366659096
  0
ARC
  5
1C913
  8
0
 10
3450.386406716563215
 20
167.7504146404149878
 30
0.0
 40
0.029171141471741
 50
131.8530034892214076
 51
231.5572467250892998
  0
LINE
  5
1C914
  8
0
 10
3450.3717542049839722
 20
167.7060034887819882
 30
0.0
 11
3450.3619975320088997
 21
167.7663879683146035
 31
0.0
  0
ARC
  5
1C915
  8
0
 10
3449.9219229368832202
 20
167.603634198291104
 30
0.0
 40
0.0102232792820635
 50
320.1661347978127878
 51
69.0763881104431903
  0
ARC
  5
1C916
  8
0
 10
3449.9005407063650637
 20
167.6214706228776947
 30
0.0
 40
0.0380681679321529
 50
253.6225302683155007
 51
320.1661347978115941
  0
ARC
  5
1C917
  8
0
 10
3449.8930439100267904
 20
167.5959616643044114
 30
0.0
 40
0.0114804090412692
 50
147.6195894756762073
 51
253.6225302683149891
  0
ARC
  5
1C918
  8
0
 10
3449.9124357768100708
 20
167.5772381071830921
 30
0.0
 40
0.0382709979693845
 50
69.9224314584453168
 51
139.4670564415270917
  0
ARC
  5
1C919
  8
0
 10
3449.9429689075518581
 20
167.6154660516224055
 30
0.0
 40
0.0278277611967817
 50
318.0431887654643788
 51
56.5040373540970933
  0
ARC
  5
1C91A
  8
0
 10
3449.8952119713171669
 20
167.6526871738417981
 30
0.0
 40
0.0883293699154341
 50
246.1535248913158114
 51
320.8006819835379133
  0
ARC
  5
1C91B
  8
0
 10
3449.8730748840489468
 20
167.5987239163941922
 30
0.0
 40
0.0300640914076377
 50
144.4852524984854085
 51
243.1612748828532915
  0
ARC
  5
1C91C
  8
0
 10
3449.9179799028170237
 20
167.5565969450119042
 30
0.0
 40
0.0914560481217059
 50
63.8222294724333068
 51
139.3386335615788028
  0
LINE
  5
1C91D
  8
0
 10
3449.9707293064971054
 20
167.6174011339404899
 30
0.0
 11
3449.9760124839817763
 21
167.6838139177831124
 31
0.0
  0
ARC
  5
1C91E
  8
0
 10
3449.9543805337598315
 20
167.6664687534251073
 30
0.0
 40
0.0277271707354273
 50
312.1796146265472771
 51
41.9374134521764788
  0
ARC
  5
1C91F
  8
0
 10
3449.925250367019089
 20
167.604176512791696
 30
0.0
 40
0.0949102752243234
 50
58.382932761868517
 51
108.1448976636943939
  0
ARC
  5
1C920
  8
0
 10
3449.9198149717799424
 20
167.5854434348603093
 30
0.0
 40
0.1115626171787395
 50
102.4869038774720025
 51
136.8909041366659096
  0
ARC
  5
1C921
  8
0
 10
3449.8578318815630155
 20
167.639955786515003
 30
0.0
 40
0.029171141471741
 50
131.8530034892214076
 51
231.5572467250892998
  0
LINE
  5
1C922
  8
0
 10
3449.8431793699851369
 20
167.5955446348820033
 30
0.0
 11
3449.8334226970100644
 21
167.6559291144145902
 31
0.0
  0
ARC
  5
1C923
  8
0
 10
3449.7571013674328242
 20
167.1495495575410075
 30
0.0
 40
0.0102232792820635
 50
320.1661347978127878
 51
69.0763881104431903
  0
ARC
  5
1C924
  8
0
 10
3449.7357191369160319
 20
167.1673859821277119
 30
0.0
 40
0.0380681679321529
 50
253.6225302683155007
 51
320.1661347978115941
  0
ARC
  5
1C925
  8
0
 10
3449.7282223405759396
 20
167.1418770235544002
 30
0.0
 40
0.0114804090412692
 50
147.6195894756762073
 51
253.6225302683149891
  0
ARC
  5
1C926
  8
0
 10
3449.7476142073601295
 20
167.1231534664331093
 30
0.0
 40
0.0382709979693845
 50
69.9224314584453168
 51
139.4670564415270917
  0
ARC
  5
1C927
  8
0
 10
3449.7781473381010073
 20
167.1613814108723943
 30
0.0
 40
0.0278277611967817
 50
318.0431887654643788
 51
56.5040373540970933
  0
ARC
  5
1C928
  8
0
 10
3449.7303904018681351
 20
167.1986025330917869
 30
0.0
 40
0.0883293699154341
 50
246.1535248913158114
 51
320.8006819835379133
  0
ARC
  5
1C929
  8
0
 10
3449.7082533145990055
 20
167.1446392756442094
 30
0.0
 40
0.0300640914076377
 50
144.4852524984854085
 51
243.1612748828532915
  0
ARC
  5
1C92A
  8
0
 10
3449.7531583333679919
 20
167.102512304261893
 30
0.0
 40
0.0914560481217059
 50
63.8222294724333068
 51
139.3386335615788028
  0
LINE
  5
1C92B
  8
0
 10
3449.8059077370471641
 20
167.1633164931905071
 30
0.0
 11
3449.8111909145331992
 21
167.2297292770331012
 31
0.0
  0
ARC
  5
1C92C
  8
0
 10
3449.7895589643107996
 20
167.2123841126750108
 30
0.0
 40
0.0277271707354273
 50
312.1796146265472771
 51
41.9374134521764788
  0
ARC
  5
1C92D
  8
0
 10
3449.7604287975691477
 20
167.1500918720417133
 30
0.0
 40
0.0949102752243234
 50
58.382932761868517
 51
108.1448976636943939
  0
ARC
  5
1C92E
  8
0
 10
3449.7549934023300011
 20
167.1313587941102128
 30
0.0
 40
0.1115626171787395
 50
102.4869038774720025
 51
136.8909041366659096
  0
ARC
  5
1C92F
  8
0
 10
3449.6930103121130742
 20
167.1858711457649918
 30
0.0
 40
0.029171141471741
 50
131.8530034892214076
 51
231.5572467250892998
  0
LINE
  5
1C930
  8
0
 10
3449.6783578005351956
 20
167.1414599941319921
 30
0.0
 11
3449.6686011275592136
 21
167.2018444736646074
 31
0.0
  0
ARC
  5
1C931
  8
0
 10
3450.1683186147320157
 20
166.9707250955410132
 30
0.0
 40
0.0102232792820635
 50
320.1661347978127878
 51
69.0763881104431903
  0
ARC
  5
1C932
  8
0
 10
3450.1469363842161329
 20
166.9885615201276892
 30
0.0
 40
0.0380681679321529
 50
253.6225302683155007
 51
320.1661347978115941
  0
ARC
  5
1C933
  8
0
 10
3450.1394395878769501
 20
166.9630525615542922
 30
0.0
 40
0.0114804090412692
 50
147.6195894756762073
 51
253.6225302683149891
  0
ARC
  5
1C934
  8
0
 10
3450.1588314546597758
 20
166.9443290044330865
 30
0.0
 40
0.0382709979693845
 50
69.9224314584453168
 51
139.4670564415270917
  0
ARC
  5
1C935
  8
0
 10
3450.1893645854001988
 20
166.9825569488724
 30
0.0
 40
0.0278277611967817
 50
318.0431887654643788
 51
56.5040373540970933
  0
ARC
  5
1C936
  8
0
 10
3450.1416076491668719
 20
167.0197780710917925
 30
0.0
 40
0.0883293699154341
 50
246.1535248913158114
 51
320.8006819835379133
  0
ARC
  5
1C937
  8
0
 10
3450.119470561900016
 20
166.9658148136441866
 30
0.0
 40
0.0300640914076377
 50
144.4852524984854085
 51
243.1612748828532915
  0
ARC
  5
1C938
  8
0
 10
3450.1643755806680929
 20
166.9236878422618986
 30
0.0
 40
0.0914560481217059
 50
63.8222294724333068
 51
139.3386335615788028
  0
LINE
  5
1C939
  8
0
 10
3450.2171249843468104
 20
166.9844920311905128
 30
0.0
 11
3450.222408161831936
 21
167.0509048150331068
 31
0.0
  0
ARC
  5
1C93A
  8
0
 10
3450.2007762116099912
 20
167.0335596506751017
 30
0.0
 40
0.0277271707354273
 50
312.1796146265472771
 51
41.9374134521764788
  0
ARC
  5
1C93B
  8
0
 10
3450.171646044868794
 20
166.9712674100416905
 30
0.0
 40
0.0949102752243234
 50
58.382932761868517
 51
108.1448976636943939
  0
ARC
  5
1C93C
  8
0
 10
3450.1662106496291926
 20
166.9525343321103037
 30
0.0
 40
0.1115626171787395
 50
102.4869038774720025
 51
136.8909041366659096
  0
ARC
  5
1C93D
  8
0
 10
3450.1042275594131752
 20
167.0070466837649974
 30
0.0
 40
0.029171141471741
 50
131.8530034892214076
 51
231.5572467250892998
  0
LINE
  5
1C93E
  8
0
 10
3450.0895750478339323
 20
166.9626355321319977
 30
0.0
 11
3450.0798183748588599
 21
167.0230200116646131
 31
0.0
  0
ARC
  5
1C93F
  8
0
 10
3449.8318771911331169
 20
166.9055306712411095
 30
0.0
 40
0.0102232792820635
 50
320.1661347978127878
 51
69.0763881104431903
  0
ARC
  5
1C940
  8
0
 10
3449.8104949606149603
 20
166.9233670958277003
 30
0.0
 40
0.0380681679321529
 50
253.6225302683155007
 51
320.1661347978115941
  0
ARC
  5
1C941
  8
0
 10
3449.8029981642771418
 20
166.8978581372543886
 30
0.0
 40
0.0114804090412692
 50
147.6195894756762073
 51
253.6225302683149891
  0
ARC
  5
1C942
  8
0
 10
3449.8223900310599674
 20
166.8791345801330976
 30
0.0
 40
0.0382709979693845
 50
69.9224314584453168
 51
139.4670564415270917
  0
ARC
  5
1C943
  8
0
 10
3449.8529231618008453
 20
166.9173625245724111
 30
0.0
 40
0.0278277611967817
 50
318.0431887654643788
 51
56.5040373540970933
  0
ARC
  5
1C944
  8
0
 10
3449.805166225567973
 20
166.9545836467918036
 30
0.0
 40
0.0883293699154341
 50
246.1535248913158114
 51
320.8006819835379133
  0
ARC
  5
1C945
  8
0
 10
3449.7830291383002077
 20
166.9006203893441977
 30
0.0
 40
0.0300640914076377
 50
144.4852524984854085
 51
243.1612748828532915
  0
ARC
  5
1C946
  8
0
 10
3449.8279341570669203
 20
166.8584934179619097
 30
0.0
 40
0.0914560481217059
 50
63.8222294724333068
 51
139.3386335615788028
  0
LINE
  5
1C947
  8
0
 10
3449.880683560747002
 20
166.9192976068904954
 30
0.0
 11
3449.8859667382321277
 21
166.9857103907330895
 31
0.0
  0
ARC
  5
1C948
  8
0
 10
3449.8643347880101828
 20
166.9683652263751128
 30
0.0
 40
0.0277271707354273
 50
312.1796146265472771
 51
41.9374134521764788
  0
ARC
  5
1C949
  8
0
 10
3449.8352046212689856
 20
166.9060729857417016
 30
0.0
 40
0.0949102752243234
 50
58.382932761868517
 51
108.1448976636943939
  0
ARC
  5
1C94A
  8
0
 10
3449.829769226029839
 20
166.8873399078102011
 30
0.0
 40
0.1115626171787395
 50
102.4869038774720025
 51
136.8909041366659096
  0
ARC
  5
1C94B
  8
0
 10
3449.7677861358129121
 20
166.9418522594650085
 30
0.0
 40
0.029171141471741
 50
131.8530034892214076
 51
231.5572467250892998
  0
LINE
  5
1C94C
  8
0
 10
3449.753133624234124
 20
166.8974411078320088
 30
0.0
 11
3449.7433769512599611
 21
166.9578255873645958
 31
0.0
  0
ARC
  5
1C94D
  8
0
 10
3450.0401510287329074
 20
166.7295002604410001
 30
0.0
 40
0.0102232792820635
 50
320.1661347978127878
 51
69.0763881104431903
  0
ARC
  5
1C94E
  8
0
 10
3450.0187687982161151
 20
166.7473366850277046
 30
0.0
 40
0.0380681679321529
 50
253.6225302683155007
 51
320.1661347978115941
  0
ARC
  5
1C94F
  8
0
 10
3450.0112720018760228
 20
166.7218277264543929
 30
0.0
 40
0.0114804090412692
 50
147.6195894756762073
 51
253.6225302683149891
  0
ARC
  5
1C950
  8
0
 10
3450.0306638686588485
 20
166.7031041693331019
 30
0.0
 40
0.0382709979693845
 50
69.9224314584453168
 51
139.4670564415270917
  0
ARC
  5
1C951
  8
0
 10
3450.0611969994010906
 20
166.7413321137723869
 30
0.0
 40
0.0278277611967817
 50
318.0431887654643788
 51
56.5040373540970933
  0
ARC
  5
1C952
  8
0
 10
3450.0134400631668541
 20
166.7785532359918079
 30
0.0
 40
0.0883293699154341
 50
246.1535248913158114
 51
320.8006819835379133
  0
ARC
  5
1C953
  8
0
 10
3449.9913029758990888
 20
166.724589978544202
 30
0.0
 40
0.0300640914076377
 50
144.4852524984854085
 51
243.1612748828532915
  0
ARC
  5
1C954
  8
0
 10
3450.0362079946680751
 20
166.682463007161914
 30
0.0
 40
0.0914560481217059
 50
63.8222294724333068
 51
139.3386335615788028
  0
LINE
  5
1C955
  8
0
 10
3450.0889573983467926
 20
166.7432671960906134
 30
0.0
 11
3450.0942405758319182
 21
166.8096799799330938
 31
0.0
  0
ARC
  5
1C956
  8
0
 10
3450.0726086256099734
 20
166.7923348155750887
 30
0.0
 40
0.0277271707354273
 50
312.1796146265472771
 51
41.9374134521764788
  0
ARC
  5
1C957
  8
0
 10
3450.0434784588687762
 20
166.7300425749417059
 30
0.0
 40
0.0949102752243234
 50
58.382932761868517
 51
108.1448976636943939
  0
ARC
  5
1C958
  8
0
 10
3450.0380430636291749
 20
166.7113094970102907
 30
0.0
 40
0.1115626171787395
 50
102.4869038774720025
 51
136.8909041366659096
  0
ARC
  5
1C959
  8
0
 10
3449.9760599734131574
 20
166.7658218486650128
 30
0.0
 40
0.029171141471741
 50
131.8530034892214076
 51
231.5572467250892998
  0
LINE
  5
1C95A
  8
0
 10
3449.9614074618339146
 20
166.7214106970320131
 30
0.0
 11
3449.9516507888602064
 21
166.7817951765646001
 31
0.0
  0
ARC
  5
1C95B
  8
0
 10
3450.3718715372319821
 20
166.668721621441108
 30
0.0
 40
0.0102232792820635
 50
320.1661347978127878
 51
69.0763881104431903
  0
ARC
  5
1C95C
  8
0
 10
3450.3504893067151897
 20
166.6865580460276988
 30
0.0
 40
0.0380681679321529
 50
253.6225302683155007
 51
320.1661347978115941
  0
ARC
  5
1C95D
  8
0
 10
3450.3429925103769165
 20
166.6610490874543871
 30
0.0
 40
0.0114804090412692
 50
147.6195894756762073
 51
253.6225302683149891
  0
ARC
  5
1C95E
  8
0
 10
3450.3623843771601969
 20
166.6423255303330961
 30
0.0
 40
0.0382709979693845
 50
69.9224314584453168
 51
139.4670564415270917
  0
ARC
  5
1C95F
  8
0
 10
3450.3929175079010747
 20
166.6805534747724096
 30
0.0
 40
0.0278277611967817
 50
318.0431887654643788
 51
56.5040373540970933
  0
ARC
  5
1C960
  8
0
 10
3450.3451605716682025
 20
166.7177745969918021
 30
0.0
 40
0.0883293699154341
 50
246.1535248913158114
 51
320.8006819835379133
  0
ARC
  5
1C961
  8
0
 10
3450.3230234843999824
 20
166.6638113395441962
 30
0.0
 40
0.0300640914076377
 50
144.4852524984854085
 51
243.1612748828532915
  0
ARC
  5
1C962
  8
0
 10
3450.3679285031680593
 20
166.6216843681619082
 30
0.0
 40
0.0914560481217059
 50
63.8222294724333068
 51
139.3386335615788028
  0
LINE
  5
1C963
  8
0
 10
3450.4206779068467768
 20
166.6824885570904939
 30
0.0
 11
3450.4259610843309929
 21
166.748901340933088
 31
0.0
  0
ARC
  5
1C964
  8
0
 10
3450.4043291341099575
 20
166.7315561765751113
 30
0.0
 40
0.0277271707354273
 50
312.1796146265472771
 51
41.9374134521764788
  0
ARC
  5
1C965
  8
0
 10
3450.3751989673692151
 20
166.6692639359417001
 30
0.0
 40
0.0949102752243234
 50
58.382932761868517
 51
108.1448976636943939
  0
ARC
  5
1C966
  8
0
 10
3450.3697635721300685
 20
166.6505308580101996
 30
0.0
 40
0.1115626171787395
 50
102.4869038774720025
 51
136.8909041366659096
  0
ARC
  5
1C967
  8
0
 10
3450.3077804819140511
 20
166.705043209665007
 30
0.0
 40
0.029171141471741
 50
131.8530034892214076
 51
231.5572467250892998
  0
LINE
  5
1C968
  8
0
 10
3450.2931279703338987
 20
166.6606320580320073
 30
0.0
 11
3450.2833712973588263
 21
166.7210165375645943
 31
0.0
  0
ARC
  5
1C969
  8
0
 10
3450.0883166157827873
 20
166.5134246303410066
 30
0.0
 40
0.0102232792820635
 50
320.1661347978127878
 51
69.0763881104431903
  0
ARC
  5
1C96A
  8
0
 10
3450.0669343852650854
 20
166.531261054927711
 30
0.0
 40
0.0380681679321529
 50
253.6225302683155007
 51
320.1661347978115941
  0
ARC
  5
1C96B
  8
0
 10
3450.0594375889259027
 20
166.5057520963543993
 30
0.0
 40
0.0114804090412692
 50
147.6195894756762073
 51
253.6225302683149891
  0
ARC
  5
1C96C
  8
0
 10
3450.0788294557110021
 20
166.4870285392331084
 30
0.0
 40
0.0382709979693845
 50
69.9224314584453168
 51
139.4670564415270917
  0
ARC
  5
1C96D
  8
0
 10
3450.1093625864509704
 20
166.5252564836723934
 30
0.0
 40
0.0278277611967817
 50
318.0431887654643788
 51
56.5040373540970933
  0
ARC
  5
1C96E
  8
0
 10
3450.0616056502180982
 20
166.562477605891786
 30
0.0
 40
0.0883293699154341
 50
246.1535248913158114
 51
320.8006819835379133
  0
ARC
  5
1C96F
  8
0
 10
3450.0394685629498781
 20
166.5085143484442085
 30
0.0
 40
0.0300640914076377
 50
144.4852524984854085
 51
243.1612748828532915
  0
ARC
  5
1C970
  8
0
 10
3450.0843735817170455
 20
166.466387377061892
 30
0.0
 40
0.0914560481217059
 50
63.8222294724333068
 51
139.3386335615788028
  0
LINE
  5
1C971
  8
0
 10
3450.1371229853980367
 20
166.5271915659905062
 30
0.0
 11
3450.1424061628817981
 21
166.5936043498331003
 31
0.0
  0
ARC
  5
1C972
  8
0
 10
3450.1207742126598532
 20
166.5762591854750099
 30
0.0
 40
0.0277271707354273
 50
312.1796146265472771
 51
41.9374134521764788
  0
ARC
  5
1C973
  8
0
 10
3450.0916440459191108
 20
166.5139669448417123
 30
0.0
 40
0.0949102752243234
 50
58.382932761868517
 51
108.1448976636943939
  0
ARC
  5
1C974
  8
0
 10
3450.0862086506799642
 20
166.4952338669102119
 30
0.0
 40
0.1115626171787395
 50
102.4869038774720025
 51
136.8909041366659096
  0
ARC
  5
1C975
  8
0
 10
3450.0242255604639467
 20
166.5497462185649908
 30
0.0
 40
0.029171141471741
 50
131.8530034892214076
 51
231.5572467250892998
  0
LINE
  5
1C976
  8
0
 10
3450.0095730488837944
 20
166.5053350669319912
 30
0.0
 11
3449.9998163759100862
 21
166.5657195464646065
 31
0.0
  0
ARC
  5
1C977
  8
0
 10
3449.953488689032838
 20
166.3121955397411114
 30
0.0
 40
0.0102232792820635
 50
320.1661347978127878
 51
69.0763881104431903
  0
ARC
  5
1C978
  8
0
 10
3449.9321064585151362
 20
166.3300319643277021
 30
0.0
 40
0.0380681679321529
 50
253.6225302683155007
 51
320.1661347978115941
  0
ARC
  5
1C979
  8
0
 10
3449.9246096621768629
 20
166.3045230057543904
 30
0.0
 40
0.0114804090412692
 50
147.6195894756762073
 51
253.6225302683149891
  0
ARC
  5
1C97A
  8
0
 10
3449.9440015289601433
 20
166.2857994486330995
 30
0.0
 40
0.0382709979693845
 50
69.9224314584453168
 51
139.4670564415270917
  0
ARC
  5
1C97B
  8
0
 10
3449.9745346597010212
 20
166.3240273930724129
 30
0.0
 40
0.0278277611967817
 50
318.0431887654643788
 51
56.5040373540970933
  0
ARC
  5
1C97C
  8
0
 10
3449.9267777234681489
 20
166.3612485152918055
 30
0.0
 40
0.0883293699154341
 50
246.1535248913158114
 51
320.8006819835379133
  0
ARC
  5
1C97D
  8
0
 10
3449.9046406361999288
 20
166.3072852578440859
 30
0.0
 40
0.0300640914076377
 50
144.4852524984854085
 51
243.1612748828532915
  0
ARC
  5
1C97E
  8
0
 10
3449.9495456549680057
 20
166.2651582864619115
 30
0.0
 40
0.0914560481217059
 50
63.8222294724333068
 51
139.3386335615788028
  0
LINE
  5
1C97F
  8
0
 10
3450.0022950586471779
 20
166.3259624753904973
 30
0.0
 11
3450.0075782361318488
 21
166.3923752592330914
 31
0.0
  0
ARC
  5
1C980
  8
0
 10
3449.9859462859108135
 20
166.3750300948750862
 30
0.0
 40
0.0277271707354273
 50
312.1796146265472771
 51
41.9374134521764788
  0
ARC
  5
1C981
  8
0
 10
3449.9568161191691615
 20
166.3127378542417034
 30
0.0
 40
0.0949102752243234
 50
58.382932761868517
 51
108.1448976636943939
  0
ARC
  5
1C982
  8
0
 10
3449.9513807239300149
 20
166.2940047763102029
 30
0.0
 40
0.1115626171787395
 50
102.4869038774720025
 51
136.8909041366659096
  0
ARC
  5
1C983
  8
0
 10
3449.889397633713088
 20
166.3485171279650103
 30
0.0
 40
0.029171141471741
 50
131.8530034892214076
 51
231.5572467250892998
  0
LINE
  5
1C984
  8
0
 10
3449.8747451221338451
 20
166.3041059763320106
 30
0.0
 11
3449.8649884491587727
 21
166.3644904558645976
 31
0.0
  0
ARC
  5
1C985
  8
0
 10
3449.982844931128966
 20
166.0877439884691
 30
0.0
 40
0.0102232792820635
 50
320.1661347978127878
 51
69.0763881104431903
  0
ARC
  5
1C986
  8
0
 10
3449.9614627006108094
 20
166.1055804130556908
 30
0.0
 40
0.0380681679321529
 50
253.6225302683155007
 51
320.1661347978115941
  0
ARC
  5
1C987
  8
0
 10
3449.9539659042729909
 20
166.0800714544824075
 30
0.0
 40
0.0114804090412692
 50
147.6195894756762073
 51
253.6225302683149891
  0
ARC
  5
1C988
  8
0
 10
3449.9733577710558166
 20
166.0613478973612018
 30
0.0
 40
0.0382709979693845
 50
69.9224314584453168
 51
139.4670564415270917
  0
ARC
  5
1C989
  8
0
 10
3450.0038909017971491
 20
166.0995758418004868
 30
0.0
 40
0.0278277611967817
 50
318.0431887654643788
 51
56.5040373540970933
  0
ARC
  5
1C98A
  8
0
 10
3449.9561339655638221
 20
166.1367969640199078
 30
0.0
 40
0.0883293699154341
 50
246.1535248913158114
 51
320.8006819835379133
  0
ARC
  5
1C98B
  8
0
 10
3449.9339968782960568
 20
166.0828337065723019
 30
0.0
 40
0.0300640914076377
 50
144.4852524984854085
 51
243.1612748828532915
  0
ARC
  5
1C98C
  8
0
 10
3449.9789018970632242
 20
166.0407067351900139
 30
0.0
 40
0.0914560481217059
 50
63.8222294724333068
 51
139.3386335615788028
  0
LINE
  5
1C98D
  8
0
 10
3450.0316513007428512
 20
166.1015109241185996
 30
0.0
 11
3450.0369344782279768
 21
166.1679237079611084
 31
0.0
  0
ARC
  5
1C98E
  8
0
 10
3450.0153025280069414
 20
166.1505785436031033
 30
0.0
 40
0.0277271707354273
 50
312.1796146265472771
 51
41.9374134521764788
  0
ARC
  5
1C98F
  8
0
 10
3449.9861723612648348
 20
166.0882863029698058
 30
0.0
 40
0.0949102752243234
 50
58.382932761868517
 51
108.1448976636943939
  0
ARC
  5
1C990
  8
0
 10
3449.9807369660261429
 20
166.0695532250383053
 30
0.0
 40
0.1115626171787395
 50
102.4869038774720025
 51
136.8909041366659096
  0
ARC
  5
1C991
  8
0
 10
3449.9187538758101255
 20
166.124065576692999
 30
0.0
 40
0.029171141471741
 50
131.8530034892214076
 51
231.5572467250892998
  0
LINE
  5
1C992
  8
0
 10
3449.9041013642299731
 20
166.079654425060113
 30
0.0
 11
3449.8943446912549007
 21
166.1400389045927
 31
0.0
  0
ARC
  5
1C993
  8
0
 10
3449.6779694732331336
 20
166.1887485301411118
 30
0.0
 40
0.0102232792820635
 50
320.1661347978127878
 51
69.0763881104431903
  0
ARC
  5
1C994
  8
0
 10
3449.656587242714977
 20
166.2065849547277026
 30
0.0
 40
0.0380681679321529
 50
253.6225302683155007
 51
320.1661347978115941
  0
ARC
  5
1C995
  8
0
 10
3449.6490904463771585
 20
166.1810759961543909
 30
0.0
 40
0.0114804090412692
 50
147.6195894756762073
 51
253.6225302683149891
  0
ARC
  5
1C996
  8
0
 10
3449.6684823131599842
 20
166.1623524390330999
 30
0.0
 40
0.0382709979693845
 50
69.9224314584453168
 51
139.4670564415270917
  0
ARC
  5
1C997
  8
0
 10
3449.699015443900862
 20
166.2005803834724134
 30
0.0
 40
0.0278277611967817
 50
318.0431887654643788
 51
56.5040373540970933
  0
ARC
  5
1C998
  8
0
 10
3449.6512585076679898
 20
166.2378015056918059
 30
0.0
 40
0.0883293699154341
 50
246.1535248913158114
 51
320.8006819835379133
  0
ARC
  5
1C999
  8
0
 10
3449.6291214203988602
 20
166.1838382482440863
 30
0.0
 40
0.0300640914076377
 50
144.4852524984854085
 51
243.1612748828532915
  0
ARC
  5
1C99A
  8
0
 10
3449.6740264391678465
 20
166.141711276861912
 30
0.0
 40
0.0914560481217059
 50
63.8222294724333068
 51
139.3386335615788028
  0
LINE
  5
1C99B
  8
0
 10
3449.7267758428470188
 20
166.2025154657904977
 30
0.0
 11
3449.7320590203321444
 21
166.2689282496330918
 31
0.0
  0
ARC
  5
1C99C
  8
0
 10
3449.7104270701101996
 20
166.2515830852750867
 30
0.0
 40
0.0277271707354273
 50
312.1796146265472771
 51
41.9374134521764788
  0
ARC
  5
1C99D
  8
0
 10
3449.6812969033680929
 20
166.1892908446417039
 30
0.0
 40
0.0949102752243234
 50
58.382932761868517
 51
108.1448976636943939
  0
ARC
  5
1C99E
  8
0
 10
3449.6758615081298558
 20
166.1705577667102034
 30
0.0
 40
0.1115626171787395
 50
102.4869038774720025
 51
136.8909041366659096
  0
ARC
  5
1C99F
  8
0
 10
3449.6138784179129289
 20
166.2250701183650108
 30
0.0
 40
0.029171141471741
 50
131.8530034892214076
 51
231.5572467250892998
  0
LINE
  5
1C9A0
  8
0
 10
3449.5992259063350502
 20
166.1806589667320111
 30
0.0
 11
3449.5894692333590683
 21
166.2410434462645981
 31
0.0
  0
ARC
  5
1C9A1
  8
0
 10
3450.2973061617331041
 20
165.8204954375910916
 30
0.0
 40
0.0102232792820635
 50
320.1661347978127878
 51
69.0763881104431903
  0
ARC
  5
1C9A2
  8
0
 10
3450.2759239312149475
 20
165.8383318621777107
 30
0.0
 40
0.0380681679321529
 50
253.6225302683155007
 51
320.1661347978115941
  0
ARC
  5
1C9A3
  8
0
 10
3450.2684271348762195
 20
165.812822903604399
 30
0.0
 40
0.0114804090412692
 50
147.6195894756762073
 51
253.6225302683149891
  0
ARC
  5
1C9A4
  8
0
 10
3450.2878190016608642
 20
165.7940993464831081
 30
0.0
 40
0.0382709979693845
 50
69.9224314584453168
 51
139.4670564415270917
  0
ARC
  5
1C9A5
  8
0
 10
3450.3183521324008325
 20
165.8323272909223931
 30
0.0
 40
0.0278277611967817
 50
318.0431887654643788
 51
56.5040373540970933
  0
ARC
  5
1C9A6
  8
0
 10
3450.2705951961679602
 20
165.8695484131418141
 30
0.0
 40
0.0883293699154341
 50
246.1535248913158114
 51
320.8006819835379133
  0
ARC
  5
1C9A7
  8
0
 10
3450.2484581088988307
 20
165.8155851556942082
 30
0.0
 40
0.0300640914076377
 50
144.4852524984854085
 51
243.1612748828532915
  0
ARC
  5
1C9A8
  8
0
 10
3450.293363127667817
 20
165.7734581843118917
 30
0.0
 40
0.0914560481217059
 50
63.8222294724333068
 51
139.3386335615788028
  0
LINE
  5
1C9A9
  8
0
 10
3450.3461125313469893
 20
165.8342623732405059
 30
0.0
 11
3450.3513957088321149
 21
165.9006751570831
 31
0.0
  0
ARC
  5
1C9AA
  8
0
 10
3450.32976375861017
 20
165.8833299927250096
 30
0.0
 40
0.0277271707354273
 50
312.1796146265472771
 51
41.9374134521764788
  0
ARC
  5
1C9AB
  8
0
 10
3450.3006335918689729
 20
165.821037752091712
 30
0.0
 40
0.0949102752243234
 50
58.382932761868517
 51
108.1448976636943939
  0
ARC
  5
1C9AC
  8
0
 10
3450.2951981966298263
 20
165.8023046741602116
 30
0.0
 40
0.1115626171787395
 50
102.4869038774720025
 51
136.8909041366659096
  0
ARC
  5
1C9AD
  8
0
 10
3450.2332151064128993
 20
165.8568170258149905
 30
0.0
 40
0.029171141471741
 50
131.8530034892214076
 51
231.5572467250892998
  0
LINE
  5
1C9AE
  8
0
 10
3450.2185625948341112
 20
165.8124058741819908
 30
0.0
 11
3450.2088059218590388
 21
165.8727903537146062
 31
0.0
  0
ARC
  5
1C9AF
  8
0
 10
3450.8235761100818308
 20
165.9310305250411091
 30
0.0
 40
0.0102232792820635
 50
320.1661347978127878
 51
69.0763881104431903
  0
ARC
  5
1C9B0
  8
0
 10
3450.8021938795650385
 20
165.9488669496276998
 30
0.0
 40
0.0380681679321529
 50
253.6225302683155007
 51
320.1661347978115941
  0
ARC
  5
1C9B1
  8
0
 10
3450.79469708322722
 20
165.9233579910543881
 30
0.0
 40
0.0114804090412692
 50
147.6195894756762073
 51
253.6225302683149891
  0
ARC
  5
1C9B2
  8
0
 10
3450.8140889500109552
 20
165.9046344339330972
 30
0.0
 40
0.0382709979693845
 50
69.9224314584453168
 51
139.4670564415270917
  0
ARC
  5
1C9B3
  8
0
 10
3450.8446220807509235
 20
165.9428623783724106
 30
0.0
 40
0.0278277611967817
 50
318.0431887654643788
 51
56.5040373540970933
  0
ARC
  5
1C9B4
  8
0
 10
3450.7968651445180512
 20
165.9800835005918032
 30
0.0
 40
0.0883293699154341
 50
246.1535248913158114
 51
320.8006819835379133
  0
ARC
  5
1C9B5
  8
0
 10
3450.7747280572498312
 20
165.9261202431441973
 30
0.0
 40
0.0300640914076377
 50
144.4852524984854085
 51
243.1612748828532915
  0
ARC
  5
1C9B6
  8
0
 10
3450.819633076017908
 20
165.8839932717619092
 30
0.0
 40
0.0914560481217059
 50
63.8222294724333068
 51
139.3386335615788028
  0
LINE
  5
1C9B7
  8
0
 10
3450.8723824796979898
 20
165.944797460690495
 30
0.0
 11
3450.8776656571822059
 21
166.0112102445330891
 31
0.0
  0
ARC
  5
1C9B8
  8
0
 10
3450.8560337069611705
 20
165.9938650801751123
 30
0.0
 40
0.0277271707354273
 50
312.1796146265472771
 51
41.9374134521764788
  0
ARC
  5
1C9B9
  8
0
 10
3450.8269035402190639
 20
165.9315728395417011
 30
0.0
 40
0.0949102752243234
 50
58.382932761868517
 51
108.1448976636943939
  0
ARC
  5
1C9BA
  8
0
 10
3450.8214681449799173
 20
165.9128397616102006
 30
0.0
 40
0.1115626171787395
 50
102.4869038774720025
 51
136.8909041366659096
  0
ARC
  5
1C9BB
  8
0
 10
3450.7594850547638998
 20
165.967352113265008
 30
0.0
 40
0.029171141471741
 50
131.8530034892214076
 51
231.5572467250892998
  0
LINE
  5
1C9BC
  8
0
 10
3450.7448325431851117
 20
165.9229409616320083
 30
0.0
 11
3450.7350758702100393
 21
165.9833254411645953
 31
0.0
  0
ARC
  5
1C9BD
  8
0
 10
3450.0053397311330627
 20
165.5820221007377029
 30
0.0
 40
0.0102232792820635
 50
320.1661347978127878
 51
69.0763881104431903
  0
ARC
  5
1C9BE
  8
0
 10
3449.9839575006158157
 20
165.5998585253242936
 30
0.0
 40
0.0380681679321529
 50
253.6225302683155007
 51
320.1661347978115941
  0
ARC
  5
1C9BF
  8
0
 10
3449.9764607042770876
 20
165.5743495667510103
 30
0.0
 40
0.0114804090412692
 50
147.6195894756762073
 51
253.6225302683149891
  0
ARC
  5
1C9C0
  8
0
 10
3449.9958525710599133
 20
165.5556260096298047
 30
0.0
 40
0.0382709979693845
 50
69.9224314584453168
 51
139.4670564415270917
  0
ARC
  5
1C9C1
  8
0
 10
3450.0263857018007911
 20
165.5938539540690897
 30
0.0
 40
0.0278277611967817
 50
318.0431887654643788
 51
56.5040373540970933
  0
ARC
  5
1C9C2
  8
0
 10
3449.9786287655679189
 20
165.6310750762885107
 30
0.0
 40
0.0883293699154341
 50
246.1535248913158114
 51
320.8006819835379133
  0
ARC
  5
1C9C3
  8
0
 10
3449.9564916783001536
 20
165.5771118188407911
 30
0.0
 40
0.0300640914076377
 50
144.4852524984854085
 51
243.1612748828532915
  0
ARC
  5
1C9C4
  8
0
 10
3450.0013966970677757
 20
165.5349848474585883
 30
0.0
 40
0.0914560481217059
 50
63.8222294724333068
 51
139.3386335615788028
  0
LINE
  5
1C9C5
  8
0
 10
3450.0541461007469479
 20
165.5957890363872025
 30
0.0
 11
3450.0594292782320736
 21
165.6622018202297966
 31
0.0
  0
ARC
  5
1C9C6
  8
0
 10
3450.0377973280110382
 20
165.6448566558717062
 30
0.0
 40
0.0277271707354273
 50
312.1796146265472771
 51
41.9374134521764788
  0
ARC
  5
1C9C7
  8
0
 10
3450.0086671612689315
 20
165.5825644152384086
 30
0.0
 40
0.0949102752243234
 50
58.382932761868517
 51
108.1448976636943939
  0
ARC
  5
1C9C8
  8
0
 10
3450.0032317660297849
 20
165.5638313373069082
 30
0.0
 40
0.1115626171787395
 50
102.4869038774720025
 51
136.8909041366659096
  0
ARC
  5
1C9C9
  8
0
 10
3449.941248675812858
 20
165.6183436889616871
 30
0.0
 40
0.029171141471741
 50
131.8530034892214076
 51
231.5572467250892998
  0
LINE
  5
1C9CA
  8
0
 10
3449.9265961642340699
 20
165.5739325373286874
 30
0.0
 11
3449.9168394912599069
 21
165.6343170168613028
 31
0.0
  0
ARC
  5
1C9CB
  8
0
 10
3449.5136882197189152
 20
165.9795416368467897
 30
0.0
 40
0.0113036953450083
 50
304.3503722456371179
 51
62.3415048175832922
  0
ARC
  5
1C9CC
  8
0
 10
3449.4993157306730609
 20
166.0006827281204096
 30
0.0
 40
0.0368675950273493
 50
237.9876541344362124
 51
304.2525547296605168
  0
ARC
  5
1C9CD
  8
0
 10
3449.4867502258089189
 20
165.9795294335040126
 30
0.0
 40
0.0122827131730105
 50
143.2316535427258088
 51
235.3806242122464027
  0
ARC
  5
1C9CE
  8
0
 10
3449.4997702452610611
 20
165.9591682546617051
 30
0.0
 40
0.0359245888304625
 50
57.7589120259430118
 51
129.5173394683752974
  0
ARC
  5
1C9CF
  8
0
 10
3449.5339977267180984
 20
165.9869595624965086
 30
0.0
 40
0.0300641750593029
 50
306.2936092308124216
 51
63.0137581316367417
  0
ARC
  5
1C9D0
  8
0
 10
3449.4991386805381808
 20
166.0299038613086964
 30
0.0
 40
0.0853528906382074
 50
234.9345549343680943
 51
308.0905624695639062
  0
ARC
  5
1C9D1
  8
0
 10
3449.4685280179901383
 20
165.9878737504317883
 30
0.0
 40
0.0333775644744905
 50
147.0717334675630923
 51
236.4932858824481059
  0
ARC
  5
1C9D2
  8
0
 10
3449.4994584728638074
 20
165.9353212895487957
 30
0.0
 40
0.0920465632786838
 50
58.4361183997907432
 51
129.821129613382908
  0
LINE
  5
1C9D3
  8
0
 10
3449.5639791848998357
 20
165.9891881914973908
 30
0.0
 11
3449.5706859650208571
 21
166.0474156900801006
 31
0.0
  0
ARC
  5
1C9D4
  8
0
 10
3449.5502650074881785
 20
166.0309283741866011
 30
0.0
 40
0.0262458966692475
 50
307.9425382489712888
 51
38.9164463474492308
  0
ARC
  5
1C9D5
  8
0
 10
3449.5015016959218883
 20
165.9856342640073876
 30
0.0
 40
0.0927545562137989
 50
41.7647956037361325
 51
91.3217571120050735
  0
ARC
  5
1C9D6
  8
0
 10
3449.5006942910231373
 20
165.9726365765909861
 30
0.0
 40
0.1057359559402799
 50
90.7218854384836249
 51
131.7569966823222956
  0
ARC
  5
1C9D7
  8
0
 10
3449.4497406459131525
 20
166.0297846782650026
 30
0.0
 40
0.029171141471741
 50
131.8530034892214076
 51
231.5572467250892998
  0
LINE
  5
1C9D8
  8
0
 10
3449.4350881343339097
 20
165.9853735266320029
 30
0.0
 11
3449.4253314613588373
 21
166.0457580061645899
 31
0.0
  0
ARC
  5
1C9D9
  8
0
 10
3449.5136882197189152
 20
165.6575077543467955
 30
0.0
 40
0.0113036953450083
 50
304.3503722456371179
 51
62.3415048175832922
  0
ARC
  5
1C9DA
  8
0
 10
3449.4993157306730609
 20
165.6786488456203017
 30
0.0
 40
0.0368675950273493
 50
237.9876541344362124
 51
304.2525547296605168
  0
ARC
  5
1C9DB
  8
0
 10
3449.4867502258089189
 20
165.6574955510039899
 30
0.0
 40
0.0122827131730105
 50
143.2316535427258088
 51
235.3806242122464027
  0
ARC
  5
1C9DC
  8
0
 10
3449.4997702452610611
 20
165.6371343721615972
 30
0.0
 40
0.0359245888304625
 50
57.7589120259430118
 51
129.5173394683752974
  0
ARC
  5
1C9DD
  8
0
 10
3449.5339977267180984
 20
165.664925679996486
 30
0.0
 40
0.0300641750593029
 50
306.2936092308124216
 51
63.0137581316367417
  0
ARC
  5
1C9DE
  8
0
 10
3449.4991386805381808
 20
165.7078699788087022
 30
0.0
 40
0.0853528906382074
 50
234.9345549343680943
 51
308.0905624695639062
  0
ARC
  5
1C9DF
  8
0
 10
3449.4685280179901383
 20
165.6658398679317941
 30
0.0
 40
0.0333775644744905
 50
147.0717334675630923
 51
236.4932858824481059
  0
ARC
  5
1C9E0
  8
0
 10
3449.4994584728638074
 20
165.6132874070488015
 30
0.0
 40
0.0920465632786838
 50
58.4361183997907432
 51
129.821129613382908
  0
LINE
  5
1C9E1
  8
0
 10
3449.5639791848998357
 20
165.6671543089973966
 30
0.0
 11
3449.5706859650208571
 21
165.7253818075801064
 31
0.0
  0
ARC
  5
1C9E2
  8
0
 10
3449.5502650074881785
 20
165.7088944916866069
 30
0.0
 40
0.0262458966692475
 50
307.9425382489712888
 51
38.9164463474492308
  0
ARC
  5
1C9E3
  8
0
 10
3449.5015016959218883
 20
165.6636003815073934
 30
0.0
 40
0.0927545562137989
 50
41.7647956037361325
 51
91.3217571120050735
  0
ARC
  5
1C9E4
  8
0
 10
3449.5006942910231373
 20
165.6506026940909919
 30
0.0
 40
0.1057359559402799
 50
90.7218854384836249
 51
131.7569966823222956
  0
ARC
  5
1C9E5
  8
0
 10
3449.4497406459131525
 20
165.7077507957650084
 30
0.0
 40
0.029171141471741
 50
131.8530034892214076
 51
231.5572467250892998
  0
LINE
  5
1C9E6
  8
0
 10
3449.4350881343339097
 20
165.6633396441320087
 30
0.0
 11
3449.4253314613588373
 21
165.7237241236645957
 31
0.0
  0
ARC
  5
1C9E7
  8
0
 10
3449.5136882191782206
 20
166.9453706715468115
 30
0.0
 40
0.0113036953450083
 50
304.3503722456371179
 51
62.3415048175832922
  0
ARC
  5
1C9E8
  8
0
 10
3449.499315730132821
 20
166.966511762820403
 30
0.0
 40
0.0368675950273493
 50
237.9876541344362124
 51
304.2525547296605168
  0
ARC
  5
1C9E9
  8
0
 10
3449.4867502252700433
 20
166.9453584682040059
 30
0.0
 40
0.0122827131730105
 50
143.2316535427258088
 51
235.3806242122464027
  0
ARC
  5
1C9EA
  8
0
 10
3449.4997702447208212
 20
166.9249972893616132
 30
0.0
 40
0.0359245888304625
 50
57.7589120259430118
 51
129.5173394683752974
  0
ARC
  5
1C9EB
  8
0
 10
3449.5339977261769491
 20
166.952788597196502
 30
0.0
 40
0.0300641750593029
 50
306.2936092308124216
 51
63.0137581316367417
  0
ARC
  5
1C9EC
  8
0
 10
3449.4991386799979409
 20
166.9957328960086897
 30
0.0
 40
0.0853528906382074
 50
234.9345549343680943
 51
308.0905624695639062
  0
ARC
  5
1C9ED
  8
0
 10
3449.4685280174498985
 20
166.9537027851318101
 30
0.0
 40
0.0333775644744905
 50
147.0717334675630923
 51
236.4932858824481059
  0
ARC
  5
1C9EE
  8
0
 10
3449.4994584723240223
 20
166.901150324248789
 30
0.0
 40
0.0920465632786838
 50
58.4361183997907432
 51
129.821129613382908
  0
LINE
  5
1C9EF
  8
0
 10
3449.5639791843609601
 20
166.9550172261974126
 30
0.0
 11
3449.570685964481072
 21
167.013244724780094
 31
0.0
  0
ARC
  5
1C9F0
  8
0
 10
3449.5502650069470292
 20
166.9967574088865945
 30
0.0
 40
0.0262458966692475
 50
307.9425382489712888
 51
38.9164463474492308
  0
ARC
  5
1C9F1
  8
0
 10
3449.5015016953821032
 20
166.9514632987074094
 30
0.0
 40
0.0927545562137989
 50
41.7647956037361325
 51
91.3217571120050735
  0
ARC
  5
1C9F2
  8
0
 10
3449.5006942904828975
 20
166.9384656112910079
 30
0.0
 40
0.1057359559402799
 50
90.7218854384836249
 51
131.7569966823222956
  0
ARC
  5
1C9F3
  8
0
 10
3449.4497406453729127
 20
166.995613712964996
 30
0.0
 40
0.029171141471741
 50
131.8530034892214076
 51
231.5572467250892998
  0
LINE
  5
1C9F4
  8
0
 10
3449.4350881337950341
 20
166.9512025613319963
 30
0.0
 11
3449.4253314608190522
 21
167.0115870408646117
 31
0.0
  0
ARC
  5
1C9F5
  8
0
 10
3449.5136882197189152
 20
167.8791623666467956
 30
0.0
 40
0.0113036953450083
 50
304.3503722456371179
 51
62.3415048175832922
  0
ARC
  5
1C9F6
  8
0
 10
3449.4993157306730609
 20
167.900303457920387
 30
0.0
 40
0.0368675950273493
 50
237.9876541344362124
 51
304.2525547296605168
  0
ARC
  5
1C9F7
  8
0
 10
3449.4867502258089189
 20
167.87915016330399
 30
0.0
 40
0.0122827131730105
 50
143.2316535427258088
 51
235.3806242122464027
  0
ARC
  5
1C9F8
  8
0
 10
3449.4997702452610611
 20
167.8587889844617109
 30
0.0
 40
0.0359245888304625
 50
57.7589120259430118
 51
129.5173394683752974
  0
ARC
  5
1C9F9
  8
0
 10
3449.5339977267180984
 20
167.886580292296486
 30
0.0
 40
0.0300641750593029
 50
306.2936092308124216
 51
63.0137581316367417
  0
ARC
  5
1C9FA
  8
0
 10
3449.4991386805381808
 20
167.9295245911087022
 30
0.0
 40
0.0853528906382074
 50
234.9345549343680943
 51
308.0905624695639062
  0
ARC
  5
1C9FB
  8
0
 10
3449.4685280179901383
 20
167.8874944802317941
 30
0.0
 40
0.0333775644744905
 50
147.0717334675630923
 51
236.4932858824481059
  0
ARC
  5
1C9FC
  8
0
 10
3449.4994584728638074
 20
167.8349420193488015
 30
0.0
 40
0.0920465632786838
 50
58.4361183997907432
 51
129.821129613382908
  0
LINE
  5
1C9FD
  8
0
 10
3449.5639791848998357
 20
167.8888089212973966
 30
0.0
 11
3449.5706859650208571
 21
167.9470364198801065
 31
0.0
  0
ARC
  5
1C9FE
  8
0
 10
3449.5502650074881785
 20
167.930549103986607
 30
0.0
 40
0.0262458966692475
 50
307.9425382489712888
 51
38.9164463474492308
  0
ARC
  5
1C9FF
  8
0
 10
3449.5015016959218883
 20
167.8852549938073935
 30
0.0
 40
0.0927545562137989
 50
41.7647956037361325
 51
91.3217571120050735
  0
ARC
  5
1CA00
  8
0
 10
3449.5006942910231373
 20
167.8722573063911057
 30
0.0
 40
0.1057359559402799
 50
90.7218854384836249
 51
131.7569966823222956
  0
ARC
  5
1CA01
  8
0
 10
3449.4497406459131525
 20
167.9294054080650085
 30
0.0
 40
0.029171141471741
 50
131.8530034892214076
 51
231.5572467250892998
  0
LINE
  5
1CA02
  8
0
 10
3449.4350881343339097
 20
167.8849942564320088
 30
0.0
 11
3449.4253314613588373
 21
167.9453787359645958
 31
0.0
  0
ARC
  5
1CA03
  8
0
 10
3449.8523330384891779
 20
165.8647546146409866
 30
0.0
 40
0.0158605807137526
 50
324.2394184961818269
 51
67.0033838462698981
  0
ARC
  5
1CA04
  8
0
 10
3449.8234356983439284
 20
165.8938235042691076
 30
0.0
 40
0.0566950177214783
 50
246.4731974511296073
 51
317.4517227797338137
  0
ARC
  5
1CA05
  8
0
 10
3449.805262249927182
 20
165.8571933445639104
 30
0.0
 40
0.0159861554976066
 50
152.4446030863057047
 51
253.8076090149448021
  0
ARC
  5
1CA06
  8
0
 10
3449.8338942355157997
 20
165.830479503063998
 30
0.0
 40
0.0547327900958636
 50
63.2499767706408633
 51
141.4502634687277975
  0
ARC
  5
1CA07
  8
0
 10
3449.8950385937901046
 20
165.8783035592387876
 30
0.0
 40
0.0486730783452054
 50
319.1578359819349089
 51
61.2885480124258066
  0
ARC
  5
1CA08
  8
0
 10
3449.8159514861208663
 20
165.9530958321294918
 30
0.0
 40
0.1574910575545338
 50
242.5655543709669928
 51
317.3893934999989028
  0
ARC
  5
1CA09
  8
0
 10
3449.7670223425061522
 20
165.8603518057032886
 30
0.0
 40
0.0526384696859408
 50
150.5540833620383978
 51
243.3234032705927916
  0
ARC
  5
1CA0A
  8
0
 10
3449.8413577866917876
 20
165.7813113393928859
 30
0.0
 40
0.1595290558649843
 50
61.1140649164381173
 51
138.8775098927004024
  0
LINE
  5
1CA0B
  8
0
 10
3449.9437113663088894
 20
165.8784761016835034
 30
0.0
 11
3449.9478426293121629
 21
165.9215944786197099
 31
0.0
  0
ARC
  5
1CA0C
  8
0
 10
3449.9088645690508201
 20
165.9066048920633136
 30
0.0
 40
0.0417609493044361
 50
328.0191707770692915
 51
29.0545641892040116
  0
ARC
  5
1CA0D
  8
0
 10
3449.8529020371152001
 20
165.8414662688686008
 30
0.0
 40
0.1258843011852876
 50
42.7308816232725732
 51
91.8063237887285766
  0
ARC
  5
1CA0E
  8
0
 10
3449.8375250144040365
 20
165.8042082486711877
 30
0.0
 40
0.1634783664592842
 50
85.9981239425629553
 51
136.4914950191663934
  0
ARC
  5
1CA0F
  8
0
 10
3449.7543869029191228
 20
165.8847993976777957
 30
0.0
 40
0.0477120670867652
 50
137.9483835643085001
 51
213.0788411731743963
  0
LINE
  5
1CA10
  8
0
 10
3449.7144015680751181
 20
165.858987038623809
 30
0.0
 11
3449.7108177478858124
 21
165.9042459931457074
 31
0.0
  0
ARC
  5
1CA11
  8
0
 10
3450.6677597272800995
 20
166.5065776187585982
 30
0.0
 40
0.0158605807137526
 50
324.2394184961818269
 51
67.0033838462698981
  0
ARC
  5
1CA12
  8
0
 10
3450.6388623871362142
 20
166.5356465083866908
 30
0.0
 40
0.0566950177214783
 50
246.4731974511296073
 51
317.4517227797338137
  0
ARC
  5
1CA13
  8
0
 10
3450.6206889387171941
 20
166.4990163486814936
 30
0.0
 40
0.0159861554976066
 50
152.4446030863057047
 51
253.8076090149448021
  0
ARC
  5
1CA14
  8
0
 10
3450.6493209243058118
 20
166.4723025071814959
 30
0.0
 40
0.0547327900958636
 50
63.2499767706408633
 51
141.4502634687277975
  0
ARC
  5
1CA15
  8
0
 10
3450.7104652825810263
 20
166.5201265633563992
 30
0.0
 40
0.0486730783452054
 50
319.1578359819349089
 51
61.2885480124258066
  0
ARC
  5
1CA16
  8
0
 10
3450.6313781749117879
 20
166.5949188362471034
 30
0.0
 40
0.1574910575545338
 50
242.5655543709669928
 51
317.3893934999989028
  0
ARC
  5
1CA17
  8
0
 10
3450.5824490312961643
 20
166.5021748098209002
 30
0.0
 40
0.0526384696859408
 50
150.5540833620383978
 51
243.3234032705927916
  0
ARC
  5
1CA18
  8
0
 10
3450.6567844754840735
 20
166.4231343435104975
 30
0.0
 40
0.1595290558649843
 50
61.1140649164381173
 51
138.8775098927004024
  0
LINE
  5
1CA19
  8
0
 10
3450.7591380551011753
 20
166.5202991058010866
 30
0.0
 11
3450.7632693181030845
 21
166.5634174827372931
 31
0.0
  0
ARC
  5
1CA1A
  8
0
 10
3450.7242912578421965
 20
166.5484278961808116
 30
0.0
 40
0.0417609493044361
 50
328.0191707770692915
 51
29.0545641892040116
  0
ARC
  5
1CA1B
  8
0
 10
3450.6683287259052122
 20
166.4832892729862124
 30
0.0
 40
0.1258843011852876
 50
42.7308816232725732
 51
91.8063237887285766
  0
ARC
  5
1CA1C
  8
0
 10
3450.6529517031940486
 20
166.4460312527887993
 30
0.0
 40
0.1634783664592842
 50
85.9981239425629553
 51
136.4914950191663934
  0
ARC
  5
1CA1D
  8
0
 10
3450.5698135917109539
 20
166.5266224017954073
 30
0.0
 40
0.0477120670867652
 50
137.9483835643085001
 51
213.0788411731743963
  0
LINE
  5
1CA1E
  8
0
 10
3450.5298282568660397
 20
166.5008100427413922
 30
0.0
 11
3450.5262444366771888
 21
166.5460689972632906
 31
0.0
  0
ARC
  5
1CA1F
  8
0
 10
3450.5726759326498723
 20
166.9396808961562044
 30
0.0
 40
0.0158605807137526
 50
324.2394184961818269
 51
67.0033838462698981
  0
ARC
  5
1CA20
  8
0
 10
3450.5437785925050775
 20
166.968749785784297
 30
0.0
 40
0.0566950177214783
 50
246.4731974511296073
 51
317.4517227797338137
  0
ARC
  5
1CA21
  8
0
 10
3450.5256051440878764
 20
166.9321196260789861
 30
0.0
 40
0.0159861554976066
 50
152.4446030863057047
 51
253.8076090149448021
  0
ARC
  5
1CA22
  8
0
 10
3450.5542371296760393
 20
166.9054057845791021
 30
0.0
 40
0.0547327900958636
 50
63.2499767706408633
 51
141.4502634687277975
  0
ARC
  5
1CA23
  8
0
 10
3450.6153814879507991
 20
166.9532298407540054
 30
0.0
 40
0.0486730783452054
 50
319.1578359819349089
 51
61.2885480124258066
  0
ARC
  5
1CA24
  8
0
 10
3450.5362943802820155
 20
167.0280221136445959
 30
0.0
 40
0.1574910575545338
 50
242.5655543709669928
 51
317.3893934999989028
  0
ARC
  5
1CA25
  8
0
 10
3450.4873652366659371
 20
166.9352780872185065
 30
0.0
 40
0.0526384696859408
 50
150.5540833620383978
 51
243.3234032705927916
  0
ARC
  5
1CA26
  8
0
 10
3450.5617006808529368
 20
166.8562376209081037
 30
0.0
 40
0.1595290558649843
 50
61.1140649164381173
 51
138.8775098927004024
  0
LINE
  5
1CA27
  8
0
 10
3450.6640542604700386
 20
166.9534023831986076
 30
0.0
 11
3450.6681855234719478
 21
166.9965207601348993
 31
0.0
  0
ARC
  5
1CA28
  8
0
 10
3450.6292074632119693
 20
166.9815311735783894
 30
0.0
 40
0.0417609493044361
 50
328.0191707770692915
 51
29.0545641892040116
  0
ARC
  5
1CA29
  8
0
 10
3450.5732449312758945
 20
166.9163925503837902
 30
0.0
 40
0.1258843011852876
 50
42.7308816232725732
 51
91.8063237887285766
  0
ARC
  5
1CA2A
  8
0
 10
3450.5578679085651856
 20
166.8791345301864055
 30
0.0
 40
0.1634783664592842
 50
85.9981239425629553
 51
136.4914950191663934
  0
ARC
  5
1CA2B
  8
0
 10
3450.4747297970798172
 20
166.9597256791928999
 30
0.0
 40
0.0477120670867652
 50
137.9483835643085001
 51
213.0788411731743963
  0
LINE
  5
1CA2C
  8
0
 10
3450.434744462234903
 20
166.9339133201389132
 30
0.0
 11
3450.4311606420460521
 21
166.9791722746608116
 31
0.0
  0
ARC
  5
1CA2D
  8
0
 10
3450.1500298506271065
 20
167.2872046120203038
 30
0.0
 40
0.0158605807137526
 50
324.2394184961818269
 51
67.0033838462698981
  0
ARC
  5
1CA2E
  8
0
 10
3450.121132510481857
 20
167.3162735016483964
 30
0.0
 40
0.0566950177214783
 50
246.4731974511296073
 51
317.4517227797338137
  0
ARC
  5
1CA2F
  8
0
 10
3450.1029590620642011
 20
167.2796433419431992
 30
0.0
 40
0.0159861554976066
 50
152.4446030863057047
 51
253.8076090149448021
  0
ARC
  5
1CA30
  8
0
 10
3450.1315910476541831
 20
167.2529295004432015
 30
0.0
 40
0.0547327900958636
 50
63.2499767706408633
 51
141.4502634687277975
  0
ARC
  5
1CA31
  8
0
 10
3450.1927354059280333
 20
167.3007535566181048
 30
0.0
 40
0.0486730783452054
 50
319.1578359819349089
 51
61.2885480124258066
  0
ARC
  5
1CA32
  8
0
 10
3450.113648298258795
 20
167.375545829508809
 30
0.0
 40
0.1574910575545338
 50
242.5655543709669928
 51
317.3893934999989028
  0
ARC
  5
1CA33
  8
0
 10
3450.0647191546440808
 20
167.2828018030826058
 30
0.0
 40
0.0526384696859408
 50
150.5540833620383978
 51
243.3234032705927916
  0
ARC
  5
1CA34
  8
0
 10
3450.139054598830171
 20
167.2037613367722031
 30
0.0
 40
0.1595290558649843
 50
61.1140649164381173
 51
138.8775098927004024
  0
LINE
  5
1CA35
  8
0
 10
3450.2414081784481823
 20
167.3009260990627922
 30
0.0
 11
3450.2455394414500915
 21
167.3440444759989987
 31
0.0
  0
ARC
  5
1CA36
  8
0
 10
3450.206561381190113
 20
167.3290548894426024
 30
0.0
 40
0.0417609493044361
 50
328.0191707770692915
 51
29.0545641892040116
  0
ARC
  5
1CA37
  8
0
 10
3450.1505988492531287
 20
167.2639162662478896
 30
0.0
 40
0.1258843011852876
 50
42.7308816232725732
 51
91.8063237887285766
  0
ARC
  5
1CA38
  8
0
 10
3450.1352218265419651
 20
167.2266582460505049
 30
0.0
 40
0.1634783664592842
 50
85.9981239425629553
 51
136.4914950191663934
  0
ARC
  5
1CA39
  8
0
 10
3450.0520837150570514
 20
167.3072493950571129
 30
0.0
 40
0.0477120670867652
 50
137.9483835643085001
 51
213.0788411731743963
  0
LINE
  5
1CA3A
  8
0
 10
3450.0120983802130468
 20
167.2814370360030978
 30
0.0
 11
3450.0085145600228316
 21
167.3266959905249962
 31
0.0
  0
CIRCLE
  5
1CA3B
  8
0
 10
3449.4994147826269
 20
167.4005878879812883
 30
0.0
 40
0.0393694873635434
  0
ARC
  5
1CA3C
  8
0
 10
3449.5368502918158811
 20
167.4084605626518112
 30
0.0
 40
0.077794259667181
 50
308.2111672788796
 51
40.0708270746321134
  0
LINE
  5
1CA3D
  8
0
 10
3449.6146416925871563
 20
167.4091274983508981
 30
0.0
 11
3449.6189224365339214
 21
167.4545620315610108
 31
0.0
  0
ARC
  5
1CA3E
  8
0
 10
3449.5436240558537975
 20
167.4349040906247978
 30
0.0
 40
0.0778221098071829
 50
335.4717711513292215
 51
22.4785460509927013
  0
ARC
  5
1CA3F
  8
0
 10
3449.5180284083480728
 20
167.4209826432233115
 30
0.0
 40
0.1068400957795151
 50
24.1291955448305906
 51
68.0704029506994459
  0
ARC
  5
1CA40
  8
0
 10
3449.4619792734370094
 20
167.4084605626518112
 30
0.0
 40
0.077794259667181
 50
139.9291729253666006
 51
231.7888327211202864
  0
LINE
  5
1CA41
  8
0
 10
3449.3841878726661889
 20
167.4091274983508981
 30
0.0
 11
3449.379907128718969
 21
167.4545620315610108
 31
0.0
  0
ARC
  5
1CA42
  8
0
 10
3449.455205509399093
 20
167.4349040906247978
 30
0.0
 40
0.0778221098071829
 50
157.5214539490073093
 51
204.5282288486708069
  0
ARC
  5
1CA43
  8
0
 10
3449.4808011569048176
 20
167.4209826432233115
 30
0.0
 40
0.1068400957795151
 50
111.9295970493004972
 51
155.8708044551694059
  0
ARC
  5
1CA44
  8
0
 10
3449.4994147826269
 20
167.3830882357613916
 30
0.0
 40
0.1489767295642207
 50
66.8724942961681421
 51
113.1275057038319005
  0
ARC
  5
1CA45
  8
0
 10
3449.4994147826269
 20
167.3690006395623868
 30
0.0
 40
0.1319844067916377
 50
42.7190452839445101
 51
137.2809547160543104
  0
ARC
  5
1CA46
  8
0
 10
3449.4994147826269
 20
167.4489148286625948
 30
0.0
 40
0.1328094214456965
 50
229.894156427006692
 51
310.105843572993308
  0
ARC
  5
1CA47
  8
0
 10
3449.9496128792898162
 20
166.6452219735325002
 30
0.0
 40
1.8072864979527421
 50
23.6584605916977004
 51
74.6619885063942377
  0
ARC
  5
1CA48
  8
0
 10
3450.5828447038720697
 20
167.0483326306186882
 30
0.0
 40
1.0717150252438989
 50
323.1349175957524267
 51
17.4917735032801183
  0
ARC
  5
1CA49
  8
0
 10
3449.8306899338099356
 20
167.5641906685611957
 30
0.0
 40
1.9833311972417671
 50
289.7413308795735816
 51
324.2480633178507787
  0
ARC
  5
1CA4A
  8
0
 10
3449.5218495948020063
 20
168.2715790297696969
 30
0.0
 40
2.7539489380800619
 50
274.4744313549322783
 51
278.8045971073257192
  0
ARC
  5
1CA4B
  8
0
 10
3449.5218495948020063
 20
168.2715790297696969
 30
0.0
 40
2.7539489380800619
 50
280.8242653154708819
 51
290.8180774655626806
  0
ARC
  5
1CA4C
  8
0
 10
3449.7312647569069668
 20
165.3460366566804964
 30
0.0
 40
0.1800687396478911
 50
88.2713451304092871
 51
149.6069965555278998
  0
ARC
  5
1CA4D
  8
0
 10
3449.9249380979490525
 20
165.2705595319816894
 30
0.0
 40
0.3867129802064605
 50
154.4844388278482938
 51
177.8227260154687031
  0
ARC
  5
1CA4E
  8
0
 10
3452.1997212763671996
 20
163.7556114435072061
 30
0.0
 40
2.512569001340212
 50
125.3843363294426041
 51
133.5411958889696962
  0
ARC
  5
1CA4F
  8
0
 10
3451.2219291845590305
 20
164.7845067147675024
 30
0.0
 40
1.0931667137478001
 50
133.5411958889696962
 51
173.5561286048856005
  0
ARC
  5
1CA50
  8
0
 10
3458.4821477397358649
 20
163.6899444059177995
 30
0.0
 40
8.4347734992697934
 50
171.7024962589781012
 51
180.4689228313415015
  0
ARC
  5
1CA51
  8
0
 10
5931.2531219822303683
 20
163.6468265827377024
 30
0.0
 40
2481.2054653900640915
 50
180.0005983964028928
 51
180.0682029414437011
  0
ARC
  5
1CA52
  8
0
 10
3449.9228869692788066
 20
160.71774390205141
 30
0.0
 40
0.1288699135816685
 50
285.4096322964151113
 51
349.059132456950806
  0
LINE
  5
1CA53
  8
0
 10
3449.81437541198693
 20
159.334468544428006
 30
0.0
 11
3449.81437541198693
 21
157.5223019291659909
 31
0.0
  0
ARC
  5
1CA54
  8
0
 10
3551.8514413966991015
 20
154.6742218905613129
 30
0.0
 40
102.0768063502908944
 50
178.4011632831752081
 51
181.2819199569524073
  0
ARC
  5
1CA55
  8
0
 10
3394.1621098713708307
 20
149.4390539507978986
 30
0.0
 40
55.7163050543874192
 50
355.1164170178928998
 51
3.036612778609431
  0
ARC
  5
1CA56
  8
0
 10
3467.3005585776991211
 20
141.8406891899414006
 30
0.0
 40
17.8541788619271209
 50
170.7980221633166877
 51
186.204696244313709
  0
LINE
  5
1CA57
  8
0
 10
3449.184454152186845
 20
159.3287181525519998
 30
0.0
 11
3449.184454152186845
 21
157.5223019291659909
 31
0.0
  0
ARC
  5
1CA58
  8
0
 10
2860.3363245644250128
 20
147.3668958808295884
 30
0.0
 40
588.9356942748605661
 50
0.4778937319442223
 51
0.9880378296448885
  0
ARC
  5
1CA59
  8
0
 10
3395.0552501267898151
 20
149.4184103776850918
 30
0.0
 40
54.271726643408762
 50
355.0108846786069989
 51
3.0214310661605142
  0
ARC
  5
1CA5A
  8
0
 10
3467.440626983211132
 20
141.8218597580614926
 30
0.0
 40
18.5437679412704988
 50
171.0755568401611129
 51
186.005233477236203
  0
ARC
  5
1CA5B
  8
0
 10
3449.5846175955971376
 20
166.7311670485331945
 30
0.0
 40
0.0587901969203079
 50
26.1489056361147512
 51
146.164855110667304
  0
ARC
  5
1CA5C
  8
0
 10
3449.5988491276971217
 20
166.7566479050169903
 30
0.0
 40
0.0385439698075967
 50
322.7466421065499844
 51
0.6366957605886107
  0
ARC
  5
1CA5D
  8
0
 10
3449.4992680955001561
 20
166.8471063920003132
 30
0.0
 40
0.1729629684701101
 50
293.3730908459983766
 51
318.8608011690207036
  0
ARC
  5
1CA5E
  8
0
 10
3449.561923639997076
 20
166.7001101469329001
 30
0.0
 40
0.0131969520655039
 50
222.1080074109862892
 51
296.8562673039588731
  0
ARC
  5
1CA5F
  8
0
 10
3449.6710252860229957
 20
166.7676618782211051
 30
0.0
 40
0.1413238380243132
 50
197.5495073303866036
 51
212.7249847181334985
  0
ARC
  5
1CA60
  8
0
 10
3449.5907485655061464
 20
166.7451725156032012
 30
0.0
 40
0.058068024409382
 50
161.1834370067167015
 51
200.2769752584102037
  0
ARC
  5
1CA61
  8
0
 10
3449.5969327891912144
 20
166.7444517519589056
 30
0.0
 40
0.014826381039225
 50
311.6368447773543835
 51
54.6173699448710295
  0
ARC
  5
1CA62
  8
0
 10
3449.5840008899222084
 20
166.7589984484723971
 30
0.0
 40
0.0342902038435752
 50
233.5488103316920956
 51
311.6368447773543835
  0
ARC
  5
1CA63
  8
0
 10
3449.5715756520548894
 20
166.7440091682229024
 30
0.0
 40
0.0148909261053359
 50
139.1718378071956863
 51
237.741569871942886
  0
ARC
  5
1CA64
  8
0
 10
3449.5845617198879154
 20
166.7284726784855877
 30
0.0
 40
0.0350273678129937
 50
53.2534447115190801
 51
133.8219598275921101
  0
LINE
  5
1CA65
  8
0
 10
3449.6373855755468867
 20
166.7570866848348032
 30
0.0
 11
3449.6415862572798687
 21
166.8156759053478027
 31
0.0
  0
ARC
  5
1CA66
  8
0
 10
3449.615243425825156
 20
166.7981461008347992
 30
0.0
 40
0.032684784325279
 50
315.8548220700322986
 51
22.8726428973692499
  0
ARC
  5
1CA67
  8
0
 10
3449.5857307581350142
 20
166.7681301489782015
 30
0.0
 40
0.0733514535201244
 50
35.6196390002046428
 51
86.4558582210648154
  0
ARC
  5
1CA68
  8
0
 10
3449.5882689216227845
 20
166.759498629465412
 30
0.0
 40
0.0818670278359325
 50
88.6027649681488327
 51
137.3837861631585895
  0
ARC
  5
1CA69
  8
0
 10
3449.5777358766631551
 20
166.7885592578564911
 30
0.0
 40
0.056274392710454
 50
152.0564660275182973
 51
215.4495455289898018
  0
LINE
  5
1CA6A
  8
0
 10
3449.5326805410968518
 20
166.7451725156032012
 30
0.0
 11
3449.5276267681902027
 21
166.8141695003970142
 31
0.0
  0
ARC
  5
1CA6B
  8
0
 10
3449.7276308331288419
 20
166.6690736256144874
 30
0.0
 40
0.0587901969203079
 50
26.1489056361147512
 51
146.164855110667304
  0
ARC
  5
1CA6C
  8
0
 10
3449.7387641088189412
 20
166.6950361009724872
 30
0.0
 40
0.0416398805415142
 50
307.8859061154735173
 51
359.9266459817641817
  0
ARC
  5
1CA6D
  8
0
 10
3449.6735444176201781
 20
166.8444676064976875
 30
0.0
 40
0.2036526896537585
 50
268.301530248035192
 51
296.475162917725811
  0
ARC
  5
1CA6E
  8
0
 10
3449.6666697517662215
 20
166.6532583581997926
 30
0.0
 40
0.012382389473852
 50
189.2572784212979968
 51
273.8828415247093062
  0
ARC
  5
1CA6F
  8
0
 10
3449.7440437203081274
 20
166.635309142603802
 30
0.0
 40
0.0910050270853747
 50
157.2610802965955088
 51
169.9012582821106889
  0
ARC
  5
1CA70
  8
0
 10
3449.7471138570222138
 20
166.6398203378429059
 30
0.0
 40
0.0922479269459926
 50
137.7805916391102983
 51
160.5841691876711934
  0
ARC
  5
1CA71
  8
0
 10
3449.7399460267220093
 20
166.6823583290401984
 30
0.0
 40
0.014826381039225
 50
311.6368447773543835
 51
54.6173699448710295
  0
ARC
  5
1CA72
  8
0
 10
3449.7270141274539128
 20
166.6969050255536047
 30
0.0
 40
0.0342902038435752
 50
233.5488103316920956
 51
311.6368447773543835
  0
ARC
  5
1CA73
  8
0
 10
3449.7145888895870485
 20
166.6819157453041953
 30
0.0
 40
0.0148909261053359
 50
139.1718378071956863
 51
237.741569871942886
  0
ARC
  5
1CA74
  8
0
 10
3449.727574957419165
 20
166.6663792555667953
 30
0.0
 40
0.0350273678129937
 50
53.2534447115190801
 51
133.8219598275921101
  0
LINE
  5
1CA75
  8
0
 10
3449.7803988130790458
 20
166.6949932619160961
 30
0.0
 11
3449.7845418797010097
 21
166.7540470942844024
 31
0.0
  0
ARC
  5
1CA76
  8
0
 10
3449.7582566633559509
 20
166.7360526779160068
 30
0.0
 40
0.032684784325279
 50
315.8548220700322986
 51
22.8726428973692499
  0
ARC
  5
1CA77
  8
0
 10
3449.7377223932148809
 20
166.7161240248940999
 30
0.0
 40
0.060251336140618
 50
32.7932852411529225
 51
94.0466531230039351
  0
ARC
  5
1CA78
  8
0
 10
3449.7327570215920787
 20
166.6864992527214042
 30
0.0
 40
0.0897287338576285
 50
89.5443860546249226
 51
171.1553657135542892
  0
ARC
  5
1CA79
  8
0
 10
3449.6561014478838842
 20
166.6964808469892887
 30
0.0
 40
0.0125976385274147
 50
162.3734801413168043
 51
243.2664870859165944
  0
LINE
  5
1CA7A
  8
0
 10
3449.6546302602469041
 20
166.6522545878557082
 30
0.0
 11
3449.6499140975338378
 21
166.7200107579757002
 31
0.0
  0
ARC
  5
1CA7B
  8
0
 10
3450.632625482991898
 20
167.1051161259294986
 30
0.0
 40
1.029494221221946
 50
351.0287171837496203
 51
15.7160344402014793
  0
ARC
  5
1CA7C
  8
0
 10
3450.2587423320560447
 20
166.9450932502078047
 30
0.0
 40
1.4337168419186761
 50
17.8252402637828489
 51
57.5949045098494565
  0
ARC
  5
1CA7D
  8
0
 10
3449.6767050004509656
 20
166.1323349407346939
 30
0.0
 40
2.432468656604688
 50
56.2794086247450309
 51
75.76355806289763
  0
ARC
  5
1CA7E
  8
0
 10
3449.8056635485418155
 20
166.5709865535957022
 30
0.0
 40
0.0492909516848765
 50
16.0604496516268007
 51
103.7421518760287995
  0
ARC
  5
1CA7F
  8
0
 10
3449.8081725133611144
 20
166.5916927626788038
 30
0.0
 40
0.0454118731894695
 50
270.259332039360288
 51
351.043662944144728
  0
ARC
  5
1CA80
  8
0
 10
3449.8007189156560344
 20
166.7619470487273929
 30
0.0
 40
0.2158016543683905
 50
246.6169977116032896
 51
272.0339444936199129
  0
ARC
  5
1CA81
  8
0
 10
3449.7167793919188625
 20
166.5736695687805025
 30
0.0
 40
0.0099484261085901
 50
135.1230907593416077
 51
260.1206674270455892
  0
ARC
  5
1CA82
  8
0
 10
3449.8829228169829548
 20
166.3444465807523898
 30
0.0
 40
0.292927220429008
 50
119.8855994438375063
 51
126.2457384891376933
  0
ARC
  5
1CA83
  8
0
 10
3449.8159344443288319
 20
166.4679560951244071
 30
0.0
 40
0.1525027380102788
 50
98.2868577593084751
 51
121.185897097507393
  0
ARC
  5
1CA84
  8
0
 10
3449.8094428772451465
 20
166.5772565286825113
 30
0.0
 40
0.014826381039225
 50
311.6368447773543835
 51
54.6173699448710295
  0
ARC
  5
1CA85
  8
0
 10
3449.7965109779761406
 20
166.5918032251958891
 30
0.0
 40
0.0342902038435752
 50
233.5488103316920956
 51
311.6368447773543835
  0
ARC
  5
1CA86
  8
0
 10
3449.7840857401088215
 20
166.5768139449463945
 30
0.0
 40
0.0148909261053359
 50
139.1718378071956863
 51
237.741569871942886
  0
ARC
  5
1CA87
  8
0
 10
3449.797071807940938
 20
166.5612774552091082
 30
0.0
 40
0.0350273678129937
 50
53.2534447115190801
 51
133.8219598275921101
  0
LINE
  5
1CA88
  8
0
 10
3449.853030691686854
 20
166.5846229632529969
 30
0.0
 11
3449.8575411156989503
 21
166.6466412725293083
 31
0.0
  0
ARC
  5
1CA89
  8
0
 10
3449.834289922986045
 20
166.6289356195964899
 30
0.0
 40
0.0297097751640462
 50
313.3440918669990083
 51
29.635813770592101
  0
ARC
  5
1CA8A
  8
0
 10
3449.806782914948144
 20
166.6007286687326996
 30
0.0
 40
0.0684424000954968
 50
38.812599057292438
 51
93.7465443276876158
  0
ARC
  5
1CA8B
  8
0
 10
3449.815861285443134
 20
166.4908110057536987
 30
0.0
 40
0.1787282142160488
 50
94.3481542398587578
 51
107.1486636119930012
  0
ARC
  5
1CA8C
  8
0
 10
3449.815861285443134
 20
166.4908110057536987
 30
0.0
 40
0.1787282142160488
 50
116.6925652309380013
 51
129.7493641550173038
  0
ARC
  5
1CA8D
  8
0
 10
3449.7067089806860167
 20
166.6179583064281928
 30
0.0
 40
0.0114787887864739
 50
116.5566291973728994
 51
256.9568480260342085
  0
LINE
  5
1CA8E
  8
0
 10
3449.7068331298769408
 20
166.5738770620272931
 30
0.0
 11
3449.7022990578661847
 21
166.6288233060191999
 31
0.0
  0
ARC
  5
1CA8F
  8
0
 10
3449.7938488867707747
 20
166.4681397069155935
 30
0.0
 40
0.0322095800667334
 50
4.8155099019262648
 51
82.049623202985515
  0
ARC
  5
1CA90
  8
0
 10
3449.7810865942101373
 20
166.4779134229544866
 30
0.0
 40
0.0454118731894695
 50
270.259332039360288
 51
351.043662944144728
  0
ARC
  5
1CA91
  8
0
 10
3449.7808997244219427
 20
166.5366600398996013
 30
0.0
 40
0.1041587641688583
 50
211.4297845022340994
 51
270.2158590976138157
  0
ARC
  5
1CA92
  8
0
 10
3449.6976399398681679
 20
166.4896142861437056
 30
0.0
 40
0.0091855690901679
 50
87.2469912316543343
 51
232.3034264500500115
  0
ARC
  5
1CA93
  8
0
 10
3449.7829985431299065
 20
166.0137944434416966
 30
0.0
 40
0.4923727586935648
 50
97.6273004867014436
 51
99.9312114186995615
  0
ARC
  5
1CA94
  8
0
 10
3449.7534594237058627
 20
166.2952809556799139
 30
0.0
 40
0.2096119625470421
 50
77.6466082431600171
 51
99.8374265156523819
  0
ARC
  5
1CA95
  8
0
 10
3449.7823569580941694
 20
166.4634771889581941
 30
0.0
 40
0.014826381039225
 50
311.6368447773543835
 51
54.6173699448710295
  0
ARC
  5
1CA96
  8
0
 10
3449.7694250588251634
 20
166.4780238854716004
 30
0.0
 40
0.0342902038435752
 50
233.5488103316920956
 51
311.6368447773543835
  0
ARC
  5
1CA97
  8
0
 10
3449.7699858887908704
 20
166.447498115484791
 30
0.0
 40
0.0350273678129937
 50
53.2534447115190801
 51
133.8219598275921101
  0
LINE
  5
1CA98
  8
0
 10
3449.8259447725349673
 20
166.4708436235287081
 30
0.0
 11
3449.8304551965470637
 21
166.5328619328051047
 31
0.0
  0
ARC
  5
1CA99
  8
0
 10
3449.8072040038350679
 20
166.5151562798722864
 30
0.0
 40
0.0297097751640462
 50
313.3440918669990083
 51
29.635813770592101
  0
ARC
  5
1CA9A
  8
0
 10
3449.7796969957971669
 20
166.4869493290084961
 30
0.0
 40
0.0684424000954968
 50
38.812599057292438
 51
60.5907799955241231
  0
ARC
  5
1CA9B
  8
0
 10
3449.7537119227299627
 20
166.2972772659753957
 30
0.0
 40
0.256719513537696
 50
92.2258387679286642
 51
105.628348467977105
  0
ARC
  5
1CA9C
  8
0
 10
3449.6902186119409635
 20
166.5329739837115994
 30
0.0
 40
0.0128485000995475
 50
116.1666932997113975
 51
252.0398445204718882
  0
LINE
  5
1CA9D
  8
0
 10
3449.6884625826091906
 20
166.4900026072214985
 30
0.0
 11
3449.6845526265128683
 21
166.5445057036149024
 31
0.0
  0
ARC
  5
1CA9E
  8
0
 10
3449.7623244195269763
 20
166.4638262588154021
 30
0.0
 40
0.018849242633271
 50
151.6733444297638869
 51
225.2400632493965986
  0
ARC
  5
1CA9F
  8
0
 10
3449.6752580735278571
 20
166.3762463301299022
 30
0.0
 40
0.014826381039225
 50
311.6368447773543835
 51
54.6173699448710295
  0
ARC
  5
1CAA0
  8
0
 10
3449.6623261742588511
 20
166.3907930266433937
 30
0.0
 40
0.0342902038435752
 50
233.5488103316920956
 51
311.6368447773543835
  0
ARC
  5
1CAA1
  8
0
 10
3449.6628870042241033
 20
166.3602672566566127
 30
0.0
 40
0.0350273678129937
 50
53.2534447115190801
 51
133.8219598275921101
  0
ARC
  5
1CAA2
  8
0
 10
3449.6552255349611187
 20
166.3765953999871954
 30
0.0
 40
0.018849242633271
 50
151.6733444297638869
 51
225.2400632493965986
  0
LINE
  5
1CAA3
  8
0
 10
3449.7204929375379834
 20
166.4417568493392139
 30
0.0
 11
3449.7159753834871481
 21
166.3797503473529957
 31
0.0
  0
ARC
  5
1CAA4
  8
0
 10
3449.6780631651181466
 20
166.3825124850353916
 30
0.0
 40
0.0380127045358143
 50
279.9643887028943254
 51
355.8330133826606243
  0
ARC
  5
1CAA5
  8
0
 10
3449.6641447003030407
 20
166.4060984403521104
 30
0.0
 40
0.0643752231149358
 50
229.0463020779835119
 51
288.565216764610625
  0
ARC
  5
1CAA6
  8
0
 10
3449.6849618584187738
 20
166.4073570382643936
 30
0.0
 40
0.0803631542048185
 50
166.5451743399815996
 51
218.3635421382440995
  0
ARC
  5
1CAA7
  8
0
 10
3449.6189935050570057
 20
166.4221547648598971
 30
0.0
 40
0.012798168684792
 50
70.0621935435017633
 51
162.2530191432464051
  0
ARC
  5
1CAA8
  8
0
 10
3449.5930355029840939
 20
166.2450095610458902
 30
0.0
 40
0.1915909814008259
 50
53.2168307197509876
 51
80.8937859899805858
  0
ARC
  5
1CAA9
  8
0
 10
3449.6921171986568879
 20
166.380427361755892
 30
0.0
 40
0.0238677885821644
 50
358.3745761108228862
 51
49.0569903614908824
  0
ARC
  5
1CAAA
  8
0
 10
3449.6990315332718637
 20
166.4239346425920871
 30
0.0
 40
0.0278966472256242
 50
311.9587487574190732
 51
39.7373821793008588
  0
ARC
  5
1CAAB
  8
0
 10
3449.5994101229948683
 20
166.2945846409012063
 30
0.0
 40
0.1905826778830072
 50
50.5592127064004089
 51
81.4324395329505961
  0
ARC
  5
1CAAC
  8
0
 10
3449.6190333071881469
 20
166.4578252212268126
 30
0.0
 40
0.0266966168938123
 50
70.8242233070727565
 51
151.764550379180605
  0
ARC
  5
1CAAD
  8
0
 10
3449.6921557551690967
 20
166.4526873900649946
 30
0.0
 40
0.0982622146684042
 50
169.5824034587980123
 51
206.9980448714491104
  0
LINE
  5
1CAAE
  8
0
 10
3449.6046317943291797
 20
166.4096629777922089
 30
0.0
 11
3449.5998447801889597
 21
166.4763861960175007
 31
0.0
  0
ARC
  5
1CAAF
  8
0
 10
3449.4444796184870938
 20
166.3175546450225966
 30
0.0
 40
0.1107693844241199
 50
15.8471702401497296
 51
54.1947588751882066
  0
ARC
  5
1CAB0
  8
0
 10
3449.5168325993217877
 20
166.3480997360080949
 30
0.0
 40
0.0342077372722265
 50
298.6136036670812928
 51
359.5024747525969246
  0
ARC
  5
1CAB1
  8
0
 10
3449.499429031407999
 20
166.3767331873669946
 30
0.0
 40
0.0676968423788849
 50
238.3930315735412933
 51
299.9386865992332218
  0
ARC
  5
1CAB2
  8
0
 10
3449.4816690978659608
 20
166.3481804449365029
 30
0.0
 40
0.0340721096312157
 50
182.9915905420785975
 51
238.6642577188904113
  0
ARC
  5
1CAB3
  8
0
 10
3449.5492055980598707
 20
166.3215925666922033
 30
0.0
 40
0.1045485328387707
 50
124.8480112630484058
 51
166.2725869047229139
  0
ARC
  5
1CAB4
  8
0
 10
3449.4993732553821246
 20
166.3959704401125066
 30
0.0
 40
0.0151198070009394
 50
49.0476994819709375
 51
130.9365390509975953
  0
LINE
  5
1CAB5
  8
0
 10
3449.5510390469298727
 20
166.3478026984390112
 30
0.0
 11
3449.5558533212451948
 21
166.4118430071148964
 31
0.0
  0
ARC
  5
1CAB6
  8
0
 10
3449.5303620332238097
 20
166.392290286898799
 30
0.0
 40
0.0319280226926079
 50
314.3123569334719036
 51
30.4037093304220711
  0
ARC
  5
1CAB7
  8
0
 10
3449.4133027309480894
 20
166.3236018147709956
 30
0.0
 40
0.1676519573997928
 50
30.4037093304220711
 51
51.1851332778221888
  0
ARC
  5
1CAB8
  8
0
 10
3449.4993672984878685
 20
166.4305876905796993
 30
0.0
 40
0.0303454120045781
 50
51.1851332778211727
 51
129.0731419704775078
  0
ARC
  5
1CAB9
  8
0
 10
3449.5955751207261528
 20
166.3120905429886989
 30
0.0
 40
0.1829806603809687
 50
129.0731419704775078
 51
145.8065487179628974
  0
ARC
  5
1CABA
  8
0
 10
3449.4760644438788404
 20
166.3932899481881975
 30
0.0
 40
0.0384948642447931
 50
145.8065487179628974
 51
218.4158382399567984
  0
LINE
  5
1CABB
  8
0
 10
3449.4476434215180234
 20
166.3464022425199005
 30
0.0
 11
3449.4428846265182074
 21
166.4128079986311946
 31
0.0
  0
ARC
  5
1CABC
  8
0
 10
3449.4993195609181384
 20
166.325437088625506
 30
0.0
 40
0.0353255574171601
 50
46.3880658967633579
 51
132.8885625773563959
  0
ARC
  5
1CABD
  8
0
 10
3449.5129597066020324
 20
166.3421882043402036
 30
0.0
 40
0.0138905039560022
 50
300.5022370801503939
 51
39.4472970682906023
  0
ARC
  5
1CABE
  8
0
 10
3449.4996295776891202
 20
166.3604580973506017
 30
0.0
 40
0.0364651719087676
 50
229.1292810361549925
 51
303.9800916016311021
  0
ARC
  5
1CABF
  8
0
 10
3449.4850949787801255
 20
166.3423561646183941
 30
0.0
 40
0.0132934007563444
 50
137.6032799690553077
 51
225.4450997916869994
  0
ARC
  5
1CAC0
  8
0
 10
3448.6039609548479348
 20
166.102688270030086
 30
0.0
 40
0.0158605807137526
 50
112.9966161537301019
 51
215.7605815038182016
  0
ARC
  5
1CAC1
  8
0
 10
3448.6328582949931842
 20
166.1317571596580933
 30
0.0
 40
0.0566950177214783
 50
222.5482772202661863
 51
293.5268025488704211
  0
ARC
  5
1CAC2
  8
0
 10
3448.6510317434099306
 20
166.0951269999528961
 30
0.0
 40
0.0159861554976066
 50
286.1923909850552263
 51
27.5553969136943095
  0
ARC
  5
1CAC3
  8
0
 10
3448.6223997578222225
 20
166.0684131584528984
 30
0.0
 40
0.0547327900958636
 50
38.5497365312722096
 51
116.7500232293591012
  0
ARC
  5
1CAC4
  8
0
 10
3448.561255399547008
 20
166.1162372146278869
 30
0.0
 40
0.0486730783452054
 50
118.7114519875741934
 51
220.8421640180652048
  0
ARC
  5
1CAC5
  8
0
 10
3448.6403425072157916
 20
166.1910294875185059
 30
0.0
 40
0.1574910575545338
 50
222.6106065000012109
 51
297.4344456290330072
  0
ARC
  5
1CAC6
  8
0
 10
3448.6892716508309604
 20
166.098285461092388
 30
0.0
 40
0.0526384696859408
 50
296.6765967294072084
 51
29.4459166379615489
  0
ARC
  5
1CAC7
  8
0
 10
3448.6149362066448703
 20
166.0192449947819
 30
0.0
 40
0.1595290558649843
 50
41.1224901072995621
 51
118.885935083561904
  0
LINE
  5
1CAC8
  8
0
 10
3448.5125826270282232
 20
166.1164097570724891
 30
0.0
 11
3448.5084513640258592
 21
166.1595281340088093
 31
0.0
  0
ARC
  5
1CAC9
  8
0
 10
3448.5474294242858377
 20
166.1445385474522993
 30
0.0
 40
0.0417609493044361
 50
150.945435810795999
 51
211.9808292229307085
  0
ARC
  5
1CACA
  8
0
 10
3448.6033919562219126
 20
166.0793999242575865
 30
0.0
 40
0.1258843011852876
 50
88.1936762112714234
 51
137.2691183767273913
  0
ARC
  5
1CACB
  8
0
 10
3448.6187689789339856
 20
166.0421419040602018
 30
0.0
 40
0.1634783664592842
 50
43.5085049808335782
 51
94.0018760574370731
  0
ARC
  5
1CACC
  8
0
 10
3448.7019070904179898
 20
166.1227330530668098
 30
0.0
 40
0.0477120670867652
 50
326.9211588268256037
 51
42.051616435691507
  0
LINE
  5
1CACD
  8
0
 10
3448.741892425262904
 20
166.0969206940127947
 30
0.0
 11
3448.7454762454508455
 21
166.1421796485346931
 31
0.0
  0
ARC
  5
1CACE
  8
0
 10
3448.1716006891201687
 20
166.2337434688409985
 30
0.0
 40
0.0102232792820635
 50
110.9236118895567955
 51
219.8338652021872122
  0
ARC
  5
1CACF
  8
0
 10
3448.1929829196378705
 20
166.2515798934275892
 30
0.0
 40
0.0380681679321529
 50
219.8338652021884911
 51
286.3774697316845277
  0
ARC
  5
1CAD0
  8
0
 10
3448.2004797159770533
 20
166.2260709348543912
 30
0.0
 40
0.0114804090412692
 50
286.3774697316845277
 51
32.3804105243237927
  0
ARC
  5
1CAD1
  8
0
 10
3448.1810878491928634
 20
166.2073473777331003
 30
0.0
 40
0.0382709979693845
 50
40.5329435584729296
 51
110.0775685415546974
  0
ARC
  5
1CAD2
  8
0
 10
3448.1505547184519855
 20
166.2455753221724137
 30
0.0
 40
0.0278277611967817
 50
123.4959626459029067
 51
221.9568112345355928
  0
ARC
  5
1CAD3
  8
0
 10
3448.198311654686222
 20
166.2827964443918063
 30
0.0
 40
0.0883293699154341
 50
219.1993180164608077
 51
293.846475108684217
  0
ARC
  5
1CAD4
  8
0
 10
3448.2204487419539873
 20
166.2288331869442004
 30
0.0
 40
0.0300640914076377
 50
296.8387251171466801
 51
35.5147475015145773
  0
ARC
  5
1CAD5
  8
0
 10
3448.1755437231859105
 20
166.1867062155619124
 30
0.0
 40
0.0914560481217059
 50
40.6613664384212186
 51
116.1777705275666932
  0
LINE
  5
1CAD6
  8
0
 10
3448.1227943195058288
 20
166.2475104044906118
 30
0.0
 11
3448.1175111420211579
 21
166.3139231883330922
 31
0.0
  0
ARC
  5
1CAD7
  8
0
 10
3448.1391430922431027
 20
166.296578023975087
 30
0.0
 40
0.0277271707354273
 50
138.0625865478235141
 51
227.8203853734526945
  0
ARC
  5
1CAD8
  8
0
 10
3448.1682732589852094
 20
166.2342857833417042
 30
0.0
 40
0.0949102752243234
 50
71.8551023363055776
 51
121.6170672381314972
  0
ARC
  5
1CAD9
  8
0
 10
3448.1737086542229918
 20
166.215552705410289
 30
0.0
 40
0.1115626171787395
 50
43.109095863334133
 51
77.5130961225280117
  0
ARC
  5
1CADA
  8
0
 10
3448.2356917444399187
 20
166.2700650570650112
 30
0.0
 40
0.029171141471741
 50
308.4427532749106717
 51
48.1469965107785995
  0
LINE
  5
1CADB
  8
0
 10
3448.2503442560191615
 20
166.2256539054320115
 30
0.0
 11
3448.2601009289937792
 21
166.2860383849645984
 31
0.0
  0
ARC
  5
1CADC
  8
0
 10
3448.6980481981208868
 20
166.3362643795410065
 30
0.0
 40
0.0102232792820635
 50
110.9236118895567955
 51
219.8338652021872122
  0
ARC
  5
1CADD
  8
0
 10
3448.7194304286381339
 20
166.3541008041277109
 30
0.0
 40
0.0380681679321529
 50
219.8338652021884911
 51
286.3774697316845277
  0
ARC
  5
1CADE
  8
0
 10
3448.7269272249759524
 20
166.3285918455543992
 30
0.0
 40
0.0114804090412692
 50
286.3774697316845277
 51
32.3804105243237927
  0
ARC
  5
1CADF
  8
0
 10
3448.7075353581931267
 20
166.3098682884331083
 30
0.0
 40
0.0382709979693845
 50
40.5329435584729296
 51
110.0775685415546974
  0
ARC
  5
1CAE0
  8
0
 10
3448.6770022274517942
 20
166.3480962328723933
 30
0.0
 40
0.0278277611967817
 50
123.4959626459029067
 51
221.9568112345355928
  0
ARC
  5
1CAE1
  8
0
 10
3448.7247591636860307
 20
166.3853173550917859
 30
0.0
 40
0.0883293699154341
 50
219.1993180164608077
 51
293.846475108684217
  0
ARC
  5
1CAE2
  8
0
 10
3448.7468962509528865
 20
166.3313540976442084
 30
0.0
 40
0.0300640914076377
 50
296.8387251171466801
 51
35.5147475015145773
  0
ARC
  5
1CAE3
  8
0
 10
3448.7019912321861739
 20
166.289227126261892
 30
0.0
 40
0.0914560481217059
 50
40.6613664384212186
 51
116.1777705275666932
  0
LINE
  5
1CAE4
  8
0
 10
3448.6492418285060921
 20
166.3500313151905061
 30
0.0
 11
3448.643958651021876
 21
166.4164440990331002
 31
0.0
  0
ARC
  5
1CAE5
  8
0
 10
3448.6655906012429114
 20
166.3990989346750098
 30
0.0
 40
0.0277271707354273
 50
138.0625865478235141
 51
227.8203853734526945
  0
ARC
  5
1CAE6
  8
0
 10
3448.6947207679841085
 20
166.3368066940417123
 30
0.0
 40
0.0949102752243234
 50
71.8551023363055776
 51
121.6170672381314972
  0
ARC
  5
1CAE7
  8
0
 10
3448.7001561632241646
 20
166.3180736161102118
 30
0.0
 40
0.1115626171787395
 50
43.109095863334133
 51
77.5130961225280117
  0
ARC
  5
1CAE8
  8
0
 10
3448.7621392534401821
 20
166.3725859677649908
 30
0.0
 40
0.029171141471741
 50
308.4427532749106717
 51
48.1469965107785995
  0
LINE
  5
1CAE9
  8
0
 10
3448.7767917650189702
 20
166.3281748161319911
 30
0.0
 11
3448.7865484379940426
 21
166.3885592956646065
 31
0.0
  0
ARC
  5
1CAEA
  8
0
 10
3447.7693110756208625
 20
166.5364755835410051
 30
0.0
 40
0.0102232792820635
 50
110.9236118895567955
 51
219.8338652021872122
  0
ARC
  5
1CAEB
  8
0
 10
3447.7906933061381096
 20
166.5543120081277095
 30
0.0
 40
0.0380681679321529
 50
219.8338652021884911
 51
286.3774697316845277
  0
ARC
  5
1CAEC
  8
0
 10
3447.7981901024768376
 20
166.5288030495543978
 30
0.0
 40
0.0114804090412692
 50
286.3774697316845277
 51
32.3804105243237927
  0
ARC
  5
1CAED
  8
0
 10
3447.7787982356931025
 20
166.5100794924331069
 30
0.0
 40
0.0382709979693845
 50
40.5329435584729296
 51
110.0775685415546974
  0
ARC
  5
1CAEE
  8
0
 10
3447.7482651049522246
 20
166.5483074368723919
 30
0.0
 40
0.0278277611967817
 50
123.4959626459029067
 51
221.9568112345355928
  0
ARC
  5
1CAEF
  8
0
 10
3447.7960220411860064
 20
166.5855285590918129
 30
0.0
 40
0.0883293699154341
 50
219.1993180164608077
 51
293.846475108684217
  0
ARC
  5
1CAF0
  8
0
 10
3447.8181591284528622
 20
166.531565301644207
 30
0.0
 40
0.0300640914076377
 50
296.8387251171466801
 51
35.5147475015145773
  0
ARC
  5
1CAF1
  8
0
 10
3447.7732541096861496
 20
166.4894383302618905
 30
0.0
 40
0.0914560481217059
 50
40.6613664384212186
 51
116.1777705275666932
  0
LINE
  5
1CAF2
  8
0
 10
3447.7205047060060679
 20
166.5502425191905047
 30
0.0
 11
3447.7152215285218517
 21
166.6166553030330988
 31
0.0
  0
ARC
  5
1CAF3
  8
0
 10
3447.7368534787428871
 20
166.5993101386750936
 30
0.0
 40
0.0277271707354273
 50
138.0625865478235141
 51
227.8203853734526945
  0
ARC
  5
1CAF4
  8
0
 10
3447.7659836454840843
 20
166.5370178980417109
 30
0.0
 40
0.0949102752243234
 50
71.8551023363055776
 51
121.6170672381314972
  0
ARC
  5
1CAF5
  8
0
 10
3447.7714190407241404
 20
166.5182848201102104
 30
0.0
 40
0.1115626171787395
 50
43.109095863334133
 51
77.5130961225280117
  0
ARC
  5
1CAF6
  8
0
 10
3447.8334021309401578
 20
166.5727971717649893
 30
0.0
 40
0.029171141471741
 50
308.4427532749106717
 51
48.1469965107785995
  0
LINE
  5
1CAF7
  8
0
 10
3447.8480546425189459
 20
166.5283860201319897
 30
0.0
 11
3447.8578113154940183
 21
166.588770499664605
 31
0.0
  0
ARC
  5
1CAF8
  8
0
 10
3448.0575154327711971
 20
166.7809509281410101
 30
0.0
 40
0.0102232792820635
 50
110.9236118895567955
 51
219.8338652021872122
  0
ARC
  5
1CAF9
  8
0
 10
3448.0788976632879894
 20
166.7987873527276861
 30
0.0
 40
0.0380681679321529
 50
219.8338652021884911
 51
286.3774697316845277
  0
ARC
  5
1CAFA
  8
0
 10
3448.0863944596271722
 20
166.7732783941542891
 30
0.0
 40
0.0114804090412692
 50
286.3774697316845277
 51
32.3804105243237927
  0
ARC
  5
1CAFB
  8
0
 10
3448.0670025928429823
 20
166.7545548370331119
 30
0.0
 40
0.0382709979693845
 50
40.5329435584729296
 51
110.0775685415546974
  0
ARC
  5
1CAFC
  8
0
 10
3448.0364694621030139
 20
166.7927827814723969
 30
0.0
 40
0.0278277611967817
 50
123.4959626459029067
 51
221.9568112345355928
  0
ARC
  5
1CAFD
  8
0
 10
3448.0842263983358862
 20
166.8300039036917894
 30
0.0
 40
0.0883293699154341
 50
219.1993180164608077
 51
293.846475108684217
  0
ARC
  5
1CAFE
  8
0
 10
3448.1063634856031968
 20
166.776040646244212
 30
0.0
 40
0.0300640914076377
 50
296.8387251171466801
 51
35.5147475015145773
  0
ARC
  5
1CAFF
  8
0
 10
3448.0614584668360294
 20
166.7339136748618955
 30
0.0
 40
0.0914560481217059
 50
40.6613664384212186
 51
116.1777705275666932
  0
LINE
  5
1CB00
  8
0
 10
3448.0087090631559477
 20
166.7947178637905097
 30
0.0
 11
3448.003425885670822
 21
166.8611306476331038
 31
0.0
  0
ARC
  5
1CB01
  8
0
 10
3448.0250578358932216
 20
166.8437854832750986
 30
0.0
 40
0.0277271707354273
 50
138.0625865478235141
 51
227.8203853734526945
  0
ARC
  5
1CB02
  8
0
 10
3448.0541880026348736
 20
166.7814932426416874
 30
0.0
 40
0.0949102752243234
 50
71.8551023363055776
 51
121.6170672381314972
  0
ARC
  5
1CB03
  8
0
 10
3448.0596233978740202
 20
166.7627601647103006
 30
0.0
 40
0.1115626171787395
 50
43.109095863334133
 51
77.5130961225280117
  0
ARC
  5
1CB04
  8
0
 10
3448.1216064880900376
 20
166.8172725163649943
 30
0.0
 40
0.029171141471741
 50
308.4427532749106717
 51
48.1469965107785995
  0
LINE
  5
1CB05
  8
0
 10
3448.13625899967019
 20
166.7728613647319946
 30
0.0
 11
3448.1460156726438981
 21
166.83324584426461
 31
0.0
  0
ARC
  5
1CB06
  8
0
 10
3447.9088948393118699
 20
167.200452448786308
 30
0.0
 40
0.0102232792820635
 50
110.9236118895567955
 51
219.8338652021872122
  0
ARC
  5
1CB07
  8
0
 10
3447.9302770698300264
 20
167.2182888733728987
 30
0.0
 40
0.0380681679321529
 50
219.8338652021884911
 51
286.3774697316845277
  0
ARC
  5
1CB08
  8
0
 10
3447.937773866167845
 20
167.192779914799587
 30
0.0
 40
0.0114804090412692
 50
286.3774697316845277
 51
32.3804105243237927
  0
ARC
  5
1CB09
  8
0
 10
3447.9183819993850193
 20
167.1740563576784098
 30
0.0
 40
0.0382709979693845
 50
40.5329435584729296
 51
110.0775685415546974
  0
ARC
  5
1CB0A
  8
0
 10
3447.8878488686441415
 20
167.2122843021176095
 30
0.0
 40
0.0278277611967817
 50
123.4959626459029067
 51
221.9568112345355928
  0
ARC
  5
1CB0B
  8
0
 10
3447.9356058048779232
 20
167.2495054243370021
 30
0.0
 40
0.0883293699154341
 50
219.1993180164608077
 51
293.846475108684217
  0
ARC
  5
1CB0C
  8
0
 10
3447.957742892144779
 20
167.1955421668893962
 30
0.0
 40
0.0300640914076377
 50
296.8387251171466801
 51
35.5147475015145773
  0
ARC
  5
1CB0D
  8
0
 10
3447.9128378733771569
 20
167.1534151955071081
 30
0.0
 40
0.0914560481217059
 50
40.6613664384212186
 51
116.1777705275666932
  0
LINE
  5
1CB0E
  8
0
 10
3447.8600884696979847
 20
167.2142193844358076
 30
0.0
 11
3447.8548052922128591
 21
167.280632168278288
 31
0.0
  0
ARC
  5
1CB0F
  8
0
 10
3447.8764372424348039
 20
167.2632870039203112
 30
0.0
 40
0.0277271707354273
 50
138.0625865478235141
 51
227.8203853734526945
  0
ARC
  5
1CB10
  8
0
 10
3447.9055674091760011
 20
167.2009947632869
 30
0.0
 40
0.0949102752243234
 50
71.8551023363055776
 51
121.6170672381314972
  0
ARC
  5
1CB11
  8
0
 10
3447.9110028044160572
 20
167.1822616853555132
 30
0.0
 40
0.1115626171787395
 50
43.109095863334133
 51
77.5130961225280117
  0
ARC
  5
1CB12
  8
0
 10
3447.9729858946320746
 20
167.2367740370102069
 30
0.0
 40
0.029171141471741
 50
308.4427532749106717
 51
48.1469965107785995
  0
LINE
  5
1CB13
  8
0
 10
3447.9876384062099532
 20
167.1923628853772072
 30
0.0
 11
3447.9973950791850257
 21
167.2527473649097942
 31
0.0
  0
ARC
  5
1CB14
  8
0
 10
3448.3941043883669408
 20
167.2905327953403116
 30
0.0
 40
0.0102232792820635
 50
110.9236118895567955
 51
219.8338652021872122
  0
ARC
  5
1CB15
  8
0
 10
3448.4154866188841879
 20
167.3083692199269876
 30
0.0
 40
0.0380681679321529
 50
219.8338652021884911
 51
286.3774697316845277
  0
ARC
  5
1CB16
  8
0
 10
3448.4229834152229159
 20
167.2828602613537043
 30
0.0
 40
0.0114804090412692
 50
286.3774697316845277
 51
32.3804105243237927
  0
ARC
  5
1CB17
  8
0
 10
3448.4035915484391808
 20
167.2641367042324134
 30
0.0
 40
0.0382709979693845
 50
40.5329435584729296
 51
110.0775685415546974
  0
ARC
  5
1CB18
  8
0
 10
3448.3730584176978482
 20
167.3023646486716984
 30
0.0
 40
0.0278277611967817
 50
123.4959626459029067
 51
221.9568112345355928
  0
ARC
  5
1CB19
  8
0
 10
3448.4208153539320847
 20
167.339585770891091
 30
0.0
 40
0.0883293699154341
 50
219.1993180164608077
 51
293.846475108684217
  0
ARC
  5
1CB1A
  8
0
 10
3448.44295244119985
 20
167.2856225134433998
 30
0.0
 40
0.0300640914076377
 50
296.8387251171466801
 51
35.5147475015145773
  0
ARC
  5
1CB1B
  8
0
 10
3448.3980474224317732
 20
167.2434955420611971
 30
0.0
 40
0.0914560481217059
 50
40.6613664384212186
 51
116.1777705275666932
  0
LINE
  5
1CB1C
  8
0
 10
3448.3452980187530557
 20
167.3042997309898112
 30
0.0
 11
3448.34001484126793
 21
167.3707125148324053
 31
0.0
  0
ARC
  5
1CB1D
  8
0
 10
3448.3616467914889654
 20
167.3533673504742865
 30
0.0
 40
0.0277271707354273
 50
138.0625865478235141
 51
227.8203853734526945
  0
ARC
  5
1CB1E
  8
0
 10
3448.3907769582301626
 20
167.2910751098409889
 30
0.0
 40
0.0949102752243234
 50
71.8551023363055776
 51
121.6170672381314972
  0
ARC
  5
1CB1F
  8
0
 10
3448.3962123534702187
 20
167.2723420319094885
 30
0.0
 40
0.1115626171787395
 50
43.109095863334133
 51
77.5130961225280117
  0
ARC
  5
1CB20
  8
0
 10
3448.4581954436857814
 20
167.3268543835642959
 30
0.0
 40
0.029171141471741
 50
308.4427532749106717
 51
48.1469965107785995
  0
LINE
  5
1CB21
  8
0
 10
3448.4728479552650242
 20
167.2824432319312962
 30
0.0
 11
3448.4826046282400966
 21
167.3428277114639116
 31
0.0
  0
ARC
  5
1CB22
  8
0
 10
3448.5483317933708349
 20
167.7140930521910036
 30
0.0
 40
0.0102232792820635
 50
110.9236118895567955
 51
219.8338652021872122
  0
ARC
  5
1CB23
  8
0
 10
3448.569714023888082
 20
167.731929476777708
 30
0.0
 40
0.0380681679321529
 50
219.8338652021884911
 51
286.3774697316845277
  0
ARC
  5
1CB24
  8
0
 10
3448.57721082022681
 20
167.7064205182043111
 30
0.0
 40
0.0114804090412692
 50
286.3774697316845277
 51
32.3804105243237927
  0
ARC
  5
1CB25
  8
0
 10
3448.5578189534430749
 20
167.6876969610831054
 30
0.0
 40
0.0382709979693845
 50
40.5329435584729296
 51
110.0775685415546974
  0
ARC
  5
1CB26
  8
0
 10
3448.527285822702197
 20
167.7259249055223904
 30
0.0
 40
0.0278277611967817
 50
123.4959626459029067
 51
221.9568112345355928
  0
ARC
  5
1CB27
  8
0
 10
3448.5750427589359788
 20
167.7631460277418114
 30
0.0
 40
0.0883293699154341
 50
219.1993180164608077
 51
293.846475108684217
  0
ARC
  5
1CB28
  8
0
 10
3448.5971798462028346
 20
167.7091827702942055
 30
0.0
 40
0.0300640914076377
 50
296.8387251171466801
 51
35.5147475015145773
  0
ARC
  5
1CB29
  8
0
 10
3448.552274827436122
 20
167.667055798911889
 30
0.0
 40
0.0914560481217059
 50
40.6613664384212186
 51
116.1777705275666932
  0
LINE
  5
1CB2A
  8
0
 10
3448.4995254237560403
 20
167.7278599878405032
 30
0.0
 11
3448.4942422462718241
 21
167.7942727716830973
 31
0.0
  0
ARC
  5
1CB2B
  8
0
 10
3448.5158741964928595
 20
167.7769276073250921
 30
0.0
 40
0.0277271707354273
 50
138.0625865478235141
 51
227.8203853734526945
  0
ARC
  5
1CB2C
  8
0
 10
3448.5450043632340567
 20
167.7146353666917094
 30
0.0
 40
0.0949102752243234
 50
71.8551023363055776
 51
121.6170672381314972
  0
ARC
  5
1CB2D
  8
0
 10
3448.5504397584741128
 20
167.6959022887602941
 30
0.0
 40
0.1115626171787395
 50
43.109095863334133
 51
77.5130961225280117
  0
ARC
  5
1CB2E
  8
0
 10
3448.6124228486901302
 20
167.7504146404149878
 30
0.0
 40
0.029171141471741
 50
308.4427532749106717
 51
48.1469965107785995
  0
LINE
  5
1CB2F
  8
0
 10
3448.6270753602689183
 20
167.7060034887819882
 30
0.0
 11
3448.6368320332439907
 21
167.7663879683146035
 31
0.0
  0
ARC
  5
1CB30
  8
0
 10
3449.076906628370125
 20
167.603634198291104
 30
0.0
 40
0.0102232792820635
 50
110.9236118895567955
 51
219.8338652021872122
  0
ARC
  5
1CB31
  8
0
 10
3449.0982888588878268
 20
167.6214706228776947
 30
0.0
 40
0.0380681679321529
 50
219.8338652021884911
 51
286.3774697316845277
  0
ARC
  5
1CB32
  8
0
 10
3449.1057856552270096
 20
167.5959616643044114
 30
0.0
 40
0.0114804090412692
 50
286.3774697316845277
 51
32.3804105243237927
  0
ARC
  5
1CB33
  8
0
 10
3449.0863937884428196
 20
167.5772381071830921
 30
0.0
 40
0.0382709979693845
 50
40.5329435584729296
 51
110.0775685415546974
  0
ARC
  5
1CB34
  8
0
 10
3449.0558606577019418
 20
167.6154660516224055
 30
0.0
 40
0.0278277611967817
 50
123.4959626459029067
 51
221.9568112345355928
  0
ARC
  5
1CB35
  8
0
 10
3449.1036175939361783
 20
167.6526871738417981
 30
0.0
 40
0.0883293699154341
 50
219.1993180164608077
 51
293.846475108684217
  0
ARC
  5
1CB36
  8
0
 10
3449.1257546812039436
 20
167.5987239163941922
 30
0.0
 40
0.0300640914076377
 50
296.8387251171466801
 51
35.5147475015145773
  0
ARC
  5
1CB37
  8
0
 10
3449.0808496624358668
 20
167.5565969450119042
 30
0.0
 40
0.0914560481217059
 50
40.6613664384212186
 51
116.1777705275666932
  0
LINE
  5
1CB38
  8
0
 10
3449.028100258755785
 20
167.6174011339404899
 30
0.0
 11
3449.0228170812711141
 21
167.6838139177831124
 31
0.0
  0
ARC
  5
1CB39
  8
0
 10
3449.044449031493059
 20
167.6664687534251073
 30
0.0
 40
0.0277271707354273
 50
138.0625865478235141
 51
227.8203853734526945
  0
ARC
  5
1CB3A
  8
0
 10
3449.0735791982338014
 20
167.604176512791696
 30
0.0
 40
0.0949102752243234
 50
71.8551023363055776
 51
121.6170672381314972
  0
ARC
  5
1CB3B
  8
0
 10
3449.079014593472948
 20
167.5854434348603093
 30
0.0
 40
0.1115626171787395
 50
43.109095863334133
 51
77.5130961225280117
  0
ARC
  5
1CB3C
  8
0
 10
3449.140997683689875
 20
167.639955786515003
 30
0.0
 40
0.029171141471741
 50
308.4427532749106717
 51
48.1469965107785995
  0
LINE
  5
1CB3D
  8
0
 10
3449.1556501952691178
 20
167.5955446348820033
 30
0.0
 11
3449.1654068682441903
 21
167.6559291144145902
 31
0.0
  0
ARC
  5
1CB3E
  8
0
 10
3449.2417281978209758
 20
167.1495495575410075
 30
0.0
 40
0.0102232792820635
 50
110.9236118895567955
 51
219.8338652021872122
  0
ARC
  5
1CB3F
  8
0
 10
3449.2631104283382228
 20
167.1673859821277119
 30
0.0
 40
0.0380681679321529
 50
219.8338652021884911
 51
286.3774697316845277
  0
ARC
  5
1CB40
  8
0
 10
3449.2706072246769509
 20
167.1418770235544002
 30
0.0
 40
0.0114804090412692
 50
286.3774697316845277
 51
32.3804105243237927
  0
ARC
  5
1CB41
  8
0
 10
3449.2512153578932157
 20
167.1231534664331093
 30
0.0
 40
0.0382709979693845
 50
40.5329435584729296
 51
110.0775685415546974
  0
ARC
  5
1CB42
  8
0
 10
3449.2206822271518831
 20
167.1613814108723943
 30
0.0
 40
0.0278277611967817
 50
123.4959626459029067
 51
221.9568112345355928
  0
ARC
  5
1CB43
  8
0
 10
3449.2684391633852101
 20
167.1986025330917869
 30
0.0
 40
0.0883293699154341
 50
219.1993180164608077
 51
293.846475108684217
  0
ARC
  5
1CB44
  8
0
 10
3449.2905762506538849
 20
167.1446392756442094
 30
0.0
 40
0.0300640914076377
 50
296.8387251171466801
 51
35.5147475015145773
  0
ARC
  5
1CB45
  8
0
 10
3449.2456712318858081
 20
167.102512304261893
 30
0.0
 40
0.0914560481217059
 50
40.6613664384212186
 51
116.1777705275666932
  0
LINE
  5
1CB46
  8
0
 10
3449.1929218282061811
 20
167.1633164931905071
 30
0.0
 11
3449.1876386507210555
 21
167.2297292770331012
 31
0.0
  0
ARC
  5
1CB47
  8
0
 10
3449.2092706009420908
 20
167.2123841126750108
 30
0.0
 40
0.0277271707354273
 50
138.0625865478235141
 51
227.8203853734526945
  0
ARC
  5
1CB48
  8
0
 10
3449.2384007676841975
 20
167.1500918720417133
 30
0.0
 40
0.0949102752243234
 50
71.8551023363055776
 51
121.6170672381314972
  0
ARC
  5
1CB49
  8
0
 10
3449.2438361629228893
 20
167.1313587941102128
 30
0.0
 40
0.1115626171787395
 50
43.109095863334133
 51
77.5130961225280117
  0
ARC
  5
1CB4A
  8
0
 10
3449.3058192531398163
 20
167.1858711457649918
 30
0.0
 40
0.029171141471741
 50
308.4427532749106717
 51
48.1469965107785995
  0
LINE
  5
1CB4B
  8
0
 10
3449.3204717647190591
 20
167.1414599941319921
 30
0.0
 11
3449.3302284376941316
 21
167.2018444736646074
 31
0.0
  0
ARC
  5
1CB4C
  8
0
 10
3448.8305109505208748
 20
166.9707250955410132
 30
0.0
 40
0.0102232792820635
 50
110.9236118895567955
 51
219.8338652021872122
  0
ARC
  5
1CB4D
  8
0
 10
3448.8518931810381218
 20
166.9885615201276892
 30
0.0
 40
0.0380681679321529
 50
219.8338652021884911
 51
286.3774697316845277
  0
ARC
  5
1CB4E
  8
0
 10
3448.8593899773768499
 20
166.9630525615542922
 30
0.0
 40
0.0114804090412692
 50
286.3774697316845277
 51
32.3804105243237927
  0
ARC
  5
1CB4F
  8
0
 10
3448.8399981105940242
 20
166.9443290044330865
 30
0.0
 40
0.0382709979693845
 50
40.5329435584729296
 51
110.0775685415546974
  0
ARC
  5
1CB50
  8
0
 10
3448.8094649798531464
 20
166.9825569488724
 30
0.0
 40
0.0278277611967817
 50
123.4959626459029067
 51
221.9568112345355928
  0
ARC
  5
1CB51
  8
0
 10
3448.8572219160860186
 20
167.0197780710917925
 30
0.0
 40
0.0883293699154341
 50
219.1993180164608077
 51
293.846475108684217
  0
ARC
  5
1CB52
  8
0
 10
3448.8793590033528744
 20
166.9658148136441866
 30
0.0
 40
0.0300640914076377
 50
296.8387251171466801
 51
35.5147475015145773
  0
ARC
  5
1CB53
  8
0
 10
3448.8344539845861618
 20
166.9236878422618986
 30
0.0
 40
0.0914560481217059
 50
40.6613664384212186
 51
116.1777705275666932
  0
LINE
  5
1CB54
  8
0
 10
3448.7817045809060801
 20
166.9844920311905128
 30
0.0
 11
3448.7764214034209544
 21
167.0509048150331068
 31
0.0
  0
ARC
  5
1CB55
  8
0
 10
3448.7980533536428993
 20
167.0335596506751017
 30
0.0
 40
0.0277271707354273
 50
138.0625865478235141
 51
227.8203853734526945
  0
ARC
  5
1CB56
  8
0
 10
3448.8271835203840965
 20
166.9712674100416905
 30
0.0
 40
0.0949102752243234
 50
71.8551023363055776
 51
121.6170672381314972
  0
ARC
  5
1CB57
  8
0
 10
3448.8326189156241526
 20
166.9525343321103037
 30
0.0
 40
0.1115626171787395
 50
43.109095863334133
 51
77.5130961225280117
  0
ARC
  5
1CB58
  8
0
 10
3448.89460200584017
 20
167.0070466837649974
 30
0.0
 40
0.029171141471741
 50
308.4427532749106717
 51
48.1469965107785995
  0
LINE
  5
1CB59
  8
0
 10
3448.9092545174189581
 20
166.9626355321319977
 30
0.0
 11
3448.9190111903940306
 21
167.0230200116646131
 31
0.0
  0
ARC
  5
1CB5A
  8
0
 10
3449.1669523741197736
 20
166.9055306712411095
 30
0.0
 40
0.0102232792820635
 50
110.9236118895567955
 51
219.8338652021872122
  0
ARC
  5
1CB5B
  8
0
 10
3449.1883346046379302
 20
166.9233670958277003
 30
0.0
 40
0.0380681679321529
 50
219.8338652021884911
 51
286.3774697316845277
  0
ARC
  5
1CB5C
  8
0
 10
3449.1958314009762034
 20
166.8978581372543886
 30
0.0
 40
0.0114804090412692
 50
286.3774697316845277
 51
32.3804105243237927
  0
ARC
  5
1CB5D
  8
0
 10
3449.176439534192923
 20
166.8791345801330976
 30
0.0
 40
0.0382709979693845
 50
40.5329435584729296
 51
110.0775685415546974
  0
ARC
  5
1CB5E
  8
0
 10
3449.1459064034520452
 20
166.9173625245724111
 30
0.0
 40
0.0278277611967817
 50
123.4959626459029067
 51
221.9568112345355928
  0
ARC
  5
1CB5F
  8
0
 10
3449.1936633396858269
 20
166.9545836467918036
 30
0.0
 40
0.0883293699154341
 50
219.1993180164608077
 51
293.846475108684217
  0
ARC
  5
1CB60
  8
0
 10
3449.215800426954047
 20
166.9006203893441977
 30
0.0
 40
0.0300640914076377
 50
296.8387251171466801
 51
35.5147475015145773
  0
ARC
  5
1CB61
  8
0
 10
3449.1708954081859702
 20
166.8584934179619097
 30
0.0
 40
0.0914560481217059
 50
40.6613664384212186
 51
116.1777705275666932
  0
LINE
  5
1CB62
  8
0
 10
3449.1181460045067979
 20
166.9192976068904954
 30
0.0
 11
3449.1128628270212175
 21
166.9857103907330895
 31
0.0
  0
ARC
  5
1CB63
  8
0
 10
3449.1344947772431624
 20
166.9683652263751128
 30
0.0
 40
0.0277271707354273
 50
138.0625865478235141
 51
227.8203853734526945
  0
ARC
  5
1CB64
  8
0
 10
3449.1636249439839048
 20
166.9060729857417016
 30
0.0
 40
0.0949102752243234
 50
71.8551023363055776
 51
121.6170672381314972
  0
ARC
  5
1CB65
  8
0
 10
3449.1690603392239609
 20
166.8873399078102011
 30
0.0
 40
0.1115626171787395
 50
43.109095863334133
 51
77.5130961225280117
  0
ARC
  5
1CB66
  8
0
 10
3449.2310434294408878
 20
166.9418522594650085
 30
0.0
 40
0.029171141471741
 50
308.4427532749106717
 51
48.1469965107785995
  0
LINE
  5
1CB67
  8
0
 10
3449.2456959410192212
 20
166.8974411078320088
 30
0.0
 11
3449.2554526139929294
 21
166.9578255873645958
 31
0.0
  0
ARC
  5
1CB68
  8
0
 10
3448.958678536519983
 20
166.7295002604410001
 30
0.0
 40
0.0102232792820635
 50
110.9236118895567955
 51
219.8338652021872122
  0
ARC
  5
1CB69
  8
0
 10
3448.9800607670381396
 20
166.7473366850277046
 30
0.0
 40
0.0380681679321529
 50
219.8338652021884911
 51
286.3774697316845277
  0
ARC
  5
1CB6A
  8
0
 10
3448.9875575633768676
 20
166.7218277264543929
 30
0.0
 40
0.0114804090412692
 50
286.3774697316845277
 51
32.3804105243237927
  0
ARC
  5
1CB6B
  8
0
 10
3448.9681656965940419
 20
166.7031041693331019
 30
0.0
 40
0.0382709979693845
 50
40.5329435584729296
 51
110.0775685415546974
  0
ARC
  5
1CB6C
  8
0
 10
3448.9376325658531641
 20
166.7413321137723869
 30
0.0
 40
0.0278277611967817
 50
123.4959626459029067
 51
221.9568112345355928
  0
ARC
  5
1CB6D
  8
0
 10
3448.9853895020860364
 20
166.7785532359918079
 30
0.0
 40
0.0883293699154341
 50
219.1993180164608077
 51
293.846475108684217
  0
ARC
  5
1CB6E
  8
0
 10
3449.0075265893538017
 20
166.724589978544202
 30
0.0
 40
0.0300640914076377
 50
296.8387251171466801
 51
35.5147475015145773
  0
ARC
  5
1CB6F
  8
0
 10
3448.9626215705861796
 20
166.682463007161914
 30
0.0
 40
0.0914560481217059
 50
40.6613664384212186
 51
116.1777705275666932
  0
LINE
  5
1CB70
  8
0
 10
3448.9098721669060978
 20
166.7432671960906134
 30
0.0
 11
3448.9045889894209722
 21
166.8096799799330938
 31
0.0
  0
ARC
  5
1CB71
  8
0
 10
3448.9262209396429171
 20
166.7923348155750887
 30
0.0
 40
0.0277271707354273
 50
138.0625865478235141
 51
227.8203853734526945
  0
ARC
  5
1CB72
  8
0
 10
3448.9553511063841142
 20
166.7300425749417059
 30
0.0
 40
0.0949102752243234
 50
71.8551023363055776
 51
121.6170672381314972
  0
ARC
  5
1CB73
  8
0
 10
3448.9607865016241703
 20
166.7113094970102907
 30
0.0
 40
0.1115626171787395
 50
43.109095863334133
 51
77.5130961225280117
  0
ARC
  5
1CB74
  8
0
 10
3449.0227695918401878
 20
166.7658218486650128
 30
0.0
 40
0.029171141471741
 50
308.4427532749106717
 51
48.1469965107785995
  0
LINE
  5
1CB75
  8
0
 10
3449.0374221034189759
 20
166.7214106970320131
 30
0.0
 11
3449.0471787763940483
 21
166.7817951765646001
 31
0.0
  0
ARC
  5
1CB76
  8
0
 10
3448.6269580280209084
 20
166.668721621441108
 30
0.0
 40
0.0102232792820635
 50
110.9236118895567955
 51
219.8338652021872122
  0
ARC
  5
1CB77
  8
0
 10
3448.6483402585381555
 20
166.6865580460276988
 30
0.0
 40
0.0380681679321529
 50
219.8338652021884911
 51
286.3774697316845277
  0
ARC
  5
1CB78
  8
0
 10
3448.655837054875974
 20
166.6610490874543871
 30
0.0
 40
0.0114804090412692
 50
286.3774697316845277
 51
32.3804105243237927
  0
ARC
  5
1CB79
  8
0
 10
3448.6364451880931483
 20
166.6423255303330961
 30
0.0
 40
0.0382709979693845
 50
40.5329435584729296
 51
110.0775685415546974
  0
ARC
  5
1CB7A
  8
0
 10
3448.6059120573518157
 20
166.6805534747724096
 30
0.0
 40
0.0278277611967817
 50
123.4959626459029067
 51
221.9568112345355928
  0
ARC
  5
1CB7B
  8
0
 10
3448.6536689935860522
 20
166.7177745969918021
 30
0.0
 40
0.0883293699154341
 50
219.1993180164608077
 51
293.846475108684217
  0
ARC
  5
1CB7C
  8
0
 10
3448.6758060808529081
 20
166.6638113395441962
 30
0.0
 40
0.0300640914076377
 50
296.8387251171466801
 51
35.5147475015145773
  0
ARC
  5
1CB7D
  8
0
 10
3448.6309010620861955
 20
166.6216843681619082
 30
0.0
 40
0.0914560481217059
 50
40.6613664384212186
 51
116.1777705275666932
  0
LINE
  5
1CB7E
  8
0
 10
3448.5781516584061137
 20
166.6824885570904939
 30
0.0
 11
3448.5728684809218976
 21
166.748901340933088
 31
0.0
  0
ARC
  5
1CB7F
  8
0
 10
3448.5945004311438424
 20
166.7315561765751113
 30
0.0
 40
0.0277271707354273
 50
138.0625865478235141
 51
227.8203853734526945
  0
ARC
  5
1CB80
  8
0
 10
3448.6236305978850396
 20
166.6692639359417001
 30
0.0
 40
0.0949102752243234
 50
71.8551023363055776
 51
121.6170672381314972
  0
ARC
  5
1CB81
  8
0
 10
3448.6290659931241862
 20
166.6505308580101996
 30
0.0
 40
0.1115626171787395
 50
43.109095863334133
 51
77.5130961225280117
  0
ARC
  5
1CB82
  8
0
 10
3448.6910490833402037
 20
166.705043209665007
 30
0.0
 40
0.029171141471741
 50
308.4427532749106717
 51
48.1469965107785995
  0
LINE
  5
1CB83
  8
0
 10
3448.7057015949189918
 20
166.6606320580320073
 30
0.0
 11
3448.7154582678940642
 21
166.7210165375645943
 31
0.0
  0
ARC
  5
1CB84
  8
0
 10
3448.9105129494710127
 20
166.5134246303410066
 30
0.0
 40
0.0102232792820635
 50
110.9236118895567955
 51
219.8338652021872122
  0
ARC
  5
1CB85
  8
0
 10
3448.931895179987805
 20
166.531261054927711
 30
0.0
 40
0.0380681679321529
 50
219.8338652021884911
 51
286.3774697316845277
  0
ARC
  5
1CB86
  8
0
 10
3448.9393919763269878
 20
166.5057520963543993
 30
0.0
 40
0.0114804090412692
 50
286.3774697316845277
 51
32.3804105243237927
  0
ARC
  5
1CB87
  8
0
 10
3448.9200001095427979
 20
166.4870285392331084
 30
0.0
 40
0.0382709979693845
 50
40.5329435584729296
 51
110.0775685415546974
  0
ARC
  5
1CB88
  8
0
 10
3448.88946697880192
 20
166.5252564836723934
 30
0.0
 40
0.0278277611967817
 50
123.4959626459029067
 51
221.9568112345355928
  0
ARC
  5
1CB89
  8
0
 10
3448.9372239150361565
 20
166.562477605891786
 30
0.0
 40
0.0883293699154341
 50
219.1993180164608077
 51
293.846475108684217
  0
ARC
  5
1CB8A
  8
0
 10
3448.9593610023039219
 20
166.5085143484442085
 30
0.0
 40
0.0300640914076377
 50
296.8387251171466801
 51
35.5147475015145773
  0
ARC
  5
1CB8B
  8
0
 10
3448.914455983535845
 20
166.466387377061892
 30
0.0
 40
0.0914560481217059
 50
40.6613664384212186
 51
116.1777705275666932
  0
LINE
  5
1CB8C
  8
0
 10
3448.861706579856218
 20
166.5271915659905062
 30
0.0
 11
3448.8564234023710924
 21
166.5936043498331003
 31
0.0
  0
ARC
  5
1CB8D
  8
0
 10
3448.8780553525930372
 20
166.5762591854750099
 30
0.0
 40
0.0277271707354273
 50
138.0625865478235141
 51
227.8203853734526945
  0
ARC
  5
1CB8E
  8
0
 10
3448.9071855193351439
 20
166.5139669448417123
 30
0.0
 40
0.0949102752243234
 50
71.8551023363055776
 51
121.6170672381314972
  0
ARC
  5
1CB8F
  8
0
 10
3448.9126209145738358
 20
166.4952338669102119
 30
0.0
 40
0.1115626171787395
 50
43.109095863334133
 51
77.5130961225280117
  0
ARC
  5
1CB90
  8
0
 10
3448.9746040047898532
 20
166.5497462185649908
 30
0.0
 40
0.029171141471741
 50
308.4427532749106717
 51
48.1469965107785995
  0
LINE
  5
1CB91
  8
0
 10
3448.9892565163690961
 20
166.5053350669319912
 30
0.0
 11
3448.9990131893428043
 21
166.5657195464646065
 31
0.0
  0
ARC
  5
1CB92
  8
0
 10
3449.0453408762209619
 20
166.3121955397411114
 30
0.0
 40
0.0102232792820635
 50
110.9236118895567955
 51
219.8338652021872122
  0
ARC
  5
1CB93
  8
0
 10
3449.066723106738209
 20
166.3300319643277021
 30
0.0
 40
0.0380681679321529
 50
219.8338652021884911
 51
286.3774697316845277
  0
ARC
  5
1CB94
  8
0
 10
3449.074219903076937
 20
166.3045230057543904
 30
0.0
 40
0.0114804090412692
 50
286.3774697316845277
 51
32.3804105243237927
  0
ARC
  5
1CB95
  8
0
 10
3449.0548280362932019
 20
166.2857994486330995
 30
0.0
 40
0.0382709979693845
 50
40.5329435584729296
 51
110.0775685415546974
  0
ARC
  5
1CB96
  8
0
 10
3449.0242949055518693
 20
166.3240273930724129
 30
0.0
 40
0.0278277611967817
 50
123.4959626459029067
 51
221.9568112345355928
  0
ARC
  5
1CB97
  8
0
 10
3449.0720518417851963
 20
166.3612485152918055
 30
0.0
 40
0.0883293699154341
 50
219.1993180164608077
 51
293.846475108684217
  0
ARC
  5
1CB98
  8
0
 10
3449.0941889290529616
 20
166.3072852578440859
 30
0.0
 40
0.0300640914076377
 50
296.8387251171466801
 51
35.5147475015145773
  0
ARC
  5
1CB99
  8
0
 10
3449.0492839102857943
 20
166.2651582864619115
 30
0.0
 40
0.0914560481217059
 50
40.6613664384212186
 51
116.1777705275666932
  0
LINE
  5
1CB9A
  8
0
 10
3448.9965345066061673
 20
166.3259624753904973
 30
0.0
 11
3448.9912513291210416
 21
166.3923752592330914
 31
0.0
  0
ARC
  5
1CB9B
  8
0
 10
3449.0128832793429865
 20
166.3750300948750862
 30
0.0
 40
0.0277271707354273
 50
138.0625865478235141
 51
227.8203853734526945
  0
ARC
  5
1CB9C
  8
0
 10
3449.0420134460841837
 20
166.3127378542417034
 30
0.0
 40
0.0949102752243234
 50
71.8551023363055776
 51
121.6170672381314972
  0
ARC
  5
1CB9D
  8
0
 10
3449.0474488413228755
 20
166.2940047763102029
 30
0.0
 40
0.1115626171787395
 50
43.109095863334133
 51
77.5130961225280117
  0
ARC
  5
1CB9E
  8
0
 10
3449.1094319315398025
 20
166.3485171279650103
 30
0.0
 40
0.029171141471741
 50
308.4427532749106717
 51
48.1469965107785995
  0
LINE
  5
1CB9F
  8
0
 10
3449.1240844431190453
 20
166.3041059763320106
 30
0.0
 11
3449.1338411160941178
 21
166.3644904558645976
 31
0.0
  0
ARC
  5
1CBA0
  8
0
 10
3449.015984634124834
 20
166.0877439884691
 30
0.0
 40
0.0102232792820635
 50
110.9236118895567955
 51
219.8338652021872122
  0
ARC
  5
1CBA1
  8
0
 10
3449.0373668646420811
 20
166.1055804130556908
 30
0.0
 40
0.0380681679321529
 50
219.8338652021884911
 51
286.3774697316845277
  0
ARC
  5
1CBA2
  8
0
 10
3449.0448636609808091
 20
166.0800714544824075
 30
0.0
 40
0.0114804090412692
 50
286.3774697316845277
 51
32.3804105243237927
  0
ARC
  5
1CBA3
  8
0
 10
3449.0254717941970739
 20
166.0613478973612018
 30
0.0
 40
0.0382709979693845
 50
40.5329435584729296
 51
110.0775685415546974
  0
ARC
  5
1CBA4
  8
0
 10
3448.9949386634571056
 20
166.0995758418004868
 30
0.0
 40
0.0278277611967817
 50
123.4959626459029067
 51
221.9568112345355928
  0
ARC
  5
1CBA5
  8
0
 10
3449.0426955996899778
 20
166.1367969640199078
 30
0.0
 40
0.0883293699154341
 50
219.1993180164608077
 51
293.846475108684217
  0
ARC
  5
1CBA6
  8
0
 10
3449.0648326869568336
 20
166.0828337065723019
 30
0.0
 40
0.0300640914076377
 50
296.8387251171466801
 51
35.5147475015145773
  0
ARC
  5
1CBA7
  8
0
 10
3449.019927668190121
 20
166.0407067351900139
 30
0.0
 40
0.0914560481217059
 50
40.6613664384212186
 51
116.1777705275666932
  0
LINE
  5
1CBA8
  8
0
 10
3448.9671782645100393
 20
166.1015109241185996
 30
0.0
 11
3448.9618950870249137
 21
166.1679237079611084
 31
0.0
  0
ARC
  5
1CBA9
  8
0
 10
3448.9835270372468585
 20
166.1505785436031033
 30
0.0
 40
0.0277271707354273
 50
138.0625865478235141
 51
227.8203853734526945
  0
ARC
  5
1CBAA
  8
0
 10
3449.0126572039889652
 20
166.0882863029698058
 30
0.0
 40
0.0949102752243234
 50
71.8551023363055776
 51
121.6170672381314972
  0
ARC
  5
1CBAB
  8
0
 10
3449.0180925992281118
 20
166.0695532250383053
 30
0.0
 40
0.1115626171787395
 50
43.109095863334133
 51
77.5130961225280117
  0
ARC
  5
1CBAC
  8
0
 10
3449.0800756894441292
 20
166.124065576692999
 30
0.0
 40
0.029171141471741
 50
308.4427532749106717
 51
48.1469965107785995
  0
LINE
  5
1CBAD
  8
0
 10
3449.0947282010238268
 20
166.079654425060113
 30
0.0
 11
3449.1044848739979898
 21
166.1400389045927
 31
0.0
  0
ARC
  5
1CBAE
  8
0
 10
3449.3208600920211211
 20
166.1887485301411118
 30
0.0
 40
0.0102232792820635
 50
110.9236118895567955
 51
219.8338652021872122
  0
ARC
  5
1CBAF
  8
0
 10
3449.3422423225388229
 20
166.2065849547277026
 30
0.0
 40
0.0380681679321529
 50
219.8338652021884911
 51
286.3774697316845277
  0
ARC
  5
1CBB0
  8
0
 10
3449.3497391188770962
 20
166.1810759961543909
 30
0.0
 40
0.0114804090412692
 50
286.3774697316845277
 51
32.3804105243237927
  0
ARC
  5
1CBB1
  8
0
 10
3449.3303472520929063
 20
166.1623524390330999
 30
0.0
 40
0.0382709979693845
 50
40.5329435584729296
 51
110.0775685415546974
  0
ARC
  5
1CBB2
  8
0
 10
3449.2998141213520285
 20
166.2005803834724134
 30
0.0
 40
0.0278277611967817
 50
123.4959626459029067
 51
221.9568112345355928
  0
ARC
  5
1CBB3
  8
0
 10
3449.3475710575858102
 20
166.2378015056918059
 30
0.0
 40
0.0883293699154341
 50
219.1993180164608077
 51
293.846475108684217
  0
ARC
  5
1CBB4
  8
0
 10
3449.3697081448540303
 20
166.1838382482440863
 30
0.0
 40
0.0300640914076377
 50
296.8387251171466801
 51
35.5147475015145773
  0
ARC
  5
1CBB5
  8
0
 10
3449.3248031260850439
 20
166.141711276861912
 30
0.0
 40
0.0914560481217059
 50
40.6613664384212186
 51
116.1777705275666932
  0
LINE
  5
1CBB6
  8
0
 10
3449.2720537224058717
 20
166.2025154657904977
 30
0.0
 11
3449.2667705449221103
 21
166.2689282496330918
 31
0.0
  0
ARC
  5
1CBB7
  8
0
 10
3449.2884024951431456
 20
166.2515830852750867
 30
0.0
 40
0.0277271707354273
 50
138.0625865478235141
 51
227.8203853734526945
  0
ARC
  5
1CBB8
  8
0
 10
3449.3175326618847976
 20
166.1892908446417039
 30
0.0
 40
0.0949102752243234
 50
71.8551023363055776
 51
121.6170672381314972
  0
ARC
  5
1CBB9
  8
0
 10
3449.3229680571230347
 20
166.1705577667102034
 30
0.0
 40
0.1115626171787395
 50
43.109095863334133
 51
77.5130961225280117
  0
ARC
  5
1CBBA
  8
0
 10
3449.3849511473399616
 20
166.2250701183650108
 30
0.0
 40
0.029171141471741
 50
308.4427532749106717
 51
48.1469965107785995
  0
LINE
  5
1CBBB
  8
0
 10
3449.3996036589192045
 20
166.1806589667320111
 30
0.0
 11
3449.4093603318938221
 21
166.2410434462645981
 31
0.0
  0
ARC
  5
1CBBC
  8
0
 10
3448.7015234035211506
 20
165.8204954375910916
 30
0.0
 40
0.0102232792820635
 50
110.9236118895567955
 51
219.8338652021872122
  0
ARC
  5
1CBBD
  8
0
 10
3448.7229056340379429
 20
165.8383318621777107
 30
0.0
 40
0.0380681679321529
 50
219.8338652021884911
 51
286.3774697316845277
  0
ARC
  5
1CBBE
  8
0
 10
3448.7304024303771257
 20
165.812822903604399
 30
0.0
 40
0.0114804090412692
 50
286.3774697316845277
 51
32.3804105243237927
  0
ARC
  5
1CBBF
  8
0
 10
3448.7110105635929358
 20
165.7940993464831081
 30
0.0
 40
0.0382709979693845
 50
40.5329435584729296
 51
110.0775685415546974
  0
ARC
  5
1CBC0
  8
0
 10
3448.680477432852058
 20
165.8323272909223931
 30
0.0
 40
0.0278277611967817
 50
123.4959626459029067
 51
221.9568112345355928
  0
ARC
  5
1CBC1
  8
0
 10
3448.7282343690858397
 20
165.8695484131418141
 30
0.0
 40
0.0883293699154341
 50
219.1993180164608077
 51
293.846475108684217
  0
ARC
  5
1CBC2
  8
0
 10
3448.7503714563540598
 20
165.8155851556942082
 30
0.0
 40
0.0300640914076377
 50
296.8387251171466801
 51
35.5147475015145773
  0
ARC
  5
1CBC3
  8
0
 10
3448.7054664375859829
 20
165.7734581843118917
 30
0.0
 40
0.0914560481217059
 50
40.6613664384212186
 51
116.1777705275666932
  0
LINE
  5
1CBC4
  8
0
 10
3448.6527170339059012
 20
165.8342623732405059
 30
0.0
 11
3448.6474338564221398
 21
165.9006751570831
 31
0.0
  0
ARC
  5
1CBC5
  8
0
 10
3448.6690658066431752
 20
165.8833299927250096
 30
0.0
 40
0.0277271707354273
 50
138.0625865478235141
 51
227.8203853734526945
  0
ARC
  5
1CBC6
  8
0
 10
3448.6981959733839176
 20
165.821037752091712
 30
0.0
 40
0.0949102752243234
 50
71.8551023363055776
 51
121.6170672381314972
  0
ARC
  5
1CBC7
  8
0
 10
3448.7036313686239737
 20
165.8023046741602116
 30
0.0
 40
0.1115626171787395
 50
43.109095863334133
 51
77.5130961225280117
  0
ARC
  5
1CBC8
  8
0
 10
3448.7656144588399911
 20
165.8568170258149905
 30
0.0
 40
0.029171141471741
 50
308.4427532749106717
 51
48.1469965107785995
  0
LINE
  5
1CBC9
  8
0
 10
3448.7802669704187792
 20
165.8124058741819908
 30
0.0
 11
3448.7900236433938517
 21
165.8727903537146062
 31
0.0
  0
ARC
  5
1CBCA
  8
0
 10
3448.1752534551710596
 20
165.9310305250411091
 30
0.0
 40
0.0102232792820635
 50
110.9236118895567955
 51
219.8338652021872122
  0
ARC
  5
1CBCB
  8
0
 10
3448.1966356856878519
 20
165.9488669496276998
 30
0.0
 40
0.0380681679321529
 50
219.8338652021884911
 51
286.3774697316845277
  0
ARC
  5
1CBCC
  8
0
 10
3448.2041324820270347
 20
165.9233579910543881
 30
0.0
 40
0.0114804090412692
 50
286.3774697316845277
 51
32.3804105243237927
  0
ARC
  5
1CBCD
  8
0
 10
3448.1847406152428448
 20
165.9046344339330972
 30
0.0
 40
0.0382709979693845
 50
40.5329435584729296
 51
110.0775685415546974
  0
ARC
  5
1CBCE
  8
0
 10
3448.1542074845028765
 20
165.9428623783724106
 30
0.0
 40
0.0278277611967817
 50
123.4959626459029067
 51
221.9568112345355928
  0
ARC
  5
1CBCF
  8
0
 10
3448.2019644207362035
 20
165.9800835005918032
 30
0.0
 40
0.0883293699154341
 50
219.1993180164608077
 51
293.846475108684217
  0
ARC
  5
1CBD0
  8
0
 10
3448.2241015080030593
 20
165.9261202431441973
 30
0.0
 40
0.0300640914076377
 50
296.8387251171466801
 51
35.5147475015145773
  0
ARC
  5
1CBD1
  8
0
 10
3448.1791964892349824
 20
165.8839932717619092
 30
0.0
 40
0.0914560481217059
 50
40.6613664384212186
 51
116.1777705275666932
  0
LINE
  5
1CBD2
  8
0
 10
3448.1264470855558102
 20
165.944797460690495
 30
0.0
 11
3448.1211639080711393
 21
166.0112102445330891
 31
0.0
  0
ARC
  5
1CBD3
  8
0
 10
3448.1427958582930842
 20
165.9938650801751123
 30
0.0
 40
0.0277271707354273
 50
138.0625865478235141
 51
227.8203853734526945
  0
ARC
  5
1CBD4
  8
0
 10
3448.1719260250351908
 20
165.9315728395417011
 30
0.0
 40
0.0949102752243234
 50
71.8551023363055776
 51
121.6170672381314972
  0
ARC
  5
1CBD5
  8
0
 10
3448.1773614202738827
 20
165.9128397616102006
 30
0.0
 40
0.1115626171787395
 50
43.109095863334133
 51
77.5130961225280117
  0
ARC
  5
1CBD6
  8
0
 10
3448.2393445104899001
 20
165.967352113265008
 30
0.0
 40
0.029171141471741
 50
308.4427532749106717
 51
48.1469965107785995
  0
LINE
  5
1CBD7
  8
0
 10
3448.253997022069143
 20
165.9229409616320083
 30
0.0
 11
3448.2637536950442154
 21
165.9833254411645953
 31
0.0
  0
ARC
  5
1CBD8
  8
0
 10
3448.9934898341198277
 20
165.5820221007377029
 30
0.0
 40
0.0102232792820635
 50
110.9236118895567955
 51
219.8338652021872122
  0
ARC
  5
1CBD9
  8
0
 10
3449.0148720646370748
 20
165.5998585253242936
 30
0.0
 40
0.0380681679321529
 50
219.8338652021884911
 51
286.3774697316845277
  0
ARC
  5
1CBDA
  8
0
 10
3449.0223688609771671
 20
165.5743495667510103
 30
0.0
 40
0.0114804090412692
 50
286.3774697316845277
 51
32.3804105243237927
  0
ARC
  5
1CBDB
  8
0
 10
3449.0029769941929771
 20
165.5556260096298047
 30
0.0
 40
0.0382709979693845
 50
40.5329435584729296
 51
110.0775685415546974
  0
ARC
  5
1CBDC
  8
0
 10
3448.9724438634520993
 20
165.5938539540690897
 30
0.0
 40
0.0278277611967817
 50
123.4959626459029067
 51
221.9568112345355928
  0
ARC
  5
1CBDD
  8
0
 10
3449.0202007996849716
 20
165.6310750762885107
 30
0.0
 40
0.0883293699154341
 50
219.1993180164608077
 51
293.846475108684217
  0
ARC
  5
1CBDE
  8
0
 10
3449.0423378869531916
 20
165.5771118188407911
 30
0.0
 40
0.0300640914076377
 50
296.8387251171466801
 51
35.5147475015145773
  0
ARC
  5
1CBDF
  8
0
 10
3448.9974328681860243
 20
165.5349848474585883
 30
0.0
 40
0.0914560481217059
 50
40.6613664384212186
 51
116.1777705275666932
  0
LINE
  5
1CBE0
  8
0
 10
3448.9446834645059425
 20
165.5957890363872025
 30
0.0
 11
3448.9394002870208169
 21
165.6622018202297966
 31
0.0
  0
ARC
  5
1CBE1
  8
0
 10
3448.9610322372418523
 20
165.6448566558717062
 30
0.0
 40
0.0277271707354273
 50
138.0625865478235141
 51
227.8203853734526945
  0
ARC
  5
1CBE2
  8
0
 10
3448.9901624039839589
 20
165.5825644152384086
 30
0.0
 40
0.0949102752243234
 50
71.8551023363055776
 51
121.6170672381314972
  0
ARC
  5
1CBE3
  8
0
 10
3448.9955977992231055
 20
165.5638313373069082
 30
0.0
 40
0.1115626171787395
 50
43.109095863334133
 51
77.5130961225280117
  0
ARC
  5
1CBE4
  8
0
 10
3449.0575808894400325
 20
165.6183436889616871
 30
0.0
 40
0.029171141471741
 50
308.4427532749106717
 51
48.1469965107785995
  0
LINE
  5
1CBE5
  8
0
 10
3449.0722334010188206
 20
165.5739325373286874
 30
0.0
 11
3449.0819900739929835
 21
165.6343170168613028
 31
0.0
  0
ARC
  5
1CBE6
  8
0
 10
3449.1464965267650769
 20
165.8647546146409866
 30
0.0
 40
0.0158605807137526
 50
112.9966161537301019
 51
215.7605815038182016
  0
ARC
  5
1CBE7
  8
0
 10
3449.1753938669089621
 20
165.8938235042691076
 30
0.0
 40
0.0566950177214783
 50
222.5482772202661863
 51
293.5268025488704211
  0
ARC
  5
1CBE8
  8
0
 10
3449.1935673153261632
 20
165.8571933445639104
 30
0.0
 40
0.0159861554976066
 50
286.1923909850552263
 51
27.5553969136943095
  0
ARC
  5
1CBE9
  8
0
 10
3449.1649353297380003
 20
165.830479503063998
 30
0.0
 40
0.0547327900958636
 50
38.5497365312722096
 51
116.7500232293591012
  0
ARC
  5
1CBEA
  8
0
 10
3449.1037909714627858
 20
165.8783035592387876
 30
0.0
 40
0.0486730783452054
 50
118.7114519875741934
 51
220.8421640180652048
  0
ARC
  5
1CBEB
  8
0
 10
3449.1828780791320241
 20
165.9530958321294918
 30
0.0
 40
0.1574910575545338
 50
222.6106065000012109
 51
297.4344456290330072
  0
ARC
  5
1CBEC
  8
0
 10
3449.1574717785611028
 20
165.7813113393928859
 30
0.0
 40
0.1595290558649843
 50
41.1224901072995621
 51
118.885935083561904
  0
LINE
  5
1CBED
  8
0
 10
3449.0551181989440011
 20
165.8784761016835034
 30
0.0
 11
3449.0509869359420918
 21
165.9215944786197099
 31
0.0
  0
ARC
  5
1CBEE
  8
0
 10
3449.0899649962029798
 20
165.9066048920633136
 30
0.0
 40
0.0417609493044361
 50
150.945435810795999
 51
211.9808292229307085
  0
ARC
  5
1CBEF
  8
0
 10
3449.1459275281390546
 20
165.8414662688686008
 30
0.0
 40
0.1258843011852876
 50
88.1936762112714234
 51
137.2691183767273913
  0
ARC
  5
1CBF0
  8
0
 10
3449.1613045508502182
 20
165.8042082486711877
 30
0.0
 40
0.1634783664592842
 50
43.5085049808335782
 51
94.0018760574370731
  0
ARC
  5
1CBF1
  8
0
 10
3448.331069837972791
 20
166.5065776187585982
 30
0.0
 40
0.0158605807137526
 50
112.9966161537301019
 51
215.7605815038182016
  0
ARC
  5
1CBF2
  8
0
 10
3448.3599671781180405
 20
166.5356465083866908
 30
0.0
 40
0.0566950177214783
 50
222.5482772202661863
 51
293.5268025488704211
  0
ARC
  5
1CBF3
  8
0
 10
3448.3781406265361511
 20
166.4990163486814936
 30
0.0
 40
0.0159861554976066
 50
286.1923909850552263
 51
27.5553969136943095
  0
ARC
  5
1CBF4
  8
0
 10
3448.3495086409470787
 20
166.4723025071814959
 30
0.0
 40
0.0547327900958636
 50
38.5497365312722096
 51
116.7500232293591012
  0
ARC
  5
1CBF5
  8
0
 10
3448.2883642826718642
 20
166.5201265633563992
 30
0.0
 40
0.0486730783452054
 50
118.7114519875741934
 51
220.8421640180652048
  0
ARC
  5
1CBF6
  8
0
 10
3448.3674513903411025
 20
166.5949188362471034
 30
0.0
 40
0.1574910575545338
 50
222.6106065000012109
 51
297.4344456290330072
  0
ARC
  5
1CBF7
  8
0
 10
3448.4163805339571809
 20
166.5021748098209002
 30
0.0
 40
0.0526384696859408
 50
296.6765967294072084
 51
29.4459166379615489
  0
ARC
  5
1CBF8
  8
0
 10
3448.3420450897701812
 20
166.4231343435104975
 30
0.0
 40
0.1595290558649843
 50
41.1224901072995621
 51
118.885935083561904
  0
LINE
  5
1CBF9
  8
0
 10
3448.2396915101530794
 20
166.5202991058010866
 30
0.0
 11
3448.2355602471498059
 21
166.5634174827372931
 31
0.0
  0
ARC
  5
1CBFA
  8
0
 10
3448.2745383074111487
 20
166.5484278961808116
 30
0.0
 40
0.0417609493044361
 50
150.945435810795999
 51
211.9808292229307085
  0
ARC
  5
1CBFB
  8
0
 10
3448.330500839348133
 20
166.4832892729862124
 30
0.0
 40
0.1258843011852876
 50
88.1936762112714234
 51
137.2691183767273913
  0
ARC
  5
1CBFC
  8
0
 10
3448.3458778620588419
 20
166.4460312527887993
 30
0.0
 40
0.1634783664592842
 50
43.5085049808335782
 51
94.0018760574370731
  0
ARC
  5
1CBFD
  8
0
 10
3448.4290159735419365
 20
166.5266224017954073
 30
0.0
 40
0.0477120670867652
 50
326.9211588268256037
 51
42.051616435691507
  0
LINE
  5
1CBFE
  8
0
 10
3448.4690013083868507
 20
166.5008100427413922
 30
0.0
 11
3448.4725851285770659
 21
166.5460689972632906
 31
0.0
  0
ARC
  5
1CBFF
  8
0
 10
3448.4261536326030182
 20
166.9396808961562044
 30
0.0
 40
0.0158605807137526
 50
112.9966161537301019
 51
215.7605815038182016
  0
ARC
  5
1CC00
  8
0
 10
3448.4550509727491772
 20
166.968749785784297
 30
0.0
 40
0.0566950177214783
 50
222.5482772202661863
 51
293.5268025488704211
  0
ARC
  5
1CC01
  8
0
 10
3448.4732244211659236
 20
166.9321196260789861
 30
0.0
 40
0.0159861554976066
 50
286.1923909850552263
 51
27.5553969136943095
  0
ARC
  5
1CC02
  8
0
 10
3448.4445924355768511
 20
166.9054057845791021
 30
0.0
 40
0.0547327900958636
 50
38.5497365312722096
 51
116.7500232293591012
  0
ARC
  5
1CC03
  8
0
 10
3448.3834480773020914
 20
166.9532298407540054
 30
0.0
 40
0.0486730783452054
 50
118.7114519875741934
 51
220.8421640180652048
  0
ARC
  5
1CC04
  8
0
 10
3448.462535184970875
 20
167.0280221136445959
 30
0.0
 40
0.1574910575545338
 50
222.6106065000012109
 51
297.4344456290330072
  0
ARC
  5
1CC05
  8
0
 10
3448.5114643285869533
 20
166.9352780872185065
 30
0.0
 40
0.0526384696859408
 50
296.6765967294072084
 51
29.4459166379615489
  0
ARC
  5
1CC06
  8
0
 10
3448.4371288843999537
 20
166.8562376209081037
 30
0.0
 40
0.1595290558649843
 50
41.1224901072995621
 51
118.885935083561904
  0
LINE
  5
1CC07
  8
0
 10
3448.3347753047828519
 20
166.9534023831986076
 30
0.0
 11
3448.3306440417809426
 21
166.9965207601348993
 31
0.0
  0
ARC
  5
1CC08
  8
0
 10
3448.3696221020409212
 20
166.9815311735783894
 30
0.0
 40
0.0417609493044361
 50
150.945435810795999
 51
211.9808292229307085
  0
ARC
  5
1CC09
  8
0
 10
3448.4255846339779055
 20
166.9163925503837902
 30
0.0
 40
0.1258843011852876
 50
88.1936762112714234
 51
137.2691183767273913
  0
ARC
  5
1CC0A
  8
0
 10
3448.4409616566890691
 20
166.8791345301864055
 30
0.0
 40
0.1634783664592842
 50
43.5085049808335782
 51
94.0018760574370731
  0
ARC
  5
1CC0B
  8
0
 10
3448.5240997681730732
 20
166.9597256791928999
 30
0.0
 40
0.0477120670867652
 50
326.9211588268256037
 51
42.051616435691507
  0
LINE
  5
1CC0C
  8
0
 10
3448.5640851030179874
 20
166.9339133201389132
 30
0.0
 11
3448.5676689232068384
 21
166.9791722746608116
 31
0.0
  0
ARC
  5
1CC0D
  8
0
 10
3448.8487997146271482
 20
167.2872046120203038
 30
0.0
 40
0.0158605807137526
 50
112.9966161537301019
 51
215.7605815038182016
  0
ARC
  5
1CC0E
  8
0
 10
3448.8776970547710334
 20
167.3162735016483964
 30
0.0
 40
0.0566950177214783
 50
222.5482772202661863
 51
293.5268025488704211
  0
ARC
  5
1CC0F
  8
0
 10
3448.8958705031891441
 20
167.2796433419431992
 30
0.0
 40
0.0159861554976066
 50
286.1923909850552263
 51
27.5553969136943095
  0
ARC
  5
1CC10
  8
0
 10
3448.8672385176000716
 20
167.2529295004432015
 30
0.0
 40
0.0547327900958636
 50
38.5497365312722096
 51
116.7500232293591012
  0
ARC
  5
1CC11
  8
0
 10
3448.8060941593248572
 20
167.3007535566181048
 30
0.0
 40
0.0486730783452054
 50
118.7114519875741934
 51
220.8421640180652048
  0
ARC
  5
1CC12
  8
0
 10
3448.8851812669940955
 20
167.375545829508809
 30
0.0
 40
0.1574910575545338
 50
222.6106065000012109
 51
297.4344456290330072
  0
ARC
  5
1CC13
  8
0
 10
3448.9341104106101739
 20
167.2828018030826058
 30
0.0
 40
0.0526384696859408
 50
296.6765967294072084
 51
29.4459166379615489
  0
ARC
  5
1CC14
  8
0
 10
3448.8597749664231742
 20
167.2037613367722031
 30
0.0
 40
0.1595290558649843
 50
41.1224901072995621
 51
118.885935083561904
  0
LINE
  5
1CC15
  8
0
 10
3448.7574213868060724
 20
167.3009260990627922
 30
0.0
 11
3448.7532901238041632
 21
167.3440444759989987
 31
0.0
  0
ARC
  5
1CC16
  8
0
 10
3448.7922681840641417
 20
167.3290548894426024
 30
0.0
 40
0.0417609493044361
 50
150.945435810795999
 51
211.9808292229307085
  0
ARC
  5
1CC17
  8
0
 10
3448.848230716001126
 20
167.2639162662478896
 30
0.0
 40
0.1258843011852876
 50
88.1936762112714234
 51
137.2691183767273913
  0
ARC
  5
1CC18
  8
0
 10
3448.8636077387118348
 20
167.2266582460505049
 30
0.0
 40
0.1634783664592842
 50
43.5085049808335782
 51
94.0018760574370731
  0
ARC
  5
1CC19
  8
0
 10
3448.946745850195839
 20
167.3072493950571129
 30
0.0
 40
0.0477120670867652
 50
326.9211588268256037
 51
42.051616435691507
  0
LINE
  5
1CC1A
  8
0
 10
3448.9867311850412079
 20
167.2814370360030978
 30
0.0
 11
3448.9903150052300589
 21
167.3266959905249962
 31
0.0
  0
ARC
  5
1CC1B
  8
0
 10
3449.0492166859630743
 20
166.6452219735325002
 30
0.0
 40
1.8072864979527421
 50
105.3380114936057055
 51
156.3415394083023102
  0
ARC
  5
1CC1C
  8
0
 10
3448.4159848613808208
 20
167.0483326306186882
 30
0.0
 40
1.0717150252438989
 50
162.5082264967199137
 51
216.8650824042476017
  0
ARC
  5
1CC1D
  8
0
 10
3449.1681396314429549
 20
167.5641906685611957
 30
0.0
 40
1.9833311972417671
 50
215.7519366821491928
 51
250.25866912042639
  0
ARC
  5
1CC1E
  8
0
 10
3449.4769799704508841
 20
168.2715790297696969
 30
0.0
 40
2.7539489380800619
 50
261.1954028926485876
 51
265.5255686450677217
  0
ARC
  5
1CC1F
  8
0
 10
3449.4769799704508841
 20
168.2715790297696969
 30
0.0
 40
2.7539489380800619
 50
249.1819225344372057
 51
259.1757346845291181
  0
ARC
  5
1CC20
  8
0
 10
3449.2675648083468332
 20
165.3460366566804964
 30
0.0
 40
0.1800687396478911
 50
30.3930034444721002
 51
91.7286548695906987
  0
ARC
  5
1CC21
  8
0
 10
3449.073891467303838
 20
165.2705595319816894
 30
0.0
 40
0.3867129802064605
 50
2.1772739845313152
 51
25.5155611721517204
  0
ARC
  5
1CC22
  8
0
 10
3446.7991082888870551
 20
163.7556114435072061
 30
0.0
 40
2.512569001340212
 50
46.4588041110303109
 51
54.6156636705573888
  0
ARC
  5
1CC23
  8
0
 10
3447.7769003806938599
 20
164.7845067147675024
 30
0.0
 40
1.0931667137478001
 50
6.4438713951144306
 51
46.4588041110303109
  0
ARC
  5
1CC24
  8
0
 10
3440.5166818255170256
 20
163.6899444059177995
 30
0.0
 40
8.4347734992697934
 50
359.5310771686584985
 51
8.2975037410218242
  0
ARC
  5
1CC25
  8
0
 10
967.7457075830234317
 20
163.6468265827377024
 30
0.0
 40
2481.2054653900640915
 50
359.9317970585547073
 51
359.9994016035969935
  0
ARC
  5
1CC26
  8
0
 10
3449.4142119696562077
 20
166.7311670485331945
 30
0.0
 40
0.0587901969203079
 50
33.8351448893327174
 51
153.8510943638852098
  0
ARC
  5
1CC27
  8
0
 10
3449.399980437557133
 20
166.7566479050169903
 30
0.0
 40
0.0385439698075967
 50
179.3633042394114057
 51
217.2533578934499872
  0
ARC
  5
1CC28
  8
0
 10
3449.4995614697531892
 20
166.8471063920003132
 30
0.0
 40
0.1729629684701101
 50
221.1391988309792112
 51
246.626909154001595
  0
ARC
  5
1CC29
  8
0
 10
3449.4369059252558145
 20
166.7001101469329001
 30
0.0
 40
0.0131969520655039
 50
243.1437326960410985
 51
317.8919925890136255
  0
ARC
  5
1CC2A
  8
0
 10
3449.3278042792298947
 20
166.7676618782211051
 30
0.0
 40
0.1413238380243132
 50
327.2750152818650804
 51
342.4504926696134248
  0
ARC
  5
1CC2B
  8
0
 10
3449.4080809997471988
 20
166.7451725156032012
 30
0.0
 40
0.058068024409382
 50
339.7230247415898248
 51
18.8165629932833092
  0
ARC
  5
1CC2C
  8
0
 10
3449.4018967760630403
 20
166.7444517519589056
 30
0.0
 40
0.014826381039225
 50
125.3826300551289989
 51
228.3631552226455881
  0
ARC
  5
1CC2D
  8
0
 10
3449.4148286753320463
 20
166.7589984484723971
 30
0.0
 40
0.0342902038435752
 50
228.3631552226455881
 51
306.4511896683077907
  0
ARC
  5
1CC2E
  8
0
 10
3449.4272539131980011
 20
166.7440091682229024
 30
0.0
 40
0.0148909261053359
 50
302.2584301280572276
 51
40.8281621928042995
  0
ARC
  5
1CC2F
  8
0
 10
3449.4142678453658846
 20
166.7284726784855877
 30
0.0
 40
0.0350273678129937
 50
46.1780401724078331
 51
126.7465552884809057
  0
LINE
  5
1CC30
  8
0
 10
3449.3614439897060038
 20
166.7570866848348032
 30
0.0
 11
3449.3572433079739312
 21
166.8156759053478027
 31
0.0
  0
ARC
  5
1CC31
  8
0
 10
3449.3835861394281892
 20
166.7981461008347992
 30
0.0
 40
0.032684784325279
 50
157.1273571026306968
 51
224.1451779299675877
  0
ARC
  5
1CC32
  8
0
 10
3449.4130988071187858
 20
166.7681301489782015
 30
0.0
 40
0.0733514535201244
 50
93.5441417789351988
 51
144.380360999793993
  0
ARC
  5
1CC33
  8
0
 10
3449.4105606436301059
 20
166.759498629465412
 30
0.0
 40
0.0818670278359325
 50
42.6162138368413466
 51
91.3972350318511531
  0
ARC
  5
1CC34
  8
0
 10
3449.4210936885901901
 20
166.7885592578564911
 30
0.0
 40
0.056274392710454
 50
324.5504544710088908
 51
27.94353397248166
  0
LINE
  5
1CC35
  8
0
 10
3449.4661490241560386
 20
166.7451725156032012
 30
0.0
 11
3449.4712027970631425
 21
166.8141695003970142
 31
0.0
  0
ARC
  5
1CC36
  8
0
 10
3449.2711987321240485
 20
166.6690736256144874
 30
0.0
 40
0.0587901969203079
 50
33.8351448893327174
 51
153.8510943638852098
  0
ARC
  5
1CC37
  8
0
 10
3449.2600654564339493
 20
166.6950361009724872
 30
0.0
 40
0.0416398805415142
 50
180.0733540182357046
 51
232.1140938845265111
  0
ARC
  5
1CC38
  8
0
 10
3449.3252851476331671
 20
166.8444676064976875
 30
0.0
 40
0.2036526896537585
 50
243.5248370822741038
 51
271.6984697519646943
  0
ARC
  5
1CC39
  8
0
 10
3449.3321598134880333
 20
166.6532583581997926
 30
0.0
 40
0.012382389473852
 50
266.1171584752906938
 51
350.7427215787002979
  0
ARC
  5
1CC3A
  8
0
 10
3449.2547858449461273
 20
166.635309142603802
 30
0.0
 40
0.0910050270853747
 50
10.0987417178893306
 51
22.7389197034044983
  0
ARC
  5
1CC3B
  8
0
 10
3449.2517157082311314
 20
166.6398203378429059
 30
0.0
 40
0.0922479269459926
 50
19.4158308123287711
 51
42.2194083608896378
  0
ARC
  5
1CC3C
  8
0
 10
3449.2588835385317907
 20
166.6823583290401984
 30
0.0
 40
0.014826381039225
 50
125.3826300551289989
 51
228.3631552226455881
  0
ARC
  5
1CC3D
  8
0
 10
3449.2718154377998871
 20
166.6969050255536047
 30
0.0
 40
0.0342902038435752
 50
228.3631552226455881
 51
306.4511896683077907
  0
ARC
  5
1CC3E
  8
0
 10
3449.284240675665842
 20
166.6819157453041953
 30
0.0
 40
0.0148909261053359
 50
302.2584301280572276
 51
40.8281621928042995
  0
ARC
  5
1CC3F
  8
0
 10
3449.2712546078350897
 20
166.6663792555667953
 30
0.0
 40
0.0350273678129937
 50
46.1780401724078331
 51
126.7465552884809057
  0
LINE
  5
1CC40
  8
0
 10
3449.2184307521752089
 20
166.6949932619160961
 30
0.0
 11
3449.2142876855527902
 21
166.7540470942844024
 31
0.0
  0
ARC
  5
1CC41
  8
0
 10
3449.2405729018969396
 20
166.7360526779160068
 30
0.0
 40
0.032684784325279
 50
157.1273571026306968
 51
224.1451779299675877
  0
ARC
  5
1CC42
  8
0
 10
3449.2611071720380096
 20
166.7161240248940999
 30
0.0
 40
0.060251336140618
 50
85.9533468769960649
 51
147.206714758847113
  0
ARC
  5
1CC43
  8
0
 10
3449.2660725436608118
 20
166.6864992527214042
 30
0.0
 40
0.0897287338576285
 50
8.8446342864457037
 51
90.4556139453750916
  0
ARC
  5
1CC44
  8
0
 10
3449.3427281173699157
 20
166.6964808469892887
 30
0.0
 40
0.0125976385274147
 50
296.7335129140832919
 51
17.6265198586831602
  0
LINE
  5
1CC45
  8
0
 10
3449.3441993050059864
 20
166.6522545878557082
 30
0.0
 11
3449.3489154677190527
 21
166.7200107579757002
 31
0.0
  0
ARC
  5
1CC46
  8
0
 10
3448.3662040822609924
 20
167.1051161259294986
 30
0.0
 40
1.029494221221946
 50
164.2839655597985029
 51
188.9712828162504934
  0
ARC
  5
1CC47
  8
0
 10
3448.7400872331968458
 20
166.9450932502078047
 30
0.0
 40
1.4337168419186761
 50
122.4050954901505008
 51
162.1747597362171973
  0
ARC
  5
1CC48
  8
0
 10
3449.3221245648019249
 20
166.1323349407346939
 30
0.0
 40
2.432468656604688
 50
104.236441937102299
 51
123.7205913752549975
  0
ARC
  5
1CC49
  8
0
 10
3449.1931660167110749
 20
166.5709865535957022
 30
0.0
 40
0.0492909516848765
 50
76.2578481239711579
 51
163.9395503483731886
  0
ARC
  5
1CC4A
  8
0
 10
3449.1906570518917761
 20
166.5916927626788038
 30
0.0
 40
0.0454118731894695
 50
188.9563370558553004
 51
269.7406679606398257
  0
ARC
  5
1CC4B
  8
0
 10
3449.1981106495982203
 20
166.7619470487273929
 30
0.0
 40
0.2158016543683905
 50
267.9660555063800871
 51
293.3830022883967104
  0
ARC
  5
1CC4C
  8
0
 10
3449.2820501733349374
 20
166.5736695687805025
 30
0.0
 40
0.0099484261085901
 50
279.8793325729544108
 51
44.876909240658307
  0
ARC
  5
1CC4D
  8
0
 10
3449.1159067482699356
 20
166.3444465807523898
 30
0.0
 40
0.292927220429008
 50
53.7542615108622499
 51
60.1144005561625008
  0
ARC
  5
1CC4E
  8
0
 10
3449.1828951209240586
 20
166.4679560951244071
 30
0.0
 40
0.1525027380102788
 50
58.8141029024925288
 51
81.7131422406915249
  0
ARC
  5
1CC4F
  8
0
 10
3449.1893866880081987
 20
166.5772565286825113
 30
0.0
 40
0.014826381039225
 50
125.3826300551289989
 51
228.3631552226455881
  0
ARC
  5
1CC50
  8
0
 10
3449.2023185872772046
 20
166.5918032251958891
 30
0.0
 40
0.0342902038435752
 50
228.3631552226455881
 51
306.4511896683077907
  0
ARC
  5
1CC51
  8
0
 10
3449.2147438251449785
 20
166.5768139449463945
 30
0.0
 40
0.0148909261053359
 50
302.2584301280572276
 51
40.8281621928042995
  0
ARC
  5
1CC52
  8
0
 10
3449.2017577573119524
 20
166.5612774552091082
 30
0.0
 40
0.0350273678129937
 50
46.1780401724078331
 51
126.7465552884809057
  0
LINE
  5
1CC53
  8
0
 10
3449.145798873566946
 20
166.5846229632529969
 30
0.0
 11
3449.1412884495548496
 21
166.6466412725293083
 31
0.0
  0
ARC
  5
1CC54
  8
0
 10
3449.1645396422682097
 20
166.6289356195964899
 30
0.0
 40
0.0297097751640462
 50
150.3641862294078919
 51
226.6559081330009917
  0
ARC
  5
1CC55
  8
0
 10
3449.1920466503052012
 20
166.6007286687326996
 30
0.0
 40
0.0684424000954968
 50
86.2534556723123842
 51
141.1874009427075123
  0
ARC
  5
1CC56
  8
0
 10
3449.1829682798102112
 20
166.4908110057536987
 30
0.0
 40
0.1787282142160488
 50
72.8513363880070131
 51
85.6518457601412564
  0
ARC
  5
1CC57
  8
0
 10
3449.1829682798102112
 20
166.4908110057536987
 30
0.0
 40
0.1787282142160488
 50
50.2506358449826607
 51
63.3074347690620129
  0
ARC
  5
1CC58
  8
0
 10
3449.2921205845677832
 20
166.6179583064281928
 30
0.0
 40
0.0114787887864739
 50
283.0431519739657915
 51
63.4433708026271219
  0
LINE
  5
1CC59
  8
0
 10
3449.2919964353759497
 20
166.5738770620272931
 30
0.0
 11
3449.29653050738807
 21
166.6288233060191999
 31
0.0
  0
ARC
  5
1CC5A
  8
0
 10
3449.2049806784821158
 20
166.4681397069155935
 30
0.0
 40
0.0322095800667334
 50
97.9503767970145134
 51
175.1844900980736952
  0
ARC
  5
1CC5B
  8
0
 10
3449.2177429710432079
 20
166.4779134229544866
 30
0.0
 40
0.0454118731894695
 50
188.9563370558553004
 51
269.7406679606398257
  0
ARC
  5
1CC5C
  8
0
 10
3449.2179298408309478
 20
166.5366600398996013
 30
0.0
 40
0.1041587641688583
 50
269.7841409023861843
 51
328.5702154977657869
  0
ARC
  5
1CC5D
  8
0
 10
3449.3011896253860868
 20
166.4896142861437056
 30
0.0
 40
0.0091855690901679
 50
307.696573549950017
 51
92.7530087683456941
  0
ARC
  5
1CC5E
  8
0
 10
3449.215831022122984
 20
166.0137944434416966
 30
0.0
 40
0.4923727586935648
 50
80.0687885813004527
 51
82.3726995132985707
  0
ARC
  5
1CC5F
  8
0
 10
3449.2453701415479372
 20
166.2952809556799139
 30
0.0
 40
0.2096119625470421
 50
80.1625734843476039
 51
102.3533917568399971
  0
ARC
  5
1CC60
  8
0
 10
3449.2164726071591758
 20
166.4634771889581941
 30
0.0
 40
0.014826381039225
 50
125.3826300551289989
 51
228.3631552226455881
  0
ARC
  5
1CC61
  8
0
 10
3449.2294045064290913
 20
166.4780238854716004
 30
0.0
 40
0.0342902038435752
 50
228.3631552226455881
 51
306.4511896683077907
  0
ARC
  5
1CC62
  8
0
 10
3449.2288436764629296
 20
166.447498115484791
 30
0.0
 40
0.0350273678129937
 50
46.1780401724078331
 51
126.7465552884809057
  0
LINE
  5
1CC63
  8
0
 10
3449.1728847927179231
 20
166.4708436235287081
 30
0.0
 11
3449.1683743687058268
 21
166.5328619328051047
 31
0.0
  0
ARC
  5
1CC64
  8
0
 10
3449.1916255614191869
 20
166.5151562798722864
 30
0.0
 40
0.0297097751640462
 50
150.3641862294078919
 51
226.6559081330009917
  0
ARC
  5
1CC65
  8
0
 10
3449.2191325694561783
 20
166.4869493290084961
 30
0.0
 40
0.0684424000954968
 50
119.4092200044758982
 51
141.1874009427075123
  0
ARC
  5
1CC66
  8
0
 10
3449.2451176425229278
 20
166.2972772659753957
 30
0.0
 40
0.256719513537696
 50
74.3716515320228808
 51
87.7741612320713216
  0
ARC
  5
1CC67
  8
0
 10
3449.308610953311927
 20
166.5329739837115994
 30
0.0
 40
0.0128485000995475
 50
287.9601554795281118
 51
63.8333067002885315
  0
LINE
  5
1CC68
  8
0
 10
3449.3103669826441546
 20
166.4900026072214985
 30
0.0
 11
3449.3142769387409317
 21
166.5445057036149024
 31
0.0
  0
ARC
  5
1CC69
  8
0
 10
3449.2365051457259142
 20
166.4638262588154021
 30
0.0
 40
0.018849242633271
 50
314.7599367506034014
 51
28.3266555702360385
  0
ARC
  5
1CC6A
  8
0
 10
3449.3235714917259429
 20
166.3762463301299022
 30
0.0
 40
0.014826381039225
 50
125.3826300551289989
 51
228.3631552226455881
  0
ARC
  5
1CC6B
  8
0
 10
3449.3365033909949489
 20
166.3907930266433937
 30
0.0
 40
0.0342902038435752
 50
228.3631552226455881
 51
306.4511896683077907
  0
ARC
  5
1CC6C
  8
0
 10
3449.3359425610301514
 20
166.3602672566566127
 30
0.0
 40
0.0350273678129937
 50
46.1780401724078331
 51
126.7465552884809057
  0
ARC
  5
1CC6D
  8
0
 10
3449.343604030293136
 20
166.3765953999871954
 30
0.0
 40
0.018849242633271
 50
314.7599367506034014
 51
28.3266555702360385
  0
LINE
  5
1CC6E
  8
0
 10
3449.2783366277149071
 20
166.4417568493392139
 30
0.0
 11
3449.2828541817671066
 21
166.3797503473529957
 31
0.0
  0
ARC
  5
1CC6F
  8
0
 10
3449.3207664001351986
 20
166.3825124850353916
 30
0.0
 40
0.0380127045358143
 50
184.1669866173394041
 51
260.0356112971056177
  0
ARC
  5
1CC70
  8
0
 10
3449.3346848649498497
 20
166.4060984403521104
 30
0.0
 40
0.0643752231149358
 50
251.4347832353894034
 51
310.9536979220166018
  0
ARC
  5
1CC71
  8
0
 10
3449.3138677068341167
 20
166.4073570382643936
 30
0.0
 40
0.0803631542048185
 50
321.6364578617559005
 51
13.4548256600184093
  0
ARC
  5
1CC72
  8
0
 10
3449.3798360601967943
 20
166.4221547648598971
 30
0.0
 40
0.012798168684792
 50
17.7469808567535807
 51
109.9378064564981941
  0
ARC
  5
1CC73
  8
0
 10
3449.4057940622687966
 20
166.2450095610458902
 30
0.0
 40
0.1915909814008259
 50
99.1062140100194284
 51
126.7831692802480035
  0
ARC
  5
1CC74
  8
0
 10
3449.306712366596912
 20
166.380427361755892
 30
0.0
 40
0.0238677885821644
 50
130.9430096385090962
 51
181.6254238891771138
  0
ARC
  5
1CC75
  8
0
 10
3449.2997980319819362
 20
166.4239346425920871
 30
0.0
 40
0.0278966472256242
 50
140.2626178206990915
 51
228.0412512425808984
  0
ARC
  5
1CC76
  8
0
 10
3449.3994194422580222
 20
166.2945846409012063
 30
0.0
 40
0.1905826778830072
 50
98.5675604670494039
 51
129.4407872935996124
  0
ARC
  5
1CC77
  8
0
 10
3449.3797962580651983
 20
166.4578252212268126
 30
0.0
 40
0.0266966168938123
 50
28.2354496208193595
 51
109.1757766929272009
  0
ARC
  5
1CC78
  8
0
 10
3449.306673810085158
 20
166.4526873900649946
 30
0.0
 40
0.0982622146684042
 50
333.0019551285508896
 51
10.41759654120197
  0
LINE
  5
1CC79
  8
0
 10
3449.3941977709241655
 20
166.4096629777922089
 30
0.0
 11
3449.3989847850648403
 21
166.4763861960175007
 31
0.0
  0
ARC
  5
1CC7A
  8
0
 10
3449.4994147826269
 20
165.4941506574238019
 30
0.0
 40
3.0946895266120888
 50
75.4876822385218702
 51
104.5123177614781014
  0
ARC
  5
1CC7B
  8
0
 10
3449.4994147826269
 20
165.5174859093955035
 30
0.0
 40
3.0169988741996052
 50
72.0809574537883719
 51
107.9190425462115996
  0
LINE
  5
1CC7C
  8
0
 10
3449.4603252655228971
 20
165.2852513206287881
 30
0.0
 11
3449.5385042997299934
 21
165.2852513206287881
 31
0.0
  0
LINE
  5
1CC7E
  8
0
 10
3445.8213164336621048
 20
180.8741454893255138
 30
0.0
 11
3445.9138809158112053
 21
180.8741454893255138
 31
0.0
  0
LINE
  5
1CC7F
  8
0
 10
3446.1466338475470366
 20
180.8741454893255138
 30
0.0
 11
3446.2386836346959171
 21
180.8741454893255138
 31
0.0
  0
LINE
  5
1CC80
  8
0
 10
3446.3201806358460999
 20
180.8741454893255138
 30
0.0
 11
3446.4127451179961099
 21
180.8741454893255138
 31
0.0
  0
LINE
  5
1CC81
  8
0
 10
3446.7700280308458787
 20
180.8741454893255138
 30
0.0
 11
3446.888289933895976
 21
180.8741454893254001
 31
0.0
  0
LINE
  5
1CC82
  8
0
 10
3446.9034569547211504
 20
180.9332006074255048
 30
0.0
 11
3446.8961130516381672
 21
180.8809460218269862
 31
0.0
  0
LINE
  5
1CC83
  8
0
 10
3446.8865279352207835
 20
180.9332006074255048
 30
0.0
 11
3446.879184032241028
 21
180.8809460218417087
 31
0.0
  0
LINE
  5
1CC84
  8
0
 10
3446.8805413257209693
 20
180.9332006074255048
 30
0.0
 11
3446.8731974226388957
 21
180.8809460218269862
 31
0.0
  0
LINE
  5
1CC85
  8
0
 10
3446.8777595338210631
 20
180.9332006074255048
 30
0.0
 11
3446.8704156307389894
 21
180.8809460218269862
 31
0.0
  0
LINE
  5
1CC86
  8
0
 10
3446.754861010021159
 20
180.9332006074255048
 30
0.0
 11
3446.7622049131027779
 21
180.8809460218269862
 31
0.0
  0
LINE
  5
1CC87
  8
0
 10
3446.4205682357378464
 20
180.8809460218269862
 30
0.0
 11
3446.4271837609821887
 21
180.9280179298058897
 31
0.0
  0
LINE
  5
1CC88
  8
0
 10
3446.3123575181029992
 20
180.8809460218269862
 30
0.0
 11
3446.3050136150209255
 21
180.9332006074255048
 31
0.0
  0
LINE
  5
1CC89
  8
0
 10
3446.2465067524390179
 20
180.8809460218269862
 30
0.0
 11
3446.2538506555210915
 21
180.9332006074255048
 31
0.0
  0
LINE
  5
1CC8A
  8
0
 10
3446.1388107298039358
 20
180.8809460218269862
 30
0.0
 11
3446.1314668267218622
 21
180.9332006074255048
 31
0.0
  0
LINE
  5
1CC8B
  8
0
 10
3445.9217040335538513
 20
180.8809460218269862
 30
0.0
 11
3445.9290479366368345
 21
180.9332006074255048
 31
0.0
  0
LINE
  5
1CC8C
  8
0
 10
3445.8134933159190041
 20
180.8809460218269862
 30
0.0
 11
3445.8061494128369304
 21
180.9332006074255048
 31
0.0
  0
ARC
  5
1CC8D
  8
0
 10
3446.4127451179961099
 20
180.8820454893254066
 30
0.0
 40
0.0079
 50
269.9999999999478746
 51
351.9999999942613726
  0
ARC
  5
1CC8E
  8
0
 10
3446.3201806358460999
 20
180.8820454893254066
 30
0.0
 40
0.0079
 50
188.0000000057530087
 51
269.9999999999739089
  0
ARC
  5
1CC8F
  8
0
 10
3446.2386836346959171
 20
180.8820454893254066
 30
0.0
 40
0.0079
 50
269.9999999999739089
 51
351.999999994266318
  0
ARC
  5
1CC90
  8
0
 10
3446.1466338475470366
 20
180.8820454893254066
 30
0.0
 40
0.0079
 50
188.0000000057385137
 51
270.0000000000521254
  0
ARC
  5
1CC91
  8
0
 10
3445.9138809158112053
 20
180.8820454893254066
 30
0.0
 40
0.0079
 50
270.0
 51
351.999999994243808
  0
ARC
  5
1CC92
  8
0
 10
3445.8213164336621048
 20
180.8820454893254066
 30
0.0
 40
0.0079
 50
188.0000000057839884
 51
270.0
  0
ARC
  5
1CC93
  8
0
 10
3446.8625925129958887
 20
180.8820454893254919
 30
0.0
 40
0.0079
 50
269.9999999999739089
 51
351.9999999941869078
  0
ARC
  5
1CC94
  8
0
 10
3446.8653743048948854
 20
180.8820454893254066
 30
0.0
 40
0.0079
 50
270.0
 51
351.999999994243808
  0
ARC
  5
1CC95
  8
0
 10
3446.8713609144961083
 20
180.8820454893254919
 30
0.0
 40
0.0079
 50
270.0000000000782165
 51
352.0000001016401825
  0
ARC
  5
1CC96
  8
0
 10
3446.888289933895976
 20
180.8820454893254066
 30
0.0
 40
0.0079
 50
269.9999999999739089
 51
351.9999999942405111
  0
ARC
  5
1CC97
  8
0
 10
3446.7700280308458787
 20
180.8820454893254066
 30
0.0
 40
0.0079
 50
188.000000005756192
 51
270.0
  0
LINE
  5
1CC98
  8
0
 10
3447.4375086332029241
 20
180.8809460218269862
 30
0.0
 11
3447.4301647301208504
 21
180.9332006074255048
 31
0.0
  0
LINE
  5
1CC99
  8
0
 10
3447.5457193508382261
 20
180.8809460218269862
 30
0.0
 11
3447.5530632539212093
 21
180.9332006074255048
 31
0.0
  0
LINE
  5
1CC9A
  8
0
 10
3447.5378962330960348
 20
180.8741454893255138
 30
0.0
 11
3447.4453317509469343
 21
180.8741454893255138
 31
0.0
  0
ARC
  5
1CC9B
  8
0
 10
3447.5378962330960348
 20
180.8820454893254066
 30
0.0
 40
0.0079
 50
269.999999999895806
 51
351.9999999942551199
  0
ARC
  5
1CC9C
  8
0
 10
3447.4453317509469343
 20
180.8820454893254066
 30
0.0
 40
0.0079
 50
188.0000000057594889
 51
270.0000000000259774
  0
LINE
  5
1CC9D
  8
0
 10
3446.4416224039678127
 20
180.8741454893255138
 30
0.0
 11
3446.5634356538398606
 21
180.8741454893255138
 31
0.0
  0
LINE
  5
1CC9E
  8
0
 10
3446.542010003860014
 20
180.8809460218269862
 30
0.0
 11
3446.5493539069429971
 21
180.9332006074255048
 31
0.0
  0
LINE
  5
1CC9F
  8
0
 10
3446.4337992862251667
 20
180.8809460218269862
 30
0.0
 11
3446.4264553831430931
 21
180.9332006074255048
 31
0.0
  0
ARC
  5
1CCA0
  8
0
 10
3446.5341868861169132
 20
180.8820454893254066
 30
0.0
 40
0.0079
 50
269.9999999999478746
 51
351.9999999942613726
  0
ARC
  5
1CCA1
  8
0
 10
3446.4416224039678127
 20
180.8820454893254066
 30
0.0
 40
0.0079
 50
188.0000000057530087
 51
269.9999999999739089
  0
LINE
  5
1CCA2
  8
0
 10
3446.5712587715829613
 20
180.8809460218269862
 30
0.0
 11
3446.5786026746659445
 21
180.9332006074255048
 31
0.0
  0
ARC
  5
1CCA3
  8
0
 10
3446.5634356538398606
 20
180.8820454893254066
 30
0.0
 40
0.0079
 50
269.9999999999478746
 51
351.9999999942613726
  0
LINE
  5
1CCA4
  8
0
 10
3445.9522005222870575
 20
180.8741454893255138
 30
0.0
 11
3446.0447650044361581
 21
180.8741454893255138
 31
0.0
  0
LINE
  5
1CCA5
  8
0
 10
3446.0525881221778945
 20
180.8809460218269862
 30
0.0
 11
3446.0599320252608777
 21
180.9332006074255048
 31
0.0
  0
LINE
  5
1CCA6
  8
0
 10
3445.9443774045430473
 20
180.8809460218269862
 30
0.0
 11
3445.9370335014609736
 21
180.9332006074255048
 31
0.0
  0
ARC
  5
1CCA7
  8
0
 10
3446.0447650044361581
 20
180.8820454893254066
 30
0.0
 40
0.0079
 50
269.9999999999478746
 51
351.9999999942613726
  0
ARC
  5
1CCA8
  8
0
 10
3445.9522005222870575
 20
180.8820454893254066
 30
0.0
 40
0.0079
 50
188.0000000057530087
 51
269.9999999999739089
  0
LINE
  5
1CCA9
  8
0
 10
3445.7144286135539915
 20
180.8809460218269862
 30
0.0
 11
3445.7217725166369746
 21
180.9332006074255048
 31
0.0
  0
LINE
  5
1CCAA
  8
0
 10
3445.6001445562192202
 20
180.8809460218269862
 30
0.0
 11
3445.5928006531371466
 21
180.9332006074255048
 31
0.0
  0
LINE
  5
1CCAB
  8
0
 10
3445.7083552738540675
 20
180.8809460218269862
 30
0.0
 11
3445.7156991769361412
 21
180.9332006074255048
 31
0.0
  0
LINE
  5
1CCAC
  8
0
 10
3445.3730343313241065
 20
180.8809460218269862
 30
0.0
 11
3445.3803782344061801
 21
180.9332006074255048
 31
0.0
  0
LINE
  5
1CCAD
  8
0
 10
3445.0358333456538276
 20
180.8809460218269862
 30
0.0
 11
3445.0431772487368107
 21
180.9332006074255048
 31
0.0
  0
LINE
  5
1CCAE
  8
0
 10
3444.9180066723552045
 20
180.8809460218269862
 30
0.0
 11
3444.9253505754368234
 21
180.9332006074255048
 31
0.0
  0
LINE
  5
1CCAF
  8
0
 10
3444.5784949314538608
 20
180.8809460218269862
 30
0.0
 11
3444.5858388345359344
 21
180.9332006074255048
 31
0.0
  0
LINE
  5
1CCB0
  8
0
 10
3444.3693374007229977
 20
180.8809460218269862
 30
0.0
 11
3444.3766813038050714
 21
180.9332006074255048
 31
0.0
  0
LINE
  5
1CCB1
  8
0
 10
3444.2604544183191138
 20
180.8809460218269862
 30
0.0
 11
3444.2531105152361306
 21
180.9332006074255048
 31
0.0
  0
LINE
  5
1CCB2
  8
0
 10
3444.1894771372180912
 20
180.8809460218269862
 30
0.0
 11
3444.1821332341360176
 21
180.9332006074255048
 31
0.0
  0
LINE
  5
1CCB3
  8
0
 10
3444.4702842138190135
 20
180.8809460218269862
 30
0.0
 11
3444.4629403107360304
 21
180.9332006074255048
 31
0.0
  0
LINE
  5
1CCB4
  8
0
 10
3444.8097959547180835
 20
180.8809460218269862
 30
0.0
 11
3444.8024520516360099
 21
180.9332006074255048
 31
0.0
  0
LINE
  5
1CCB5
  8
0
 10
3445.1872064030180809
 20
180.8809460218269862
 30
0.0
 11
3445.1798624999360072
 21
180.9332006074255048
 31
0.0
  0
LINE
  5
1CCB6
  8
0
 10
3445.2641513489188583
 20
180.8809460218269862
 30
0.0
 11
3445.2568074458358751
 21
180.9332006074255048
 31
0.0
  0
LINE
  5
1CCB7
  8
0
 10
3445.4886897357191629
 20
180.8809460218269862
 30
0.0
 11
3445.4813458326361797
 21
180.9332006074255048
 31
0.0
  0
LINE
  5
1CCB8
  8
0
 10
3445.6079676739618662
 20
180.8741454893255138
 30
0.0
 11
3445.7066054958108907
 21
180.8741454893255138
 31
0.0
  0
LINE
  5
1CCB9
  8
0
 10
3445.5890773356109094
 20
180.8741454893255138
 30
0.0
 11
3445.4965128534618088
 21
180.8741454893255138
 31
0.0
  0
LINE
  5
1CCBA
  8
0
 10
3445.3652112135800962
 20
180.8741454893255138
 30
0.0
 11
3445.1950295207620911
 21
180.8741454893255138
 31
0.0
  0
LINE
  5
1CCBB
  8
0
 10
3445.0280102279120911
 20
180.8741454893255138
 30
0.0
 11
3444.9354457457620811
 21
180.8741454893255138
 31
0.0
  0
LINE
  5
1CCBC
  8
0
 10
3444.9101835546111943
 20
180.8741454893255138
 30
0.0
 11
3444.8176190724620938
 21
180.8741454893255138
 31
0.0
  0
LINE
  5
1CCBD
  8
0
 10
3444.5706718137112148
 20
180.8741454893255138
 30
0.0
 11
3444.4781073315621143
 21
180.8741454893255138
 31
0.0
  0
LINE
  5
1CCBE
  8
0
 10
3444.361514282979897
 20
180.8741454893255138
 30
0.0
 11
3444.1973002549621015
 21
180.8741454893255138
 31
0.0
  0
ARC
  5
1CCBF
  8
0
 10
3444.361514282979897
 20
180.8820454893254066
 30
0.0
 40
0.0079
 50
269.9999999999739089
 51
351.9999999942111231
  0
ARC
  5
1CCC0
  8
0
 10
3444.2682775360622145
 20
180.8820454893254066
 30
0.0
 40
0.0079
 50
188.0000000057337104
 51
270.0000000000259774
  0
ARC
  5
1CCC1
  8
0
 10
3444.1973002549621015
 20
180.8820454893254066
 30
0.0
 40
0.0079
 50
188.000000005735302
 51
270.0000000000259774
  0
ARC
  5
1CCC2
  8
0
 10
3444.4781073315621143
 20
180.8820454893254066
 30
0.0
 40
0.0079
 50
188.0000000057337104
 51
270.0000000000259774
  0
ARC
  5
1CCC3
  8
0
 10
3444.5706718137112148
 20
180.8820454893254066
 30
0.0
 40
0.0079
 50
269.9999999999739089
 51
351.9999999942143063
  0
ARC
  5
1CCC4
  8
0
 10
3444.8176190724620938
 20
180.8820454893254066
 30
0.0
 40
0.0079
 50
188.0000000057337104
 51
270.0000000000259774
  0
ARC
  5
1CCC5
  8
0
 10
3444.9101835546111943
 20
180.8820454893254066
 30
0.0
 40
0.0079
 50
269.9999999999739089
 51
351.9999999942127147
  0
ARC
  5
1CCC6
  8
0
 10
3445.0280102279120911
 20
180.8820454893254066
 30
0.0
 40
0.0079
 50
269.9999999999739089
 51
351.9999999942421027
  0
ARC
  5
1CCC7
  8
0
 10
3445.271974466661959
 20
180.8820454893254066
 30
0.0
 40
0.0079
 50
188.0000000057337104
 51
270.0000000000259774
  0
ARC
  5
1CCC8
  8
0
 10
3445.1950295207620911
 20
180.8820454893254066
 30
0.0
 40
0.0079
 50
188.0000000057094951
 51
270.0000000000259774
  0
ARC
  5
1CCC9
  8
0
 10
3445.3652112135800962
 20
180.8820454893254066
 30
0.0
 40
0.0079
 50
269.9999999999739089
 51
351.9999999942127147
  0
ARC
  5
1CCCA
  8
0
 10
3445.4965128534618088
 20
180.8820454893254066
 30
0.0
 40
0.0079
 50
188.0000000057110867
 51
270.0000000000259774
  0
ARC
  5
1CCCB
  8
0
 10
3445.7005321561118762
 20
180.8820454893254066
 30
0.0
 40
0.0079
 50
269.9999999999739089
 51
351.9999999942647264
  0
ARC
  5
1CCCC
  8
0
 10
3445.7066054958108907
 20
180.8820454893254066
 30
0.0
 40
0.0079
 50
269.9999999999739089
 51
351.999999994266318
  0
ARC
  5
1CCCD
  8
0
 10
3445.6079676739618662
 20
180.8820454893254066
 30
0.0
 40
0.0079
 50
188.000000005735302
 51
270.0000000000259774
  0
LINE
  5
1CCCE
  8
0
 10
3445.5969004533608313
 20
180.8809460218747915
 30
0.0
 11
3445.5985225047511449
 21
180.8924875177249874
 31
0.0
  0
ARC
  5
1CCCF
  8
0
 10
3445.5890773356109094
 20
180.8820454893254066
 30
0.0
 40
0.0079
 50
270.0
 51
352.000000344207308
  0
LINE
  5
1CCD0
  8
0
 10
3444.9228146501568517
 20
180.9151565614830872
 30
0.0
 11
3444.9276226280207993
 21
180.8809460218135996
 31
0.0
  0
ARC
  5
1CCD1
  8
0
 10
3444.9354457457620811
 20
180.8820454893254066
 30
0.0
 40
0.0079
 50
188.0000001042145925
 51
269.9999999999739089
  0
LINE
  5
1CCD2
  8
0
 10
3447.2209162013541572
 20
180.8809460218259915
 30
0.0
 11
3447.2282601044439616
 21
180.9332006074255048
 31
0.0
  0
LINE
  5
1CCD3
  8
0
 10
3447.2073105007539198
 20
180.8809460218269862
 30
0.0
 11
3447.2146544038369029
 21
180.9332006074255048
 31
0.0
  0
LINE
  5
1CCD4
  8
0
 10
3447.2062076100542072
 20
180.8809460218269862
 30
0.0
 11
3447.2135515131371903
 21
180.9332006074255048
 31
0.0
  0
LINE
  5
1CCD5
  8
0
 10
3447.0979968924189052
 20
180.8809460218269862
 30
0.0
 11
3447.0906529893368315
 21
180.9332006074255048
 31
0.0
  0
LINE
  5
1CCD6
  8
0
 10
3447.1058200101620059
 20
180.8741454893254001
 30
0.0
 11
3447.2130930836110565
 21
180.8741454893254001
 31
0.0
  0
ARC
  5
1CCD7
  8
0
 10
3447.1058200101620059
 20
180.8820454893254066
 30
0.0
 40
0.0079
 50
188.0000000057368936
 51
270.0000000000521254
  0
ARC
  5
1CCD8
  8
0
 10
3447.1983844923111064
 20
180.8820454893254066
 30
0.0
 40
0.0079
 50
269.9999999999739089
 51
351.9999999942888849
  0
ARC
  5
1CCD9
  8
0
 10
3447.199487383010819
 20
180.8820454893254066
 30
0.0
 40
0.0079
 50
269.9999999999478746
 51
351.9999999942647264
  0
ARC
  5
1CCDA
  8
0
 10
3447.2130930836110565
 20
180.8820454893254066
 30
0.0
 40
0.0079
 50
269.9999999999478746
 51
351.9999999863230755
  0
LINE
  5
1CCDB
  8
0
 10
3449.1619115506109665
 20
180.8741454893255138
 30
0.0
 11
3449.069347068461866
 21
180.8741454893255138
 31
0.0
  0
LINE
  5
1CCDC
  8
0
 10
3448.8365941367260348
 20
180.8741454893255138
 30
0.0
 11
3448.7445443495771542
 21
180.8741454893255138
 31
0.0
  0
LINE
  5
1CCDD
  8
0
 10
3448.6630473484269714
 20
180.8741454893255138
 30
0.0
 11
3448.5704828662778709
 21
180.8741454893255138
 31
0.0
  0
LINE
  5
1CCDE
  8
0
 10
3448.2131999534271927
 20
180.8741454893255138
 30
0.0
 11
3448.0949380503780048
 21
180.8741454893254001
 31
0.0
  0
LINE
  5
1CCDF
  8
0
 10
3448.0797710295519209
 20
180.9332006074255048
 30
0.0
 11
3448.0871149326349041
 21
180.8809460218269862
 31
0.0
  0
LINE
  5
1CCE0
  8
0
 10
3448.096700049051833
 20
180.9332006074255048
 30
0.0
 11
3448.1040439520329528
 21
180.8809460218417087
 31
0.0
  0
LINE
  5
1CCE1
  8
0
 10
3448.1026866585530115
 20
180.9332006074255048
 30
0.0
 11
3448.1100305616350852
 21
180.8809460218269862
 31
0.0
  0
LINE
  5
1CCE2
  8
0
 10
3448.1054684504520083
 20
180.9332006074255048
 30
0.0
 11
3448.1128123535349914
 21
180.8809460218269862
 31
0.0
  0
LINE
  5
1CCE3
  8
0
 10
3448.2283669742519123
 20
180.9332006074255048
 30
0.0
 11
3448.2210230711698387
 21
180.8809460218269862
 31
0.0
  0
LINE
  5
1CCE4
  8
0
 10
3448.5626597485338607
 20
180.8809460218269862
 30
0.0
 11
3448.5560442232917922
 21
180.9280179298058897
 31
0.0
  0
LINE
  5
1CCE5
  8
0
 10
3448.6708704661700722
 20
180.8809460218269862
 30
0.0
 11
3448.6782143692521458
 21
180.9332006074255048
 31
0.0
  0
LINE
  5
1CCE6
  8
0
 10
3448.736721231834963
 20
180.8809460218269862
 30
0.0
 11
3448.7293773287519798
 21
180.9332006074255048
 31
0.0
  0
LINE
  5
1CCE7
  8
0
 10
3448.8444172544691355
 20
180.8809460218269862
 30
0.0
 11
3448.8517611575512092
 21
180.9332006074255048
 31
0.0
  0
LINE
  5
1CCE8
  8
0
 10
3449.06152395071922
 20
180.8809460218269862
 30
0.0
 11
3449.0541800476371463
 21
180.9332006074255048
 31
0.0
  0
LINE
  5
1CCE9
  8
0
 10
3449.1697346683540673
 20
180.8809460218269862
 30
0.0
 11
3449.1770785714370504
 21
180.9332006074255048
 31
0.0
  0
ARC
  5
1CCEA
  8
0
 10
3448.5704828662778709
 20
180.8820454893254066
 30
0.0
 40
0.0079
 50
188.0000000057385137
 51
270.0000000000521254
  0
ARC
  5
1CCEB
  8
0
 10
3448.6630473484269714
 20
180.8820454893254066
 30
0.0
 40
0.0079
 50
270.0000000000259774
 51
351.9999999942469913
  0
ARC
  5
1CCEC
  8
0
 10
3448.7445443495771542
 20
180.8820454893254066
 30
0.0
 40
0.0079
 50
188.0000000057337104
 51
270.0000000000259774
  0
ARC
  5
1CCED
  8
0
 10
3448.8365941367260348
 20
180.8820454893254066
 30
0.0
 40
0.0079
 50
269.9999999999478746
 51
351.9999999942613726
  0
ARC
  5
1CCEE
  8
0
 10
3449.069347068461866
 20
180.8820454893254066
 30
0.0
 40
0.0079
 50
188.000000005756192
 51
270.0
  0
ARC
  5
1CCEF
  8
0
 10
3449.1619115506109665
 20
180.8820454893254066
 30
0.0
 40
0.0079
 50
270.0
 51
351.9999999942158979
  0
ARC
  5
1CCF0
  8
0
 10
3448.1206354712780922
 20
180.8820454893254919
 30
0.0
 40
0.0079
 50
188.0000000058130922
 51
270.0000000000259774
  0
ARC
  5
1CCF1
  8
0
 10
3448.1178536793768217
 20
180.8820454893254066
 30
0.0
 40
0.0079
 50
188.000000005756192
 51
270.0
  0
ARC
  5
1CCF2
  8
0
 10
3448.1118670697778725
 20
180.8820454893254919
 30
0.0
 40
0.0079
 50
187.9999998983597891
 51
269.9999999999218971
  0
ARC
  5
1CCF3
  8
0
 10
3448.0949380503780048
 20
180.8820454893254066
 30
0.0
 40
0.0079
 50
188.0000000057594889
 51
270.0000000000259774
  0
ARC
  5
1CCF4
  8
0
 10
3448.2131999534271927
 20
180.8820454893254066
 30
0.0
 40
0.0079
 50
270.0
 51
351.999999994243808
  0
LINE
  5
1CCF5
  8
0
 10
3448.5416055803048039
 20
180.8741454893255138
 30
0.0
 11
3448.4197923304332107
 21
180.8741454893255138
 31
0.0
  0
LINE
  5
1CCF6
  8
0
 10
3448.4412179804130574
 20
180.8809460218269862
 30
0.0
 11
3448.4338740773309837
 21
180.9332006074255048
 31
0.0
  0
LINE
  5
1CCF7
  8
0
 10
3448.5494286980479046
 20
180.8809460218269862
 30
0.0
 11
3448.5567726011308878
 21
180.9332006074255048
 31
0.0
  0
ARC
  5
1CCF8
  8
0
 10
3448.4490410981561581
 20
180.8820454893254066
 30
0.0
 40
0.0079
 50
188.0000000057385137
 51
270.0000000000521254
  0
ARC
  5
1CCF9
  8
0
 10
3448.5416055803048039
 20
180.8820454893254066
 30
0.0
 40
0.0079
 50
270.0000000000259774
 51
351.9999999942469913
  0
LINE
  5
1CCFA
  8
0
 10
3448.41196921269011
 20
180.8809460218269862
 30
0.0
 11
3448.4046253096080363
 21
180.9332006074255048
 31
0.0
  0
ARC
  5
1CCFB
  8
0
 10
3448.4197923304332107
 20
180.8820454893254066
 30
0.0
 40
0.0079
 50
188.0000000057385137
 51
270.0000000000521254
  0
LINE
  5
1CCFC
  8
0
 10
3449.0310274619869233
 20
180.8741454893255138
 30
0.0
 11
3448.9384629798378228
 21
180.8741454893255138
 31
0.0
  0
LINE
  5
1CCFD
  8
0
 10
3448.9306398620951768
 20
180.8809460218269862
 30
0.0
 11
3448.9232959590121936
 21
180.9332006074255048
 31
0.0
  0
LINE
  5
1CCFE
  8
0
 10
3449.038850579730024
 20
180.8809460218269862
 30
0.0
 11
3449.0461944828120977
 21
180.9332006074255048
 31
0.0
  0
ARC
  5
1CCFF
  8
0
 10
3448.9384629798378228
 20
180.8820454893254066
 30
0.0
 40
0.0079
 50
188.0000000057385137
 51
270.0000000000521254
  0
ARC
  5
1CD00
  8
0
 10
3449.0310274619869233
 20
180.8820454893254066
 30
0.0
 40
0.0079
 50
270.0000000000259774
 51
351.9999999942469913
  0
LINE
  5
1CD01
  8
0
 10
3449.2687993707190799
 20
180.8809460218269862
 30
0.0
 11
3449.2614554676370062
 21
180.9332006074255048
 31
0.0
  0
LINE
  5
1CD02
  8
0
 10
3449.3830834280538511
 20
180.8809460218269862
 30
0.0
 11
3449.3904273311368343
 21
180.9332006074255048
 31
0.0
  0
LINE
  5
1CD03
  8
0
 10
3449.2748727104180944
 20
180.8809460218269862
 30
0.0
 11
3449.2675288073360207
 21
180.9332006074255048
 31
0.0
  0
LINE
  5
1CD04
  8
0
 10
3449.6101936529498744
 20
180.8809460218269862
 30
0.0
 11
3449.6028497498678007
 21
180.9332006074255048
 31
0.0
  0
LINE
  5
1CD05
  8
0
 10
3449.947394638618789
 20
180.8809460218269862
 30
0.0
 11
3449.9400507355358059
 21
180.9332006074255048
 31
0.0
  0
LINE
  5
1CD06
  8
0
 10
3450.0652213119187763
 20
180.8809460218269862
 30
0.0
 11
3450.0578774088357932
 21
180.9332006074255048
 31
0.0
  0
LINE
  5
1CD07
  8
0
 10
3450.4047330528192106
 20
180.8809460218269862
 30
0.0
 11
3450.3973891497357727
 21
180.9332006074255048
 31
0.0
  0
LINE
  5
1CD08
  8
0
 10
3450.6138905835500736
 20
180.8809460218269862
 30
0.0
 11
3450.606546680468
 21
180.9332006074255048
 31
0.0
  0
LINE
  5
1CD09
  8
0
 10
3450.7227735659539576
 20
180.8809460218269862
 30
0.0
 11
3450.7301174690369407
 21
180.9332006074255048
 31
0.0
  0
LINE
  5
1CD0A
  8
0
 10
3450.7937508470540706
 20
180.8809460218269862
 30
0.0
 11
3450.8010947501361443
 21
180.9332006074255048
 31
0.0
  0
LINE
  5
1CD0B
  8
0
 10
3450.5129437704540578
 20
180.8809460218269862
 30
0.0
 11
3450.5202876735361315
 21
180.9332006074255048
 31
0.0
  0
LINE
  5
1CD0C
  8
0
 10
3450.1734320295540783
 20
180.8809460218269862
 30
0.0
 11
3450.180775932636152
 21
180.9332006074255048
 31
0.0
  0
LINE
  5
1CD0D
  8
0
 10
3449.796021581254081
 20
180.8809460218269862
 30
0.0
 11
3449.8033654843361546
 21
180.9332006074255048
 31
0.0
  0
LINE
  5
1CD0E
  8
0
 10
3449.7190766353542131
 20
180.8809460218269862
 30
0.0
 11
3449.726420538435832
 21
180.9332006074255048
 31
0.0
  0
LINE
  5
1CD0F
  8
0
 10
3449.4945382485539085
 20
180.8809460218269862
 30
0.0
 11
3449.5018821516368916
 21
180.9332006074255048
 31
0.0
  0
LINE
  5
1CD10
  8
0
 10
3449.3752603103112051
 20
180.8741454893255138
 30
0.0
 11
3449.2766224884621806
 21
180.8741454893255138
 31
0.0
  0
LINE
  5
1CD11
  8
0
 10
3449.394150648662162
 20
180.8741454893255138
 30
0.0
 11
3449.4867151308108078
 21
180.8741454893255138
 31
0.0
  0
LINE
  5
1CD12
  8
0
 10
3449.6180167706920656
 20
180.8741454893255138
 30
0.0
 11
3449.7881984635109802
 21
180.8741454893255138
 31
0.0
  0
LINE
  5
1CD13
  8
0
 10
3449.9552177563618898
 20
180.8741454893255138
 30
0.0
 11
3450.0477822385109903
 21
180.8741454893255138
 31
0.0
  0
LINE
  5
1CD14
  8
0
 10
3450.0730444296618771
 20
180.8741454893255138
 30
0.0
 11
3450.1656089118109776
 21
180.8741454893255138
 31
0.0
  0
LINE
  5
1CD15
  8
0
 10
3450.4125561705618566
 20
180.8741454893255138
 30
0.0
 11
3450.5051206527109571
 21
180.8741454893255138
 31
0.0
  0
LINE
  5
1CD16
  8
0
 10
3450.6217137012931744
 20
180.8741454893255138
 30
0.0
 11
3450.7859277293109699
 21
180.8741454893255138
 31
0.0
  0
ARC
  5
1CD17
  8
0
 10
3450.6217137012931744
 20
180.8820454893254066
 30
0.0
 40
0.0079
 50
188.0000000057889054
 51
270.0000000000259774
  0
ARC
  5
1CD18
  8
0
 10
3450.7149504482108568
 20
180.8820454893254066
 30
0.0
 40
0.0079
 50
269.9999999999739089
 51
351.999999994266318
  0
ARC
  5
1CD19
  8
0
 10
3450.7859277293109699
 20
180.8820454893254066
 30
0.0
 40
0.0079
 50
269.9999999999478746
 51
351.9999999942647264
  0
ARC
  5
1CD1A
  8
0
 10
3450.5051206527109571
 20
180.8820454893254066
 30
0.0
 40
0.0079
 50
269.9999999999739089
 51
351.999999994266318
  0
ARC
  5
1CD1B
  8
0
 10
3450.4125561705618566
 20
180.8820454893254066
 30
0.0
 40
0.0079
 50
188.0000000057856937
 51
270.0
  0
ARC
  5
1CD1C
  8
0
 10
3450.1656089118109776
 20
180.8820454893254066
 30
0.0
 40
0.0079
 50
269.9999999999739089
 51
351.999999994266318
  0
ARC
  5
1CD1D
  8
0
 10
3450.0730444296618771
 20
180.8820454893254066
 30
0.0
 40
0.0079
 50
188.0000000057873137
 51
270.0000000000259774
  0
ARC
  5
1CD1E
  8
0
 10
3449.9552177563618898
 20
180.8820454893254066
 30
0.0
 40
0.0079
 50
188.000000005757812
 51
270.0
  0
ARC
  5
1CD1F
  8
0
 10
3449.7112535176111123
 20
180.8820454893254066
 30
0.0
 40
0.0079
 50
269.9999999999739089
 51
351.999999994266318
  0
ARC
  5
1CD20
  8
0
 10
3449.7881984635109802
 20
180.8820454893254066
 30
0.0
 40
0.0079
 50
269.9999999999739089
 51
351.9999999942904765
  0
ARC
  5
1CD21
  8
0
 10
3449.6180167706920656
 20
180.8820454893254066
 30
0.0
 40
0.0079
 50
188.0000000057873137
 51
270.0000000000259774
  0
ARC
  5
1CD22
  8
0
 10
3449.4867151308108078
 20
180.8820454893254066
 30
0.0
 40
0.0079
 50
269.9999999999739089
 51
351.9999999942888849
  0
ARC
  5
1CD23
  8
0
 10
3449.2826958281621046
 20
180.8820454893254066
 30
0.0
 40
0.0079
 50
188.000000005735302
 51
270.0000000000259774
  0
ARC
  5
1CD24
  8
0
 10
3449.2766224884621806
 20
180.8820454893254066
 30
0.0
 40
0.0079
 50
188.0000000057337104
 51
270.0000000000259774
  0
ARC
  5
1CD25
  8
0
 10
3449.3752603103112051
 20
180.8820454893254066
 30
0.0
 40
0.0079
 50
269.9999999999739089
 51
351.9999999942647264
  0
LINE
  5
1CD26
  8
0
 10
3449.3863275309131495
 20
180.8809460218747915
 30
0.0
 11
3449.384705479522836
 21
180.8924875177249874
 31
0.0
  0
ARC
  5
1CD27
  8
0
 10
3449.394150648662162
 20
180.8820454893254066
 30
0.0
 40
0.0079
 50
187.999999655792692
 51
270.0
  0
LINE
  5
1CD28
  8
0
 10
3450.0604133341162196
 20
180.9151565614830872
 30
0.0
 11
3450.0556053562531815
 21
180.8809460218135996
 31
0.0
  0
ARC
  5
1CD29
  8
0
 10
3450.0477822385109903
 20
180.8820454893254066
 30
0.0
 40
0.0079
 50
270.0
 51
351.9999998957853791
  0
LINE
  5
1CD2A
  8
0
 10
3447.7623117829189141
 20
180.8809460218259915
 30
0.0
 11
3447.7549678798291097
 21
180.9332006074255048
 31
0.0
  0
LINE
  5
1CD2B
  8
0
 10
3447.7759174835177873
 20
180.8809460218269862
 30
0.0
 11
3447.7685735804361684
 21
180.9332006074255048
 31
0.0
  0
LINE
  5
1CD2C
  8
0
 10
3447.7770203742188642
 20
180.8809460218269862
 30
0.0
 11
3447.769676471135881
 21
180.9332006074255048
 31
0.0
  0
LINE
  5
1CD2D
  8
0
 10
3447.8852310918541662
 20
180.8809460218269862
 30
0.0
 11
3447.8925749949357851
 21
180.9332006074255048
 31
0.0
  0
LINE
  5
1CD2E
  8
0
 10
3447.8774079741110654
 20
180.8741454893254001
 30
0.0
 11
3447.7701349006611053
 21
180.8741454893254001
 31
0.0
  0
ARC
  5
1CD2F
  8
0
 10
3447.8774079741110654
 20
180.8820454893254066
 30
0.0
 40
0.0079
 50
269.9999999999478746
 51
351.999999994263078
  0
ARC
  5
1CD30
  8
0
 10
3447.7848434919619649
 20
180.8820454893254066
 30
0.0
 40
0.0079
 50
188.0000000057110867
 51
270.0000000000259774
  0
ARC
  5
1CD31
  8
0
 10
3447.7837406012617976
 20
180.8820454893254066
 30
0.0
 40
0.0079
 50
188.000000005735302
 51
270.0000000000259774
  0
ARC
  5
1CD32
  8
0
 10
3447.7701349006611053
 20
180.8820454893254066
 30
0.0
 40
0.0079
 50
188.0000000136768108
 51
270.0000000000521254
  0
LINE
  5
1CD33
  8
0
 10
3443.5053296268361009
 20
180.9332006074255048
 30
0.0
 11
3451.4936473363650293
 21
180.9332006074255048
 31
0.0
  0
ARC
  5
1CD34
  8
0
 10
3451.4936473362940887
 20
180.9391061193962003
 30
0.0
 40
0.0059055119707274
 50
270.0000006860569215
 51
359.9999983436053981
  0
LINE
  5
1CD35
  8
0
 10
3451.4995528482650116
 20
180.9391061192254142
 30
0.0
 11
3451.4995528482650116
 21
180.9391061192254995
 31
0.0
  0
LINE
  5
1CD36
  8
0
 10
3451.4995528482650116
 20
180.9391061192254995
 30
0.0
 11
3451.4995528482650116
 21
181.0217832846253998
 31
0.0
  0
ARC
  5
1CD37
  8
0
 10
3451.4936473364650737
 20
181.0217832846253998
 30
0.0
 40
0.0059055117999982
 50
0.0
 51
90.0000009702660009
  0
LINE
  5
1CD38
  8
0
 10
3451.4936473363650293
 20
181.0276887964255081
 30
0.0
 11
3443.5053296268361009
 21
181.0276887964255081
 31
0.0
  0
ARC
  5
1CD39
  8
0
 10
3443.5053298578741305
 20
181.0217830535879102
 30
0.0
 40
0.0059057428420887
 50
90.0022414585822759
 51
179.9977585415267924
  0
LINE
  5
1CD3A
  8
0
 10
3443.4994241150361631
 20
181.0217832846253998
 30
0.0
 11
3443.4994222197801719
 21
180.9391061192472137
 31
0.0
  0
ARC
  5
1CD3B
  8
0
 10
3443.5053275965769899
 20
180.9391059838748106
 30
0.0
 40
0.0059053767983758
 50
179.9986865759113925
 51
270.019698200347591
  0
ARC
  5
1CD3C
  8
0
 10
3443.7639173526367813
 20
181.4135155681254901
 30
0.0
 40
0.3858267716999748
 50
270.0
 51
289.0402300408280212
  0
LINE
  5
1CD3D
  8
0
 10
3443.8897863792390126
 20
181.048797477125504
 30
0.0
 11
3444.3303615215918398
 21
181.2008457732794113
 31
0.0
  0
ARC
  5
1CD3E
  8
0
 10
3444.4716430804760421
 20
180.7914683287972935
 30
0.0
 40
0.4330708613282043
 50
89.999999806801398
 51
109.040230040828007
  0
LINE
  5
1CD3F
  8
0
 10
3444.4716430819357811
 20
181.2245391901255118
 30
0.0
 11
3450.5273308585369705
 21
181.2245391904631902
 31
0.0
  0
ARC
  5
1CD40
  8
0
 10
3450.5273306705421419
 20
180.7914548348811081
 30
0.0
 40
0.4330843555821186
 50
70.9600691547281599
 51
89.9999751288660264
  0
LINE
  5
1CD41
  8
0
 10
3450.6686144938671532
 20
181.2008457731255078
 30
0.0
 11
3451.1091904083741611
 21
181.0487997137240939
 31
0.0
  0
ARC
  5
1CD42
  8
0
 10
3451.2350747326918281
 20
181.4135681367037023
 30
0.0
 40
0.385879340612821
 50
250.9600608525460927
 51
269.9976139455698103
  0
ARC
  5
1CD43
  8
0
 10
3444.5388580865369477
 20
134.7650588753529917
 30
0.0
 40
1.190938089249999
 50
235.7358767983888868
 51
304.2641232016110848
  0
ARC
  5
1CD44
  8
0
 10
3444.5388580865369477
 20
134.7650588753529917
 30
0.0
 40
1.190938089249999
 50
55.7358768117538474
 51
124.2641231882461028
  0
LINE
  5
1CD45
  8
0
 10
3442.747519503886906
 20
135.7296258045311106
 30
0.0
 11
3442.747519503886906
 21
133.8004919461747875
 31
0.0
  0
LINE
  5
1CD46
  8
0
 10
3442.767204543185926
 20
135.7493108439311982
 30
0.0
 11
3446.8221875291578726
 21
135.7493108439311982
 31
0.0
  0
ARC
  5
1CD47
  8
0
 10
3442.7672045431299921
 20
135.7296258046874868
 30
0.0
 40
0.019685039243682
 50
89.9999998360352151
 51
180.0000004550279016
  0
LINE
  5
1CD48
  8
0
 10
3442.767204543185926
 20
133.7808069069311045
 30
0.0
 11
3451.7252674638430108
 21
133.7808069069311045
 31
0.0
  0
ARC
  5
1CD49
  8
0
 10
3442.7672045431299921
 20
133.8004919461747875
 30
0.0
 40
0.019685039243682
 50
179.9999995449703931
 51
270.0000001639647849
  0
LINE
  5
1CD4A
  8
0
 10
3446.9994880544250009
 20
136.0288384029529993
 30
0.0
 11
3447.9837399762868699
 21
136.0288384029529993
 31
0.0
  0
LINE
  5
1CD4B
  8
0
 10
3446.9994880546591958
 20
136.024901395053007
 30
0.0
 11
3447.9837399762868699
 21
136.024901395053007
 31
0.0
  0
LINE
  5
1CD4C
  8
0
 10
3447.1313777715868127
 20
136.024901395053007
 30
0.0
 11
3447.1313777715868127
 21
136.0288384029529993
 31
0.0
  0
ARC
  5
1CD4D
  8
0
 10
3446.8220239193951784
 20
135.9267749848793869
 30
0.0
 40
0.177464216366733
 50
270.0528227632016183
 51
359.9472274856070158
  0
LINE
  5
1CD4E
  8
0
 10
3446.9994880604867831
 20
135.9266115307530072
 30
0.0
 11
3446.9994880546591958
 21
136.024901395053007
 31
0.0
  0
LINE
  5
1CD4F
  8
0
 10
3446.9994880544250009
 20
136.0288384029529993
 30
0.0
 11
3446.9994880077369999
 21
136.816239977753014
 31
0.0
  0
ARC
  5
1CD50
  8
0
 10
3450.4443698975369443
 20
134.7650588753529917
 30
0.0
 40
1.190938089249999
 50
235.7358767983888868
 51
304.2641232016110848
  0
ARC
  5
1CD51
  8
0
 10
3450.4443698975369443
 20
134.7650588753529917
 30
0.0
 40
1.190938089249999
 50
55.7358768117538474
 51
102.3034115797916996
  0
LINE
  5
1CD52
  8
0
 10
3451.7449525030870063
 20
135.7296258045311106
 30
0.0
 11
3451.7449525030870063
 21
133.8004919461747875
 31
0.0
  0
LINE
  5
1CD53
  8
0
 10
3451.7252674638430108
 20
135.7493108439311982
 30
0.0
 11
3448.1610404549151099
 21
135.7493108439311982
 31
0.0
  0
ARC
  5
1CD54
  8
0
 10
3451.7252674638430108
 20
135.7296258046874868
 30
0.0
 40
0.019685039243682
 50
359.9999995449704215
 51
90.0000001639647564
  0
ARC
  5
1CD55
  8
0
 10
3451.7252674638430108
 20
133.8004919461747875
 30
0.0
 40
0.019685039243682
 50
269.9999998360352151
 51
0.0000004550279638
  0
LINE
  5
1CD56
  8
0
 10
3447.8518502124870793
 20
136.024901395053007
 30
0.0
 11
3447.8518502124870793
 21
136.0288384029529993
 31
0.0
  0
ARC
  5
1CD57
  8
0
 10
3448.1612040646778041
 20
135.9267749848793869
 30
0.0
 40
0.177464216366733
 50
180.052772514392899
 51
269.9471772367983817
  0
LINE
  5
1CD58
  8
0
 10
3447.9837399235861994
 20
135.9266115307530072
 30
0.0
 11
3447.9837399294137867
 21
136.024901395053007
 31
0.0
  0
LINE
  5
1CD59
  8
0
 10
3447.9837399296479816
 20
136.0288384029529993
 30
0.0
 11
3447.9837399763359826
 21
136.816239977753014
 31
0.0
  0
LINE
  5
1CD5A
  8
0
 10
3447.1766533620871087
 20
136.8359250171529879
 30
0.0
 11
3447.1766485145990373
 21
136.8167877298018027
 31
0.0
  0
LINE
  5
1CD5B
  8
0
 10
3453.1864935697949477
 20
131.9058525964991873
 30
0.0
 11
3453.1864935697949477
 21
135.6198428511619909
 31
0.0
  0
ARC
  5
1CD5E
  8
0
 10
3452.8081307989668858
 20
134.8493925545157879
 30
0.0
 40
1.1288202380837291
 50
131.3636863787372988
 51
143.2853071339810924
  0
ARC
  5
1CD5F
  8
0
 10
3452.1506778310231311
 20
135.3496755947880104
 30
0.0
 40
0.3028121548839489
 50
144.7977587311418119
 51
181.0151586705385114
  0
LINE
  5
1CD60
  8
0
 10
3451.8479132046859377
 20
135.3443106917530088
 30
0.0
 11
3451.8479132046859377
 21
133.778423019604503
 31
0.0
  0
LINE
  5
1CD61
  8
0
 10
3451.8479132046859377
 20
133.778423019604503
 30
0.0
 11
3452.1673286860868757
 21
133.788597166752993
 31
0.0
  0
ARC
  5
1CD62
  8
0
 10
3452.2781090582589059
 20
131.0633206440757874
 30
0.0
 40
2.7275271613522261
 50
83.5643266208289788
 51
92.3277473714826584
  0
ARC
  5
1CD63
  8
0
 10
3452.5352956843421453
 20
133.3433748982251927
 30
0.0
 40
0.4330136263079385
 50
40.118124686834328
 51
83.5643266208289788
  0
ARC
  5
1CD64
  8
0
 10
3452.3822500359738115
 20
133.3802120402091873
 30
0.0
 40
0.5413697338797018
 50
4.4970918084929359
 51
26.5738106241339587
  0
ARC
  5
1CD65
  8
0
 10
3440.1860110217030524
 20
132.5833031348886948
 30
0.0
 40
12.7635708039375295
 50
0.7079943081299215
 51
3.7706014097480618
  0
ARC
  5
1CD66
  8
0
 10
3463.7281969098089576
 20
133.0734478747355922
 30
0.0
 40
10.7847142188031793
 50
181.7663830987131064
 51
183.3909317592085984
  0
ARC
  5
1CD67
  8
0
 10
3454.853170666664937
 20
132.5405532649093914
 30
0.0
 40
1.8937195064989301
 50
183.1785912086035921
 51
195.0762543535452949
  0
ARC
  5
1CD68
  8
0
 10
3453.3214565697339822
 20
132.1198500837774077
 30
0.0
 40
0.3053995610084932
 50
193.6094994646080067
 51
226.7367568635775115
  0
ARC
  5
1CD69
  8
0
 10
3453.2260831096969014
 20
132.1606285031826928
 30
0.0
 40
0.2867774279005224
 50
246.59140437618899
 51
256.6275920335816068
  0
ARC
  5
1CD6A
  8
0
 10
3453.1566970066260183
 20
131.9118700196341081
 30
0.0
 40
0.0303981012204223
 50
275.7781519666124268
 51
348.5826650279386172
  0
ARC
  5
1CD6C
  8
0
 10
3451.5937977027979287
 20
135.570116680162613
 30
0.0
 40
1.593471937885413
 50
1.788272692902479
 51
5.97927733463119
  0
ARC
  5
1CD6D
  8
0
 10
3451.7371340623649303
 20
134.2468980947161015
 30
0.0
 40
0.39544072080713
 50
271.132895078556885
 51
286.2686176937025948
  0
ARC
  5
1CD6E
  8
0
 10
3451.6792531092260106
 20
134.9229522171794997
 30
0.0
 40
0.7586082637974427
 50
66.4851589615885956
 51
85.0316655167423505
  0
LINE
  5
1CD6F
  8
0
 10
3446.9994880076360459
 20
139.2493108438530101
 30
0.0
 11
3447.9837399763359826
 21
139.2493108438530101
 31
0.0
  0
LINE
  5
1CD70
  8
0
 10
3446.9994880076360459
 20
139.2374998202529923
 30
0.0
 11
3447.9837399763359826
 21
139.2374998202529923
 31
0.0
  0
LINE
  5
1CD71
  8
0
 10
3447.1668108424869388
 20
139.2374998202529923
 30
0.0
 11
3447.1668108424869388
 21
139.2493108438530101
 31
0.0
  0
LINE
  5
1CD72
  8
0
 10
3447.8164171416860881
 20
139.2374998202529923
 30
0.0
 11
3447.8164171416860881
 21
139.2493108438530101
 31
0.0
  0
ARC
  5
1CD73
  8
0
 10
3474.5823753821127866
 20
143.6091584707029085
 30
0.0
 40
25.303118269860299
 50
188.404137942509891
 51
194.9835093303846918
  0
ARC
  5
1CD74
  8
0
 10
3447.2881670229630799
 20
136.3689972882907
 30
0.0
 40
2.9356424235866769
 50
347.8137296811643182
 51
13.7601725588455199
  0
ARC
  5
1CD75
  8
0
 10
3510.4907096233459924
 20
150.5443400041021107
 30
0.0
 40
62.4096645858823891
 50
189.8370805955615879
 51
192.8661987580462949
  0
ARC
  5
1CD76
  8
0
 10
3448.5153963309380742
 20
136.3461517243144101
 30
0.0
 40
1.1719295916252439
 50
329.3840843689412168
 51
14.8885267543630508
  0
ARC
  5
1CD77
  8
0
 10
3449.3627078869922116
 20
137.723200164365096
 30
0.0
 40
2.0341426173304509
 50
227.3193727999608882
 51
256.0197406839243968
  0
LINE
  5
1CD78
  8
0
 10
3447.4128738345862075
 20
137.5052163557529923
 30
0.0
 11
3447.4128738345862075
 21
136.875295095853005
 31
0.0
  0
LINE
  5
1CD79
  8
0
 10
3447.570354149486775
 20
137.5052163557529923
 30
0.0
 11
3447.570354149486775
 21
136.875295095853005
 31
0.0
  0
LINE
  5
1CD7A
  8
0
 10
3447.3538187164858755
 20
136.6587596628102119
 30
0.0
 11
3447.6294092676871514
 21
136.6587596628102119
 31
0.0
  0
LINE
  5
1CD7B
  8
0
 10
3447.6294092676871514
 20
136.6587596628102119
 30
0.0
 11
3447.6294092676871514
 21
136.1863187179529859
 31
0.0
  0
LINE
  5
1CD7C
  8
0
 10
3447.6294092676871514
 20
136.1863187179529859
 30
0.0
 11
3447.3538187164858755
 21
136.1863187179529859
 31
0.0
  0
LINE
  5
1CD7D
  8
0
 10
3447.3538187164858755
 20
136.1863187179529859
 30
0.0
 11
3447.3538187164858755
 21
136.658759662752999
 31
0.0
  0
ARC
  5
1CD7E
  8
0
 10
3447.4916139920869682
 20
136.3351177202372924
 30
0.0
 40
0.3517550923156764
 50
66.9374131337188345
 51
113.0625868696228054
  0
ARC
  5
1CD7F
  8
0
 10
3447.4916139921538161
 20
136.5099606601399955
 30
0.0
 40
0.3517550919870727
 50
246.9374130954905979
 51
293.0625868806943117
  0
ARC
  5
1CD80
  8
0
 10
3447.5118796794909031
 20
136.7470813065374955
 30
0.0
 40
1.077506235648745
 50
239.4045177215853926
 51
298.9225726965839272
  0
ARC
  5
1CD81
  8
0
 10
3452.3358377041167842
 20
134.0416513287046882
 30
0.0
 40
0.1128740433485089
 50
82.8752905039853687
 51
141.3697742549809107
  0
ARC
  5
1CD82
  8
0
 10
3452.3282018765899011
 20
133.9805620502357044
 30
0.0
 40
0.1744386907193593
 50
33.5666893349809499
 51
82.8752905039853687
  0
ARC
  5
1CD83
  8
0
 10
3452.4263829071260261
 20
134.0397228642698053
 30
0.0
 40
0.060127003458803
 50
295.1095887626577223
 51
38.3268884361725597
  0
ARC
  5
1CD84
  8
0
 10
3452.3839081256560348
 20
134.1732898483226961
 30
0.0
 40
0.1999276388348674
 50
232.0781915317460005
 51
289.8812429732316787
  0
ARC
  5
1CD85
  8
0
 10
3452.3030369897351193
 20
134.0705922024577035
 30
0.0
 40
0.0692156790903962
 50
143.1341815642367123
 51
232.6400423987888928
  0
LINE
  5
1CE16
  8
0
 10
3453.1594567229972199
 20
135.7502551649762097
 30
0.0
 11
3452.1752263420321469
 21
135.7502551649762097
 31
0.0
  0
ARC
  5
1CE17
  8
0
 10
3452.2123764520388249
 20
135.5260066718061012
 30
0.0
 40
0.227304899556874
 50
99.4064688655159046
 51
131.363595685009301
  0
ARC
  5
1CE18
  8
0
 10
3453.1591414725107825
 20
135.7298029122374032
 30
0.0
 40
0.0204546822258069
 50
17.9496956367412288
 51
89.1169142937157375
  0
ENDSEC
  0
EOF
