  0
SECTION
  2
HEADER
  9
$ACADVER
  1
AC1009
  9
$INSBASE
 10
3449.0442428955411742
 20
161.1298359919099994
 30
0.0
  9
$EXTMIN
 10
3424.8217511492412086
 20
148.3083600159378079
 30
0.0
  9
$EXTMAX
 10
3449.0442428955411742
 20
209.8306233934100078
 30
0.0
  9
$LIMMIN
 10
0.0
 20
0.0
  9
$LIMMAX
 10
11.6929133858000007
 20
8.2677165353999982
  9
$ORTHOMODE
 70
     0
  9
$REGENMODE
 70
     1
  9
$FILLMODE
 70
     1
  9
$QTEXTMODE
 70
     0
  9
$MIRRTEXT
 70
     0
  9
$DRAGMODE
 70
     2
  9
$LTSCALE
 40
0.6431102362
  9
$OSMODE
 70
  3839
  9
$ATTMODE
 70
     1
  9
$TEXTSIZE
 40
0.2
  9
$TRACEWID
 40
0.05
  9
$TEXTSTYLE
  7
STANDARD
  9
$CLAYER
  8
0
  9
$CELTYPE
  6
BYLAYER
  9
$CECOLOR
 62
   256
  9
$DIMSCALE
 40
1.0
  9
$DIMASZ
 40
0.1875
  9
$DIMEXO
 40
0.0625
  9
$DIMDLI
 40
0.4443307087
  9
$DIMRND
 40
0.0
  9
$DIMDLE
 40
0.0
  9
$DIMEXE
 40
0.125
  9
$DIMTP
 40
0.01
  9
$DIMTM
 40
0.01
  9
$DIMTXT
 40
2.0
  9
$DIMCEN
 40
0.1052362205
  9
$DIMTSZ
 40
0.0
  9
$DIMTOL
 70
     1
  9
$DIMLIM
 70
     0
  9
$DIMTIH
 70
     1
  9
$DIMTOH
 70
     1
  9
$DIMSE1
 70
     0
  9
$DIMSE2
 70
     0
  9
$DIMTAD
 70
     0
  9
$DIMZIN
 70
     0
  9
$DIMBLK
  1

  9
$DIMASO
 70
     1
  9
$DIMSHO
 70
     1
  9
$DIMPOST
  1
\X
  9
$DIMAPOST
  1

  9
$DIMALT
 70
     1
  9
$DIMALTD
 70
     2
  9
$DIMALTF
 40
25.3999999999999986
  9
$DIMLFAC
 40
1.0
  9
$DIMTOFL
 70
     0
  9
$DIMTVP
 40
0.0
  9
$DIMTIX
 70
     0
  9
$DIMSOXD
 70
     0
  9
$DIMSAH
 70
     0
  9
$DIMBLK1
  1

  9
$DIMBLK2
  1

  9
$DIMSTYLE
  2
STANDARD
  9
$DIMCLRD
 70
     0
  9
$DIMCLRE
 70
     0
  9
$DIMCLRT
 70
     0
  9
$DIMTFAC
 40
1.0
  9
$DIMGAP
 40
0.09
  9
$LUNITS
 70
     2
  9
$LUPREC
 70
     4
  9
$SKETCHINC
 40
0.1
  9
$FILLETRAD
 40
0.0
  9
$AUNITS
 70
     0
  9
$AUPREC
 70
     0
  9
$MENU
  1
.
  9
$ELEVATION
 40
0.0
  9
$PELEVATION
 40
0.0
  9
$THICKNESS
 40
0.0
  9
$LIMCHECK
 70
     0
  9
$BLIPMODE
 70
     0
  9
$CHAMFERA
 40
0.0
  9
$CHAMFERB
 40
0.0
  9
$SKPOLY
 70
     0
  9
$TDCREATE
 40
2458060.468368056230247
  9
$TDUPDATE
 40
2459179.8321643518283963
  9
$TDINDWG
 40
0.5871251157
  9
$TDUSRTIMER
 40
0.5871251157
  9
$USRTIMER
 70
     1
  9
$ANGBASE
 50
0.0
  9
$ANGDIR
 70
     0
  9
$PDMODE
 70
     0
  9
$PDSIZE
 40
0.3125
  9
$PLINEWID
 40
0.0
  9
$COORDS
 70
     1
  9
$SPLFRAME
 70
     0
  9
$SPLINETYPE
 70
     6
  9
$SPLINESEGS
 70
     8
  9
$ATTDIA
 70
     1
  9
$ATTREQ
 70
     1
  9
$HANDLING
 70
     1
  9
$HANDSEED
  5
1798D
  9
$SURFTAB1
 70
     6
  9
$SURFTAB2
 70
     6
  9
$SURFTYPE
 70
     6
  9
$SURFU
 70
     6
  9
$SURFV
 70
     6
  9
$UCSNAME
  2

  9
$UCSORG
 10
0.0
 20
0.0
 30
0.0
  9
$UCSXDIR
 10
1.0
 20
0.0
 30
0.0
  9
$UCSYDIR
 10
0.0
 20
1.0
 30
0.0
  9
$PUCSNAME
  2

  9
$PUCSORG
 10
0.0
 20
0.0
 30
0.0
  9
$PUCSXDIR
 10
1.0
 20
0.0
 30
0.0
  9
$PUCSYDIR
 10
0.0
 20
1.0
 30
0.0
  9
$USERI1
 70
     0
  9
$USERI2
 70
     0
  9
$USERI3
 70
     0
  9
$USERI4
 70
     0
  9
$USERI5
 70
     0
  9
$USERR1
 40
0.0
  9
$USERR2
 40
0.0
  9
$USERR3
 40
0.0
  9
$USERR4
 40
0.0
  9
$USERR5
 40
0.0
  9
$WORLDVIEW
 70
     1
  9
$SHADEDGE
 70
     3
  9
$SHADEDIF
 70
    70
  9
$TILEMODE
 70
     1
  9
$MAXACTVP
 70
    64
  9
$PLIMCHECK
 70
     0
  9
$PEXTMIN
 10
1.0000000000000000E+20
 20
1.0000000000000000E+20
 30
1.0000000000000000E+20
  9
$PEXTMAX
 10
-1.0000000000000000E+20
 20
-1.0000000000000000E+20
 30
-1.0000000000000000E+20
  9
$PLIMMIN
 10
0.0
 20
0.0
  9
$PLIMMAX
 10
12.0
 20
9.0
  9
$UNITMODE
 70
     0
  9
$VISRETAIN
 70
     1
  9
$PLINEGEN
 70
     0
  9
$PSLTSCALE
 70
     1
  0
ENDSEC
  0
SECTION
  2
TABLES
  0
TABLE
  2
VPORT
 70
     1
  0
VPORT
  2
*ACTIVE
 70
     0
 10
0.0
 20
0.0
 11
1.0
 21
1.0
 12
0.0
 22
0.0
 13
0.0
 23
0.0
 14
1.0
 24
1.0
 15
0.0
 25
0.0
 16
0.0
 26
0.0
 36
257.6718135134963177
 17
3436.9329833984370453
 27
179.0701980590820028
 37
0.0
 40
66.1176323799954133
 41
3.0887245841035109
 42
50.0
 43
0.0
 44
0.0
 50
0.0
 51
0.0
 71
     0
 72
   100
 73
     1
 74
     1
 75
     0
 76
     0
 77
     0
 78
     0
  0
ENDTAB
  0
TABLE
  2
LTYPE
 70
     2
  0
LTYPE
  2
CONTINUOUS
 70
     0
  3
Solid line
 72
    65
 73
     0
 40
0.0
  0
LTYPE
  2
PHANTOM2
 70
     0
  3
___ _ _ ___ _ _ ___ _ _ ___ _ _
 72
    65
 73
     6
 40
1.25
 49
0.625
 49
-0.125
 49
0.125
 49
-0.125
 49
0.125
 49
-0.125
  0
ENDTAB
  0
TABLE
  2
LAYER
 70
     2
  0
LAYER
  2
0
 70
     0
 62
   255
  6
CONTINUOUS
  0
LAYER
  2
DEFPOINTS
 70
     0
 62
     7
  6
CONTINUOUS
  0
ENDTAB
  0
TABLE
  2
STYLE
 70
     1
  0
STYLE
  2
STANDARD
 70
     0
 40
0.0
 41
0.8
 50
0.0
 71
     0
 42
0.2
  3
txt
  4

  0
ENDTAB
  0
TABLE
  2
VIEW
 70
     0
  0
ENDTAB
  0
TABLE
  2
UCS
 70
     0
  0
ENDTAB
  0
TABLE
  2
APPID
 70
     9
  0
APPID
  2
ACAD
 70
     0
  0
APPID
  2
ACAD_MLEADERVER
 70
     0
  0
APPID
  2
ACAD_EXEMPT_FROM_CAD_STANDARDS
 70
     0
  0
APPID
  2
ACAD_NAV_VCDISPLAY
 70
     0
  0
APPID
  2
ACAECLAYERSTANDARD
 70
     0
  0
APPID
  2
ACCMTRANSPARENCY
 70
     0
  0
APPID
  2
ACAD_DSTYLE_DIMJAG
 70
     0
  0
APPID
  2
ACAD_DSTYLE_DIMTALN
 70
     0
  0
APPID
  2
ACDBATTR
 70
     0
  0
ENDTAB
  0
TABLE
  2
DIMSTYLE
 70
     1
  0
DIMSTYLE
  2
STANDARD
 70
     0
  3

  4

  5

  6

  7

 40
1.0
 41
0.1875
 42
0.0625
 43
0.38
 44
0.125
 45
0.0
 46
0.0
 47
0.01
 48
0.01
140
0.15625
141
0.09
142
0.0
143
25.3999999999999986
144
1.0
145
0.0
146
1.0
147
0.09
 71
     1
 72
     0
 73
     1
 74
     1
 75
     0
 76
     0
 77
     0
 78
     4
170
     0
171
     2
172
     0
173
     0
174
     0
175
     0
176
     0
177
     0
178
     0
  0
ENDTAB
  0
ENDSEC
  0
SECTION
  2
BLOCKS
  0
BLOCK
  8
0
  2
$MODEL_SPACE
 70
     0
 10
0.0
 20
0.0
 30
0.0
  3
$MODEL_SPACE
  1

  0
ENDBLK
  5
21
  8
0
  0
BLOCK
 67
     1
  8
0
  2
$PAPER_SPACE
 70
     0
 10
0.0
 20
0.0
 30
0.0
  3
$PAPER_SPACE
  1

  0
ENDBLK
  5
1D
 67
     1
  8
0
  0
BLOCK
  8
0
  2
_FILLED
 70
     0
 10
0.0
 20
0.0
 30
0.0
  3
_FILLED
  1

  0
SOLID
  5
13356
  8
0
  6
BYBLOCK
 62
     0
 10
0.0
 20
0.0
 30
0.0
 11
-1.0
 21
0.1666666667
 31
0.0
 12
-1.0
 22
-0.1666666667
 32
0.0
 13
-1.0
 23
-0.1666666667
 33
0.0
  0
ENDBLK
  5
13357
  8
0
  6
BYBLOCK
 62
     0
  0
BLOCK
  8
0
  2
A$C2E4715D9
 70
     0
 10
0.0
 20
0.0
 30
0.0
  3
A$C2E4715D9
  1

  0
LINE
  5
17767
  8
0
 10
2.782195963639793
 20
1.3779527130980109
 30
0.0
 11
2.782195963639793
 21
-0.000000042801986
 31
0.0
  0
ARC
  5
17768
  8
0
 10
0.6685367275621203
 20
0.7834046444165815
 30
0.0
 40
0.6560880266247322
 50
153.491205771258592
 51
170.7199416063430135
  0
ARC
  5
17769
  8
0
 10
0.3536869797460298
 20
0.9125029480845903
 30
0.0
 40
0.3177039938299959
 50
93.9605687163246728
 51
148.9774422635761937
  0
ARC
  5
1776A
  8
0
 10
0.8494439410532592
 20
0.6844132913012598
 30
0.0
 40
1.0883616824239259
 50
4.5125706657871234
 51
19.2470157628017695
  0
ARC
  5
1776B
  8
0
 10
1.165513722650807
 20
0.7502442814209473
 30
0.0
 40
0.7026638191359714
 50
5.7340931347167432
 51
23.9275329460008308
  0
ARC
  5
1776C
  8
0
 10
1.5686627740191521
 20
0.9227742772961331
 30
0.0
 40
0.2642506793162889
 50
25.1867119200395102
 51
90.3768944547963855
  0
ARC
  5
1776D
  8
0
 10
1.198944727834117
 20
-11.8096210921459903
 30
0.0
 40
13.0018486780217692
 50
88.3781917477621732
 51
93.8320681565555361
  0
ARC
  5
1776E
  8
0
 10
0.3493181087016524
 20
0.9209999533347819
 30
0.0
 40
0.2429276250992613
 50
94.5609604428269108
 51
158.6895512462533873
  0
ARC
  5
1776F
  8
0
 10
0.9918476593114959
 20
0.6955629465906465
 30
0.0
 40
0.9237513803095621
 50
160.146434443761791
 51
173.9735348838487994
  0
LINE
  5
17770
  8
0
 10
1.8196997121398011
 20
0.5430596661489169
 30
0.0
 11
1.8196997121398011
 21
0.8349506701489133
 31
0.0
  0
ARC
  5
17771
  8
0
 10
1.831510286639797
 20
0.8349506701489133
 30
0.0
 40
0.0118105744999966
 50
90.0000033958508538
 51
179.9999999999826912
  0
LINE
  5
17772
  8
0
 10
1.8315102859397989
 20
0.8467612446489134
 30
0.0
 11
1.8384725885397939
 21
0.8467612450615611
 31
0.0
  0
ARC
  5
17773
  8
0
 10
1.8384725878247179
 20
0.8588261028691857
 30
0.0
 40
0.0120648578076246
 50
270.0000033958556855
 51
6.7455626466187981
  0
ARC
  5
17774
  8
0
 10
1.309092428099347
 20
0.7962114045430245
 30
0.0
 40
0.5451351664511862
 50
6.7455626466189988
 51
24.1604859381316004
  0
ARC
  5
17775
  8
0
 10
1.5577893593189449
 20
0.9077741452356917
 30
0.0
 40
0.2725614907066187
 50
24.1604859381323216
 51
74.2109114263026157
  0
ARC
  5
17776
  8
0
 10
1.121957182139603
 20
-8.4449790866021441
 30
0.0
 40
9.6285468815534951
 50
86.9637930536056274
 51
94.9019582587656743
  0
ARC
  5
17777
  8
0
 10
0.3413897911328689
 20
0.9267421416806183
 30
0.0
 40
0.2255905172370081
 50
100.7818733707358945
 51
159.3299890782751049
  0
ARC
  5
17778
  8
0
 10
0.9919450123512235
 20
0.6955256553822622
 30
0.0
 40
0.9159813985915899
 50
160.1621700790387877
 51
174.0226703543443989
  0
LINE
  5
17779
  8
0
 10
1.9259899277498029
 20
0.8443504361307496
 30
0.0
 11
2.0619043086540572
 21
0.8471179438489127
 31
0.0
  0
ARC
  5
1777A
  8
0
 10
2.0583126700769858
 20
0.8222698578824587
 30
0.0
 40
0.0251063188035404
 50
3.3116474077714071
 51
81.7752104353528608
  0
ARC
  5
1777B
  8
0
 10
0.6685367275621203
 20
0.5946056918812488
 30
0.0
 40
0.6560880266247322
 50
189.2800583936569012
 51
206.508794228741408
  0
ARC
  5
1777C
  8
0
 10
0.3536869797460298
 20
0.4655073882132399
 30
0.0
 40
0.3177039938299959
 50
211.0225577364236926
 51
266.0394312836752988
  0
ARC
  5
1777D
  8
0
 10
1.2033433626061969
 20
13.1739149028895497
 30
0.0
 40
13.05448205650044
 50
266.1717218330123274
 51
271.586678102530982
  0
ARC
  5
1777E
  8
0
 10
1.5801418110887291
 20
0.4384686241825034
 30
0.0
 40
0.3144043913661798
 50
267.2052051441887102
 51
340.7529842371981772
  0
ARC
  5
1777F
  8
0
 10
0.8494439410532592
 20
0.6935970449965705
 30
0.0
 40
1.0883616824239259
 50
340.7529842371981772
 51
355.4874293342128908
  0
ARC
  5
17780
  8
0
 10
1.165513722650807
 20
0.6277660548768829
 30
0.0
 40
0.7026638191359714
 50
336.0724670539992189
 51
354.2659068652832843
  0
ARC
  5
17781
  8
0
 10
1.5686627740191521
 20
0.4552360590016971
 30
0.0
 40
0.2642506793162889
 50
269.6231055452036003
 51
334.8132880799605005
  0
ARC
  5
17782
  8
0
 10
1.198944727834117
 20
13.1876314284438205
 30
0.0
 40
13.0018486780217692
 50
266.1679318434444212
 51
271.6218082522378268
  0
ARC
  5
17783
  8
0
 10
0.3493181087016524
 20
0.4570103829630483
 30
0.0
 40
0.2429276250992613
 50
201.310448753746698
 51
265.4390395571730892
  0
ARC
  5
17784
  8
0
 10
0.9918476593114959
 20
0.6824473897071837
 30
0.0
 40
0.9237513803095621
 50
186.026465116150888
 51
199.8535655562382942
  0
ARC
  5
17785
  8
0
 10
1.831510286639797
 20
0.5430596661489169
 30
0.0
 40
0.0118105744999966
 50
180.0000000000171951
 51
269.999996604149203
  0
LINE
  5
17786
  8
0
 10
1.8315102859397989
 20
0.5312490916489168
 30
0.0
 11
1.8384725885397939
 21
0.5312490912362691
 31
0.0
  0
ARC
  5
17787
  8
0
 10
1.8384725878247179
 20
0.5191842334286445
 30
0.0
 40
0.0120648578076246
 50
353.2544373533812063
 51
89.9999966041442576
  0
ARC
  5
17788
  8
0
 10
1.309092428099347
 20
0.5817989317548058
 30
0.0
 40
0.5451351664511862
 50
335.8395140618683854
 51
353.2544373533809789
  0
ARC
  5
17789
  8
0
 10
1.5577893593189449
 20
0.4702361910621385
 30
0.0
 40
0.2725614907066187
 50
285.7890885736974269
 51
335.8395140618674759
  0
ARC
  5
1778A
  8
0
 10
1.121957182139603
 20
9.8229894228999761
 30
0.0
 40
9.6285468815534951
 50
265.0980417412342831
 51
273.0362069463943726
  0
ARC
  5
1778B
  8
0
 10
0.3413897911328689
 20
0.4512681946172119
 30
0.0
 40
0.2255905172370081
 50
200.6700109217248098
 51
259.2181266292640771
  0
ARC
  5
1778C
  8
0
 10
0.9919450123512235
 20
0.6824846809155681
 30
0.0
 40
0.9159813985915899
 50
185.9773296456554021
 51
199.8378299209610134
  0
LINE
  5
1778D
  8
0
 10
1.9259899277498029
 20
0.5336599001670841
 30
0.0
 11
2.0619043086540572
 21
0.5308923924489175
 31
0.0
  0
ARC
  5
1778E
  8
0
 10
2.0583126700769858
 20
0.5557404784153716
 30
0.0
 40
0.0251063188035404
 50
278.2247895646472102
 51
356.6883525922285116
  0
ARC
  5
1778F
  8
0
 10
0.9631861070508591
 20
0.6890051681489151
 30
0.0
 40
0.963186230566407
 50
168.0034800096883032
 51
191.9965199903114978
  0
ARC
  5
17790
  8
0
 10
0.9169645751827317
 20
0.6890051681489169
 30
0.0
 40
0.8500923139429299
 50
173.004058382216698
 51
186.995941617783302
  0
ARC
  5
17791
  8
0
 10
1.032610746710297
 20
0.6890051681489134
 30
0.0
 40
0.9571076965705033
 50
173.8879587489093126
 51
186.1120412510902042
  0
ARC
  5
17792
  8
0
 10
0.8307347987880291
 20
0.6890051681489151
 30
0.0
 40
1.042248566351766
 50
352.7548297883171244
 51
7.2451702116828516
  0
ARC
  5
17793
  8
0
 10
0.816799992919833
 20
0.6890051681489169
 30
0.0
 40
1.120565944316013
 50
355.8528145652119861
 51
4.1471854347879296
  0
LINE
  5
17794
  8
0
 10
2.0833770636893041
 20
0.5542901623423085
 30
0.0
 11
2.0833770636893041
 21
0.8237201739555217
 31
0.0
  0
ENDBLK
  5
17798
  8
0
  0
ENDSEC
  0
SECTION
  2
ENTITIES
  0
ATTDEF
  5
12BEB
  8
DEFPOINTS
 10
3449.0330780052941009
 20
161.1286401713093142
 30
0.0
 40
0.001
  1
K-97822T-9
  3

  2
MODELNUMBER
 70
     0
1001
ACDBATTR
1070
     0
1070
     1
  0
ATTDEF
  5
12BEC
  8
DEFPOINTS
 10
3449.0330780052941009
 20
161.1269735046425922
 30
0.0
 40
0.001
  1
ALEO
  3

  2
TRADENAME
 70
     0
1001
ACDBATTR
1070
     0
1070
     1
  0
ATTDEF
  5
12BED
  8
DEFPOINTS
 10
3449.0330780052941009
 20
161.1253068379760123
 30
0.0
 40
0.001
  1
BATH AND SHOWER FAUCET
  3

  2
PRODUCT
 70
     0
1001
ACDBATTR
1070
     0
1070
     1
  0
LINE
  5
17433
  8
0
 10
3445.0698334467410859
 20
191.7007021336100081
 30
0.0
 11
3445.0698334467410859
 21
186.1066341668312134
 31
0.0
  0
LINE
  5
17434
  8
0
 10
3446.0540854152409338
 20
191.7007021336100081
 30
0.0
 11
3446.0540854152409338
 21
184.0351035631240109
 31
0.0
  0
LINE
  5
17435
  8
0
 10
3444.9320531317412133
 20
191.7007021336100081
 30
0.0
 11
3446.1918657301412168
 21
191.7007021336100081
 31
0.0
  0
LINE
  5
17436
  8
0
 10
3444.9123531317409288
 20
192.9211596139099925
 30
0.0
 11
3444.9123531317409288
 21
191.7204021336100084
 31
0.0
  0
LINE
  5
17437
  8
0
 10
3446.211565730140137
 20
191.9664202438100062
 30
0.0
 11
3446.211565730140137
 21
191.7204021336100084
 31
0.0
  0
LINE
  5
17438
  8
0
 10
3444.9320531317412133
 20
193.4764461560100131
 30
0.0
 11
3446.1918657301412168
 21
193.4764461560100131
 31
0.0
  0
LINE
  5
17439
  8
0
 10
3444.9320531317412133
 20
193.0040052111100124
 30
0.0
 11
3446.1918657301412168
 21
193.0040052111100124
 31
0.0
  0
LINE
  5
1743A
  8
0
 10
3444.9320531317412133
 20
192.9408596139099927
 30
0.0
 11
3446.1918657301412168
 21
192.9408596139099927
 31
0.0
  0
LINE
  5
1743B
  8
0
 10
3445.0107783286398444
 20
193.0040052111100124
 30
0.0
 11
3445.0107783286398444
 21
192.9408596139099927
 31
0.0
  0
LINE
  5
1743C
  8
0
 10
3446.1131405333408111
 20
192.9408596139099927
 30
0.0
 11
3446.1131405333408111
 21
193.0040052111100124
 31
0.0
  0
ARC
  5
1743D
  8
0
 10
3444.9320531317412133
 20
192.9211596139099925
 30
0.0
 40
0.0197
 50
90.0000000000260485
 51
180.0000000000098055
  0
ARC
  5
1743E
  8
0
 10
3446.1918657301412168
 20
192.9211596139099925
 30
0.0
 40
0.0197
 50
0.0000000000097707
 51
90.0
  0
LINE
  5
1743F
  8
0
 10
3444.9123531317409288
 20
193.0237052111100127
 30
0.0
 11
3444.9123531317409288
 21
193.4567461560100128
 31
0.0
  0
LINE
  5
17440
  8
0
 10
3446.211565730140137
 20
193.4567461560100128
 30
0.0
 11
3446.211565730140137
 21
193.0237052111100127
 31
0.0
  0
ARC
  5
17441
  8
0
 10
3444.9320531317412133
 20
193.0237052111100127
 30
0.0
 40
0.0197
 50
180.0000000000098055
 51
269.9999999999478746
  0
ARC
  5
17442
  8
0
 10
3444.9320531317412133
 20
193.4567461560100128
 30
0.0
 40
0.0197
 50
90.0000000000260485
 51
180.0000000000212026
  0
ARC
  5
17443
  8
0
 10
3446.1918657301412168
 20
193.4567461560100128
 30
0.0
 40
0.0197
 50
0.0
 51
90.0
  0
ARC
  5
17444
  8
0
 10
3446.1918657301412168
 20
193.0237052111100127
 30
0.0
 40
0.0197
 50
269.9999999999739089
 51
359.9999999999902229
  0
LINE
  5
17445
  8
0
 10
3445.1682586435408666
 20
193.4764461560100131
 30
0.0
 11
3445.1682586435408666
 21
207.4684218186100111
 31
0.0
  0
LINE
  5
17446
  8
0
 10
3445.9556602183401992
 20
193.4764461560100131
 30
0.0
 11
3445.9556602183401992
 21
207.4684233934100064
 31
0.0
  0
LINE
  5
17447
  8
0
 10
3431.7824287223411375
 20
209.0432218186099931
 30
0.0
 11
3443.5934586435409983
 21
209.0432218186099931
 31
0.0
  0
LINE
  5
17448
  8
0
 10
3443.5934602183410789
 20
209.8306233934100078
 30
0.0
 11
3431.7824271475410569
 21
209.8306233934100078
 31
0.0
  0
LINE
  5
17449
  8
0
 10
3430.2076287223408144
 20
206.6810170942100058
 30
0.0
 11
3430.2076287223408144
 21
207.4684218186100111
 31
0.0
  0
LINE
  5
1744A
  8
0
 10
3429.4202271475410271
 20
206.6810170942100058
 30
0.0
 11
3429.4202271475410271
 21
207.4684233934100064
 31
0.0
  0
LINE
  5
1744B
  8
0
 10
3430.2076287223408144
 20
206.6810170942100058
 30
0.0
 11
3429.4202271475410271
 21
206.6810170942100058
 31
0.0
  0
ARC
  5
1744C
  8
0
 10
3431.7824287223411375
 20
207.4684218186100111
 30
0.0
 40
1.5747999999999991
 50
90.0
 51
180.0
  0
ARC
  5
1744D
  8
0
 10
3443.5934586435409983
 20
207.4684218186100111
 30
0.0
 40
1.5747999999999991
 50
0.0
 51
90.0
  0
ARC
  5
1744E
  8
0
 10
3443.5934602183410789
 20
207.4684233934100064
 30
0.0
 40
2.3622000000000001
 50
0.0
 51
90.0
  0
ARC
  5
1744F
  8
0
 10
3431.7824271475410569
 20
207.4684233934100064
 30
0.0
 40
2.3622000000000001
 50
90.0
 51
180.0
  0
ARC
  5
17450
  8
0
 10
3444.9320531317412133
 20
191.7204021336100084
 30
0.0
 40
0.0197
 50
180.0000000000212026
 51
269.9999999999478746
  0
ARC
  5
17451
  8
0
 10
3446.1918657301412168
 20
191.7204021336100084
 30
0.0
 40
0.0197
 50
270.0000000000259774
 51
359.9999999999690772
  0
LINE
  5
17452
  8
0
 10
3449.0442428955411742
 20
191.0806233934100078
 30
0.0
 11
3449.0442428955411742
 21
193.5609383540100055
 31
0.0
  0
LINE
  5
17453
  8
0
 10
3448.6505421081401437
 20
191.110123701708801
 30
0.0
 11
3448.6505421081401437
 21
193.5314380457112122
 31
0.0
  0
LINE
  5
17454
  8
0
 10
3448.6697264222589183
 20
191.0904304524067925
 30
0.0
 11
3449.0442428955411742
 21
191.0806233934100078
 31
0.0
  0
LINE
  5
17455
  8
0
 10
3448.6697264222589183
 20
193.5511312950131924
 30
0.0
 11
3449.0442428955411742
 21
193.5609383540100055
 31
0.0
  0
LINE
  5
17456
  8
0
 10
3446.7017232104408322
 20
191.8286548895100054
 30
0.0
 11
3448.6505421081401437
 21
191.8286548895100054
 31
0.0
  0
LINE
  5
17457
  8
0
 10
3446.7017232104408322
 20
192.8129068580099954
 30
0.0
 11
3448.6505421081401437
 21
192.8129068580099954
 31
0.0
  0
LINE
  5
17458
  8
0
 10
3446.7017232104408322
 20
192.8129068580099954
 30
0.0
 11
3446.7017232104408322
 21
191.8286548895100054
 31
0.0
  0
LINE
  5
17459
  8
0
 10
3446.7017232104408322
 20
192.0058202438100068
 30
0.0
 11
3446.2509657301411607
 21
192.0058202438100068
 31
0.0
  0
LINE
  5
1745A
  8
0
 10
3446.7017232104408322
 20
192.6357415036100065
 30
0.0
 11
3446.2509657301411607
 21
192.6357415036100065
 31
0.0
  0
ARC
  5
1745B
  8
0
 10
3448.6702421081408829
 20
191.110123701708801
 30
0.0
 40
0.0197
 50
180.0000000000098055
 51
268.4999999998278213
  0
ARC
  5
1745C
  8
0
 10
3448.6702421081408829
 20
193.5314380457112122
 30
0.0
 40
0.0197
 50
91.5000000001721503
 51
180.0
  0
ARC
  5
1745D
  8
0
 10
3446.2509657301411607
 20
191.9664202438100062
 30
0.0
 40
0.0394
 50
89.9999999999739515
 51
180.0000000000098055
  0
LINE
  5
1745E
  8
0
 10
3446.211565730140137
 20
192.675141503610007
 30
0.0
 11
3446.211565730140137
 21
192.9211596139099925
 31
0.0
  0
ARC
  5
1745F
  8
0
 10
3446.2509657301411607
 20
192.675141503610007
 30
0.0
 40
0.0394
 50
179.9999999999901945
 51
270.0
  0
ARC
  5
17460
  8
0
 10
3446.9078103052370352
 20
192.337397939016796
 30
0.0
 40
0.7889112489321983
 50
181.2069267946189086
 51
208.0498823003850077
  0
ARC
  5
17461
  8
0
 10
3446.9161864472371235
 20
192.3019775520195083
 30
0.0
 40
0.7973341142382361
 50
152.0945075489252929
 51
178.6486833560641116
  0
LINE
  5
17462
  8
0
 10
3429.449742293941199
 20
206.5629068674099926
 30
0.0
 11
3429.449742293941199
 21
206.6810170942100058
 31
0.0
  0
LINE
  5
17463
  8
0
 10
3430.1780887505410647
 20
206.5629068674099926
 30
0.0
 11
3430.1780887505410647
 21
206.6810170942100058
 31
0.0
  0
LINE
  5
17464
  8
0
 10
3445.6570969904410049
 20
193.0040052111100124
 30
0.0
 11
3445.6570969904410049
 21
193.4764461560100131
 31
0.0
  0
LINE
  5
17465
  8
0
 10
3446.0554360885730603
 20
193.0040052111100124
 30
0.0
 11
3446.0554360885730603
 21
193.4764461560100131
 31
0.0
  0
LINE
  5
17466
  8
0
 10
3429.4497547065411709
 20
206.5629068674099926
 30
0.0
 11
3430.1781011632410809
 21
206.5629068674099926
 31
0.0
  0
LINE
  5
17467
  8
0
 10
3430.1781011632410809
 20
206.5629068674099926
 30
0.0
 11
3430.2273137617407883
 21
206.51369427021001
 31
0.0
  0
LINE
  5
17468
  8
0
 10
3430.2273137617407883
 20
206.51369427021001
 30
0.0
 11
3430.2273137617407883
 21
206.471206070610009
 31
0.0
  0
LINE
  5
17469
  8
0
 10
3429.4497547065411709
 20
206.5629068674099926
 30
0.0
 11
3429.4005421081410532
 21
206.5136942516099907
 31
0.0
  0
LINE
  5
1746A
  8
0
 10
3429.4005421081410532
 20
206.5136942516099907
 30
0.0
 11
3429.4005421081410532
 21
206.471206070610009
 31
0.0
  0
LINE
  5
1746B
  8
0
 10
3429.4005421081410532
 20
206.5136942516099907
 30
0.0
 11
3430.2273137617407883
 21
206.5136942516099907
 31
0.0
  0
LINE
  5
1746C
  8
0
 10
3429.1032980135410071
 20
204.4160879603400929
 30
0.0
 11
3429.1032980135410071
 21
205.4948281178099876
 31
0.0
  0
LINE
  5
1746D
  8
0
 10
3429.1032980135410071
 20
205.4948281178099876
 30
0.0
 11
3430.5403058876408977
 21
205.4948281178099876
 31
0.0
  0
LINE
  5
1746E
  8
0
 10
3429.6179405807411058
 20
205.0223871729099869
 30
0.0
 11
3429.6179405807411058
 21
205.4948281178099876
 31
0.0
  0
LINE
  5
1746F
  8
0
 10
3429.6179405807411058
 20
205.0223871729099869
 30
0.0
 11
3430.025663320440799
 21
205.0223871729099869
 31
0.0
  0
LINE
  5
17470
  8
0
 10
3429.3457389602408512
 20
206.471206070610009
 30
0.0
 11
3430.2821169095400364
 21
206.471206070610009
 31
0.0
  0
ARC
  5
17471
  8
0
 10
3429.3457389566410711
 20
206.4512060706099987
 30
0.0
 40
0.0199999999999999
 50
89.9999896867645361
 51
180.0
  0
LINE
  5
17472
  8
0
 10
3429.3257389566410893
 20
206.4512060706099987
 30
0.0
 11
3429.3257389566410893
 21
206.3432533146099956
 31
0.0
  0
LINE
  5
17473
  8
0
 10
3429.3257389566410893
 20
206.3432533146099956
 30
0.0
 11
3429.3670775393411532
 21
206.3019147320100046
 31
0.0
  0
LINE
  5
17474
  8
0
 10
3429.3670775393411532
 20
206.3019147320100046
 30
0.0
 11
3429.36707753931978
 21
205.8033194280552038
 31
0.0
  0
ARC
  5
17475
  8
0
 10
3429.5540854127971215
 20
205.9343543821973981
 30
0.0
 40
0.2283464559601202
 50
215.018628235121497
 51
248.0877878012501867
  0
ARC
  5
17476
  8
0
 10
3429.4427468305470939
 20
205.6575614488646977
 30
0.0
 40
0.070000000094667
 50
309.3709896796016778
 51
68.0877876768406765
  0
ARC
  5
17477
  8
0
 10
3429.8218019488408572
 20
205.195615519410012
 30
0.0
 40
0.5275590551000331
 50
129.3709895358958022
 51
145.4348305407042119
  0
LINE
  5
17478
  8
0
 10
3430.5403058876408977
 20
204.4160879605003913
 30
0.0
 11
3430.5403058876408977
 21
205.4948281178099876
 31
0.0
  0
LINE
  5
17479
  8
0
 10
3430.025663320440799
 20
205.0223871729099869
 30
0.0
 11
3430.025663320440799
 21
205.4948281178099876
 31
0.0
  0
ARC
  5
1747A
  8
0
 10
3430.2821169095400364
 20
206.4512060706099987
 30
0.0
 40
0.0199999999999999
 50
0.0
 51
90.0000103132354639
  0
LINE
  5
1747B
  8
0
 10
3430.3021169095409277
 20
206.4512060706099987
 30
0.0
 11
3430.3021169095409277
 21
206.3432533146099956
 31
0.0
  0
LINE
  5
1747C
  8
0
 10
3430.3021169095409277
 20
206.3432533146099956
 30
0.0
 11
3430.2607783268408639
 21
206.3019147320100046
 31
0.0
  0
LINE
  5
1747D
  8
0
 10
3430.2607783268408639
 20
206.3019147320100046
 30
0.0
 11
3430.2607783268617823
 21
205.8033194280552038
 31
0.0
  0
ARC
  5
1747E
  8
0
 10
3430.0737704533848955
 20
205.9343543821973981
 30
0.0
 40
0.2283464559601202
 50
291.9122121987497849
 51
324.9813717648784746
  0
ARC
  5
1747F
  8
0
 10
3430.1851090356358327
 20
205.6575614488646977
 30
0.0
 40
0.070000000094667
 50
111.9122123231592951
 51
230.629010320397299
  0
ARC
  5
17480
  8
0
 10
3429.8060539173411598
 20
205.195615519410012
 30
0.0
 40
0.5275590551000331
 50
34.565169459295781
 51
50.6290104641042191
  0
ARC
  5
17481
  8
0
 10
3445.5993610058408194
 20
183.3217922707331127
 30
0.0
 40
0.7874015748000005
 50
140.4990073566540048
 51
265.6379155527233138
  0
ARC
  5
17482
  8
0
 10
3445.5993610058408194
 20
183.3217922707331127
 30
0.0
 40
0.7874015748000005
 50
312.3885400054525121
 51
79.7123247493339733
  0
ARC
  5
17483
  8
0
 10
3445.5993610058408194
 20
183.2627371526330933
 30
0.0
 40
0.8464566928999989
 50
46.4986163223999611
 51
80.550358869610335
  0
ARC
  5
17484
  8
0
 10
3445.6182555563368624
 20
183.3410691821189005
 30
0.0
 40
0.8195312000953244
 50
46.5332846214783871
 51
82.840609530220604
  0
LINE
  5
17485
  8
0
 10
3446.1820381712409471
 20
183.8767210725175119
 30
0.0
 11
3446.1820381712409471
 21
183.9358637273705881
 31
0.0
  0
LINE
  5
17486
  8
0
 10
3446.1485736043409815
 20
183.8860322565959109
 30
0.0
 11
3446.1485736043409815
 21
183.9068291139275004
 31
0.0
  0
LINE
  5
17487
  8
0
 10
3445.697346657891103
 20
184.0465465240793037
 30
0.0
 11
3446.1499046155581709
 21
182.7588509116224031
 31
0.0
  0
ARC
  5
17488
  8
0
 10
3445.733197060224029
 20
184.059146073774599
 30
0.0
 40
0.038
 50
79.7123247493339733
 51
199.363919540980703
  0
LINE
  5
17489
  8
0
 10
3445.0584365876488846
 20
183.8140022761467094
 30
0.0
 11
3445.5394718637248843
 21
182.5366715598522944
 31
0.0
  0
ARC
  5
1748A
  8
0
 10
3445.0228032464588068
 20
183.8005230026944048
 30
0.0
 40
0.0380975828254293
 50
20.7204776691721086
 51
144.4900099049395976
  0
ARC
  5
1748B
  8
0
 10
3445.5993610058408194
 20
183.3217922707331127
 30
0.0
 40
0.8464566929000316
 50
227.6448134684540037
 51
270.3640083745756897
  0
ARC
  5
1748C
  8
0
 10
3445.0546838405412018
 20
182.7243569103002017
 30
0.0
 40
0.038
 50
180.0
 51
227.6448134684540037
  0
ARC
  5
1748D
  8
0
 10
3445.5985993033450541
 20
183.3797026385456093
 30
0.0
 40
0.8451020374835804
 50
226.4826495295440907
 51
268.8479188857585882
  0
LINE
  5
1748E
  8
0
 10
3445.0166838405411909
 20
182.7668634688538134
 30
0.0
 11
3445.0166838405411909
 21
182.7243569103002017
 31
0.0
  0
LINE
  5
1748F
  8
0
 10
3445.0502795575230266
 20
182.7366436197752932
 30
0.0
 11
3445.0503433605481405
 21
182.7573625894141003
 31
0.0
  0
LINE
  5
17490
  8
0
 10
3445.3943202335658498
 20
182.9221040737297983
 30
0.0
 11
3446.0133459710068564
 21
183.1474110163617866
 31
0.0
  0
ARC
  5
17491
  8
0
 10
3437.919345472295845
 20
179.6853079472894024
 30
0.0
 40
8.7607369049033572
 50
346.2058958458745224
 51
23.173563269170959
  0
ARC
  5
17492
  8
0
 10
3397.2360430141320649
 20
189.421489067626112
 30
0.0
 40
50.5927095735542309
 50
341.3175238871255033
 51
346.4832269807554894
  0
ARC
  5
17493
  8
0
 10
3471.2563773795100133
 20
164.7606764805424859
 30
0.0
 40
27.4290201139519283
 50
162.0466514338507977
 51
176.0835757721879986
  0
ARC
  5
17494
  8
0
 10
3475.2282032859911851
 20
164.7877794814368997
 30
0.0
 40
31.3911371596676609
 50
176.6280849787017075
 51
185.0922887572141065
  0
ARC
  5
17495
  8
0
 10
3438.3801049015901299
 20
179.7619466073240915
 30
0.0
 40
7.7165644563345781
 50
350.6352487579201807
 51
24.2404011368769901
  0
ARC
  5
17496
  8
0
 10
3412.3226045868141227
 20
185.01999223857689
 30
0.0
 40
34.2954687214748688
 50
341.2259283325914794
 51
349.051405037902498
  0
ARC
  5
17497
  8
0
 10
3471.1531054095589752
 20
164.8397392024236012
 30
0.0
 40
27.900247433914231
 50
160.871239882047206
 51
180.9043683818428008
  0
ARC
  5
17498
  8
0
 10
3432.7807366673227989
 20
180.2593446187395898
 30
0.0
 40
13.6092870758581697
 50
18.4214264287782896
 51
41.7847893670731665
  0
ARC
  5
17499
  8
0
 10
3433.2666788381397964
 20
180.6872139121223029
 30
0.0
 40
12.9618396605537196
 50
41.8058216465035528
 51
61.3989585167594285
  0
ARC
  5
1749A
  8
0
 10
3437.9992532199021298
 20
189.366993951600989
 30
0.0
 40
3.0756957301506511
 50
61.3989585167594285
 51
70.3141898263590832
  0
ARC
  5
1749B
  8
0
 10
3439.0252786669761917
 20
192.2348096234804018
 30
0.0
 40
0.0298633404879787
 50
70.3141898263596516
 51
228.2679297565524053
  0
LINE
  5
1749C
  8
0
 10
3439.0054001891130611
 20
192.212523636336897
 30
0.0
 11
3442.1810750850149816
 21
189.2515194331853934
 31
0.0
  0
ARC
  5
1749D
  8
0
 10
3436.7417238608481966
 20
184.6722424628416945
 30
0.0
 40
7.1102967104733361
 50
24.5682986542116311
 51
40.0933302863732806
  0
ARC
  5
1749E
  8
0
 10
3413.7368005679759335
 20
173.1894794504136996
 30
0.0
 40
32.8185288575018035
 50
19.5716976933392104
 51
26.101767495094041
  0
LINE
  5
1749F
  8
0
 10
3438.9834241777148236
 20
192.2034091141854049
 30
0.0
 11
3442.1213371354160699
 21
189.2772579420094985
 31
0.0
  0
ARC
  5
174A0
  8
0
 10
3442.1112231169290681
 20
189.2664119850518034
 30
0.0
 40
0.0148299747904597
 50
316.3430914739465152
 51
46.9999999987102584
  0
LINE
  5
174A1
  8
0
 10
3442.1219524041648583
 20
189.2561742827853948
 30
0.0
 11
3441.9236649040808516
 21
189.0432862385596877
 31
0.0
  0
ARC
  5
174A2
  8
0
 10
3441.7349868563937889
 20
189.2187209346020893
 30
0.0
 40
0.2576368340409336
 50
214.4816073892671966
 51
317.0830191643726721
  0
LINE
  5
174A3
  8
0
 10
3441.5226147609510008
 20
189.0728619913327861
 30
0.0
 11
3441.3929210399887779
 21
189.2627996003438113
 31
0.0
  0
LINE
  5
174A5
  8
0
 10
3441.9468718460711898
 20
189.439949456338411
 30
0.0
 11
3441.9619083422148833
 21
189.4560741242854078
 31
0.0
  0
LINE
  5
174A6
  8
0
 10
3439.155838458711969
 20
192.0426301960825981
 30
0.0
 11
3439.1706145331918378
 21
192.0584775254231999
 31
0.0
  0
ARC
  5
174A7
  8
0
 10
3438.9731879221999407
 20
192.192444664304503
 30
0.0
 40
0.0150000029382033
 50
46.9672019016209319
 51
155.6007859339254935
  0
LINE
  5
174A8
  8
0
 10
3441.5501268753127988
 20
189.2818090125572041
 30
0.0
 11
3441.5012964113147973
 21
189.2322944474854012
 31
0.0
  0
ARC
  5
174A9
  8
0
 10
3441.4904123107999112
 20
189.2442034455262103
 30
0.0
 40
0.016133439755363
 50
262.3351102549215739
 51
312.4254147971543034
  0
ARC
  5
174AA
  8
0
 10
3441.5461820421460288
 20
189.5365834344958103
 30
0.0
 40
0.3137618884204567
 50
238.1901348177732984
 51
259.3619744347108735
  0
ARC
  5
174AB
  8
0
 10
3441.3893459403848283
 20
189.279750042680007
 30
0.0
 40
0.013006026184332
 50
144.6001849961363916
 51
228.9080914586317874
  0
LINE
  5
174AC
  8
0
 10
3441.3787443426049322
 20
189.28728415454529
 30
0.0
 11
3441.4109827976521956
 21
189.3306919348131885
 31
0.0
  0
ARC
  5
174AD
  8
0
 10
3441.5227177589131315
 20
189.4802462450109886
 30
0.0
 40
0.1889496488638915
 50
231.6752136996084062
 51
233.2378268136046984
  0
ARC
  5
174AE
  8
0
 10
3441.2259514161150946
 20
188.5815278822080927
 30
0.0
 40
0.7716757025262505
 50
63.9836323355482079
 51
76.5419124163562259
  0
ARC
  5
174AF
  8
0
 10
3441.5450494140491173
 20
189.3297376420804881
 30
0.0
 40
0.0580590683573426
 50
265.3450038855147
 51
289.4999682862127202
  0
ARC
  5
174B0
  8
0
 10
3441.4710691836999104
 20
189.3581446064472118
 30
0.0
 40
0.1178024161198526
 50
236.09075091151999
 51
263.1050348978761804
  0
ARC
  5
174B1
  8
0
 10
3441.3779844086861885
 20
189.1078753609901923
 30
0.0
 40
0.1549381818271169
 50
59.368765089871637
 51
79.8270207195416077
  0
LINE
  5
174B2
  8
0
 10
3441.3164187276152006
 20
189.3489779263373975
 30
0.0
 11
3441.2706625684149913
 21
189.3050994693853966
 31
0.0
  0
ARC
  5
174B3
  8
0
 10
3441.2624909232108621
 20
189.3136208059326009
 30
0.0
 40
0.0118063102568871
 50
242.4756451223175873
 51
313.7999203270121029
  0
LINE
  5
174B4
  8
0
 10
3441.2570349248139792
 20
189.3031507990853868
 30
0.0
 11
3441.1622963536110547
 21
189.3550760251289091
 31
0.0
  0
ARC
  5
174B5
  8
0
 10
3441.1681884680510848
 20
189.3653175828505084
 30
0.0
 40
0.0118155201802265
 50
143.8097436293928979
 51
240.0875671853337963
  0
LINE
  5
174B6
  8
0
 10
3441.1586526256151046
 20
189.3722942744853981
 30
0.0
 11
3441.1926186319869885
 21
189.41870293698301
 31
0.0
  0
LINE
  5
174B7
  8
0
 10
3440.1284685611649365
 20
190.2669343649506004
 30
0.0
 11
3440.094075931909174
 21
190.2257061730500993
 31
0.0
  0
ARC
  5
174B8
  8
0
 10
3440.1039196892279506
 20
190.2178198332352963
 30
0.0
 40
0.0126132435884177
 50
141.2999890075276141
 51
221.5955414772986103
  0
ARC
  5
174B9
  8
0
 10
3440.5459915031410674
 20
190.6265273205681865
 30
0.0
 40
0.6146649498932734
 50
222.7304531219888872
 51
232.6872588544864016
  0
ARC
  5
174BA
  8
0
 10
3440.1791382256678844
 20
190.148515930406802
 30
0.0
 40
0.0122773703744688
 50
242.1510746740304114
 51
313.6865718004289079
  0
LINE
  5
174BB
  8
0
 10
3440.1876183644149023
 20
190.1396378072853963
 30
0.0
 11
3440.2257121365851162
 21
190.1766072728800054
 31
0.0
  0
LINE
  5
174BC
  8
0
 10
3440.2426630123450195
 20
190.1463639247880053
 30
0.0
 11
3440.2037624739150488
 21
190.1087980297853903
 31
0.0
  0
ARC
  5
174BD
  8
0
 10
3440.1968917355138728
 20
190.1159128722030118
 30
0.0
 40
0.0098908052655945
 50
241.69238217199171
 51
314.0000622714653105
  0
ARC
  5
174BE
  8
0
 10
3440.8538545330520719
 20
190.9078400845334045
 30
0.0
 40
1.038653714222125
 50
225.4201533654369882
 51
230.4293273117660874
  0
ARC
  5
174BF
  8
0
 10
3440.1341870921828558
 20
190.1743901657860079
 30
0.0
 40
0.0113187263051965
 50
153.0625008437748136
 51
214.1570985052298965
  0
ARC
  5
174C0
  8
0
 10
3440.3258175976311577
 20
189.9960582184486952
 30
0.0
 40
0.0098908052655945
 50
241.69238217199171
 51
297.4384848732797764
  0
ARC
  5
174C1
  8
0
 10
3437.8364660725060276
 20
187.3624361214179999
 30
0.0
 40
3.6143762290943751
 50
46.5723182075747175
 51
49.1676915645956285
  0
ARC
  5
174C2
  8
0
 10
3440.2462679556820149
 20
190.0673776377379909
 30
0.0
 40
0.0091933817932089
 50
131.255968253723097
 51
203.0070567852797012
  0
LINE
  5
174C3
  8
0
 10
3440.2402056179139436
 20
190.0742889566853933
 30
0.0
 11
3440.2740460194409025
 21
190.1127025319175061
 31
0.0
  0
ARC
  5
174C4
  8
0
 10
3440.2069338321311989
 20
190.1042898024155079
 30
0.0
 40
0.0101389543057984
 50
171.894015874008403
 51
224.6144750371186944
  0
LINE
  5
174C5
  8
0
 10
3440.4657458853389471
 20
189.9378142503211961
 30
0.0
 11
3440.4372227479229878
 21
189.902641926251988
 31
0.0
  0
ARC
  5
174C6
  8
0
 10
3440.4464028290281021
 20
189.8951973026227904
 30
0.0
 40
0.0118193193576252
 50
140.9595369721066902
 51
229.3964582757660082
  0
ARC
  5
174C7
  8
0
 10
3441.5013423345558294
 20
191.0656540864767123
 30
0.0
 40
1.587527099958266
 50
227.9820866346908872
 51
231.7953185651344086
  0
ARC
  5
174C8
  8
0
 10
3440.5254901839939521
 20
189.8284172185502996
 30
0.0
 40
0.0118736088043802
 50
239.703892945366789
 51
312.6463261396712028
  0
LINE
  5
174C9
  8
0
 10
3440.5335342086150376
 20
189.8196835907853881
 30
0.0
 11
3440.5667843293517763
 21
189.8528725818667056
 31
0.0
  0
LINE
  5
174CA
  8
0
 10
3440.7063236411941034
 20
189.7429954345911085
 30
0.0
 11
3440.6771871717151043
 21
189.703185497385391
 31
0.0
  0
ARC
  5
174CB
  8
0
 10
3440.6867181130719473
 20
189.6962099028118871
 30
0.0
 40
0.0118109171023146
 50
143.8000000414835995
 51
231.9094149040369928
  0
LINE
  5
174CC
  8
0
 10
3440.6794318808688331
 20
189.6869142810955964
 30
0.0
 11
3440.7627237372262243
 21
189.6228474320732005
 31
0.0
  0
ARC
  5
174CD
  8
0
 10
3440.769844375276989
 20
189.6322723261015142
 30
0.0
 40
0.0118123712144507
 50
232.9284475805891077
 51
313.7892336579570269
  0
LINE
  5
174CE
  8
0
 10
3440.7780186251879968
 20
189.6237450902009982
 30
0.0
 11
3440.8172502757201983
 21
189.6613670407749055
 31
0.0
  0
LINE
  5
174CF
  8
0
 10
3440.8651844034620808
 20
189.6275728065816111
 30
0.0
 11
3440.8515551363148006
 21
189.6107434940853977
 31
0.0
  0
ARC
  5
174D0
  8
0
 10
3440.8610412645848555
 20
189.603061125812502
 30
0.0
 40
0.0122067772907845
 50
140.997617792775003
 51
219.8443411088821051
  0
ARC
  5
174D1
  8
0
 10
3441.559474149955804
 20
190.4502085036191943
 30
0.0
 40
1.109936427209621
 50
230.3795637059592991
 51
241.4243830627632121
  0
ARC
  5
174D2
  8
0
 10
3441.0332247045380427
 20
189.4877739535843091
 30
0.0
 40
0.0131477632109376
 50
249.2724262118960894
 51
305.9707745775878038
  0
ARC
  5
174D3
  8
0
 10
3440.6561001122859125
 20
189.1135628522681031
 30
0.0
 40
0.5092028249080262
 50
51.784891488765517
 51
60.6817154784166775
  0
ARC
  5
174D4
  8
0
 10
3441.1464985801121657
 20
189.847033234062792
 30
0.0
 40
0.3767162746809698
 50
230.2154193858897884
 51
242.2511875812801918
  0
LINE
  5
174D5
  8
0
 10
3441.0149154147661648
 20
189.5604764481053905
 30
0.0
 11
3440.9924058212150157
 21
189.5300383550853951
 31
0.0
  0
ARC
  5
174D6
  8
0
 10
3441.0030436611191362
 20
189.5221714544763927
 30
0.0
 40
0.0132307128692375
 50
143.5163154288838996
 51
218.9236996134690969
  0
ARC
  5
174D7
  8
0
 10
3441.1710017167679325
 20
189.700479277964007
 30
0.0
 40
0.2580711925123176
 50
226.3139764448048084
 51
251.2698233622145949
  0
ARC
  5
174D8
  8
0
 10
3441.0912807537670233
 20
189.4717762390037876
 30
0.0
 40
0.0160136539966167
 50
258.6601001935546265
 51
310.1320542027278861
  0
LINE
  5
174D9
  8
0
 10
3441.1016023779147872
 20
189.4595328248854003
 30
0.0
 11
3441.1441020087568177
 21
189.4953614925865111
 31
0.0
  0
ARC
  5
174DA
  8
0
 10
3441.0896203218831033
 20
189.5705431072229032
 30
0.0
 40
0.1015365116665681
 50
224.0619725413885988
 51
253.8966431651884932
  0
ARC
  5
174DB
  8
0
 10
3440.9887351326478893
 20
189.4027792251555979
 30
0.0
 40
0.1010846803074393
 50
43.9937351401002772
 51
73.9648805664837852
  0
LINE
  5
174DC
  8
0
 10
3440.5989407858428422
 20
189.8268091647620111
 30
0.0
 11
3440.5772510316151056
 21
189.7974810039854958
 31
0.0
  0
ARC
  5
174DD
  8
0
 10
3440.5869499391887985
 20
189.7903081395436971
 30
0.0
 40
0.0120631170285605
 50
143.5150799070335097
 51
211.4909840967632988
  0
ARC
  5
174DE
  8
0
 10
3440.923251943816922
 20
190.1308883125470004
 30
0.0
 40
0.4903573905110087
 50
225.0242099672310871
 51
238.2440821297344087
  0
ARC
  5
174DF
  8
0
 10
3440.6687942513740381
 20
189.7249287982218959
 30
0.0
 40
0.0115706166095764
 50
251.7773080002243091
 51
315.0313935506197254
  0
LINE
  5
174E0
  8
0
 10
3440.6769803945148851
 20
189.7167516208853897
 30
0.0
 11
3440.7045438527889019
 21
189.7443453009074972
 31
0.0
  0
ARC
  5
174E1
  8
0
 10
3440.7688340127551783
 20
189.9364021138383123
 30
0.0
 40
0.2408248453869596
 50
225.3966500205524142
 51
237.6084871854878884
  0
ARC
  5
174E2
  8
0
 10
3440.4603672536350132
 20
189.5485705622967032
 30
0.0
 40
0.2573645268097132
 50
45.7904010593414696
 51
57.2147361466794919
  0
LINE
  5
174E3
  8
0
 10
3440.8028560527941409
 20
189.733705424304901
 30
0.0
 11
3440.7811493615149629
 21
189.7134638989853954
 31
0.0
  0
ARC
  5
174E4
  8
0
 10
3440.7702067326749784
 20
189.7265420454467915
 30
0.0
 40
0.0170522444505037
 50
253.2546925725667961
 51
309.919593203195177
  0
ARC
  5
174E5
  8
0
 10
3441.0021197026821937
 20
190.2021225673956053
 30
0.0
 40
0.5459502590473108
 50
222.3288182167686955
 51
244.2918776564953021
  0
ARC
  5
174E6
  8
0
 10
3440.6123263642039092
 20
189.8446969266090036
 30
0.0
 40
0.0171846046999348
 50
147.6480049401527879
 51
216.4459981658374943
  0
LINE
  5
174E7
  8
0
 10
3440.5978092128138996
 20
189.8538927383854116
 30
0.0
 11
3440.6138711839507778
 21
189.8737499727706108
 31
0.0
  0
ARC
  5
174E8
  8
0
 10
3440.7765124966849726
 20
189.9018797157854976
 30
0.0
 40
0.1635312886086062
 50
219.1503531217416878
 51
247.1772960622269864
  0
ARC
  5
174E9
  8
0
 10
3440.5872912097252083
 20
189.6492750655851012
 30
0.0
 40
0.1618705170898746
 50
39.0035923602181711
 51
67.324056823756834
  0
LINE
  5
174EA
  8
0
 10
3440.4385790313272082
 20
189.9964535478833909
 30
0.0
 11
3440.4059439447141813
 21
189.966290652885391
 31
0.0
  0
ARC
  5
174EB
  8
0
 10
3440.3972150814238375
 20
189.9757349456025111
 30
0.0
 40
0.0128603156761522
 50
240.5641530454026054
 51
312.7455797771821153
  0
ARC
  5
174EC
  8
0
 10
3440.5986554544069804
 20
190.287568495881203
 30
0.0
 40
0.3840770887138846
 50
221.0569075490718944
 51
237.2527210836888969
  0
ARC
  5
174ED
  8
0
 10
3440.3198596173238002
 20
190.0427436408591007
 30
0.0
 40
0.013131538243017
 50
144.156519938422008
 51
214.512601061208386
  0
LINE
  5
174EE
  8
0
 10
3440.3092149340150172
 20
190.0504331150854114
 30
0.0
 11
3440.3430742881150763
 21
190.0948998036853936
 31
0.0
  0
LINE
  5
174EF
  8
0
 10
3440.4326542896060346
 20
189.9666779652075945
 30
0.0
 11
3440.4047879632148579
 21
189.9391473939853938
 31
0.0
  0
ARC
  5
174F0
  8
0
 10
3440.3963251536711141
 20
189.9477134135944141
 30
0.0
 40
0.0120414217314604
 50
241.0606117254378944
 51
314.6527401455916788
  0
ARC
  5
174F1
  8
0
 10
3440.8417201855450003
 20
190.5397473623183089
 30
0.0
 40
0.7527906498745924
 50
225.0786789183140968
 51
233.1731601473447029
  0
ARC
  5
174F2
  8
0
 10
3440.3189453332961421
 20
190.0153746402330057
 30
0.0
 40
0.0123451636597724
 50
141.379946480092002
 51
224.5538501387183885
  0
ARC
  5
174F3
  8
0
 10
3440.5655106003468973
 20
190.2205177368045952
 30
0.0
 40
0.3297306858170225
 50
224.4634015022217
 51
233.3401822220789086
  0
ARC
  5
174F4
  8
0
 10
3440.1316752806319528
 20
189.7231715752502907
 30
0.0
 40
0.3322140046583595
 50
44.4966445018665269
 51
53.306939222423118
  0
ARC
  5
174F5
  8
0
 10
3440.2527511883668012
 20
189.8876760224596012
 30
0.0
 40
0.1511719205649012
 50
39.3913792612703304
 51
58.8786883133596604
  0
ARC
  5
174F6
  8
0
 10
3440.4495082257872127
 20
190.115099401540391
 30
0.0
 40
0.153874273403743
 50
219.5641225764622959
 51
238.7059449981344983
  0
LINE
  5
174F7
  8
0
 10
3440.3093000314138408
 20
190.0230799122853966
 30
0.0
 11
3440.3151638114068191
 21
190.0284397664354117
 31
0.0
  0
LINE
  5
174F8
  8
0
 10
3440.1933010677521452
 20
190.2896660761738019
 30
0.0
 11
3440.1740697720570097
 21
190.2659176484822865
 31
0.0
  0
ARC
  5
174F9
  8
0
 10
3440.1881881250587867
 20
190.2554830872105072
 30
0.0
 40
0.0175558525982109
 50
143.5327159570402955
 51
205.5438249591101112
  0
ARC
  5
174FA
  8
0
 10
3440.5393359607819548
 20
190.5012092029836879
 30
0.0
 40
0.445913614637895
 50
214.6135764450324075
 51
241.2470852531035064
  0
ARC
  5
174FB
  8
0
 10
3440.3329774458998145
 20
190.1302080924475035
 30
0.0
 40
0.0215307316150729
 50
247.7838320754443089
 51
305.5399650302894088
  0
LINE
  5
174FC
  8
0
 10
3440.3454926288500246
 20
190.1126883150629112
 30
0.0
 11
3440.3680343070827803
 21
190.1337089804304128
 31
0.0
  0
ARC
  5
174FD
  8
0
 10
3440.1712567679787753
 20
190.0923545358315891
 30
0.0
 40
0.1261400240869346
 50
29.6390063226714808
 51
65.7511061073640235
  0
ARC
  5
174FE
  8
0
 10
3440.3272079278558522
 20
190.2637129171365018
 30
0.0
 40
0.1184115916648852
 50
208.4155546311415037
 51
246.9745577988892933
  0
ARC
  5
174FF
  8
0
 10
3441.8427523209597894
 20
189.7449383400436034
 30
0.0
 40
0.5422736427700002
 50
275.4142405271571192
 51
298.5262818867802821
  0
ARC
  5
17500
  8
0
 10
3441.8202797024919164
 20
189.9820447964333141
 30
0.0
 40
0.7804426798897393
 50
247.9519420666252074
 51
275.4142405271571192
  0
ARC
  5
17501
  8
0
 10
3443.6257714175471847
 20
193.5941132300879985
 30
0.0
 40
4.8326269868105296
 50
225.5414549980650918
 51
226.8709115573165036
  0
ARC
  5
17502
  8
0
 10
3443.6257714175471847
 20
193.5941132300879985
 30
0.0
 40
4.8326269868105296
 50
228.4308956646910929
 51
231.7561540112525051
  0
ARC
  5
17503
  8
0
 10
3443.6257714175471847
 20
193.5941132300879985
 30
0.0
 40
4.8326269868105296
 50
232.8010646179801881
 51
237.0656609016799905
  0
ARC
  5
17504
  8
0
 10
3443.6257714175471847
 20
193.5941132300879985
 30
0.0
 40
4.8326269868105296
 50
238.6416401018637998
 51
242.4948064049173979
  0
ARC
  5
17505
  8
0
 10
3440.3246963780761689
 20
190.2331941004503904
 30
0.0
 40
0.121098430056592
 50
226.591404844612299
 51
234.3228418356804923
  0
ARC
  5
17506
  8
0
 10
3439.7460548177878081
 20
189.6440879656369134
 30
0.0
 40
0.7063291286945077
 50
44.0088516005961097
 51
48.0461569602327927
  0
ARC
  5
17507
  8
0
 10
3440.1331276569630973
 20
190.272240017794104
 30
0.0
 40
0.0118482108618209
 50
178.0187966817715051
 51
229.2994121680063131
  0
ARC
  5
17508
  8
0
 10
3439.546032272931825
 20
189.5423916626110952
 30
0.0
 40
0.9296204372557461
 50
42.0262113663609682
 51
51.7710405924605297
  0
ARC
  5
17509
  8
0
 10
3440.2449829924380538
 20
190.1927799788799973
 30
0.0
 40
0.0292641588665192
 50
220.628015797683986
 51
253.3339767117263079
  0
ARC
  5
1750A
  8
0
 10
3439.9877783464899039
 20
189.8835363591493888
 30
0.0
 40
0.4551713259922263
 50
33.3411517693264798
 51
63.158221496807748
  0
ARC
  5
1750B
  8
0
 10
3440.2149932507340964
 20
189.8750970591528073
 30
0.0
 40
0.2543973243584047
 50
28.4919472343004401
 51
59.7702598447242366
  0
ARC
  5
1750C
  8
0
 10
3440.4529590365568765
 20
189.4590687887481124
 30
0.0
 40
0.4448069284097426
 50
38.1286184894814966
 51
68.7918437189722738
  0
ARC
  5
1750D
  8
0
 10
3440.9497215227402194
 20
189.2704241327978139
 30
0.0
 40
0.2972887303159375
 50
49.1679375569714523
 51
77.3323795806351626
  0
LINE
  5
1750E
  8
0
 10
3441.162943904443182
 20
189.6364085126961072
 30
0.0
 11
3441.1141134404438162
 21
189.5868939476243042
 31
0.0
  0
ARC
  5
1750F
  8
0
 10
3441.1032293399298396
 20
189.5988029456649997
 30
0.0
 40
0.016133439755363
 50
262.3351102549215739
 51
312.4254147971543034
  0
ARC
  5
17510
  8
0
 10
3441.1589990712750478
 20
189.8911829346347133
 30
0.0
 40
0.3137618884204567
 50
238.1901348177732984
 51
259.3619744347108735
  0
ARC
  5
17511
  8
0
 10
3441.0021629695152114
 20
189.6343495428189101
 30
0.0
 40
0.013006026184332
 50
144.6001849961363916
 51
228.9080914586317874
  0
LINE
  5
17512
  8
0
 10
3440.9915613717339511
 20
189.6418836546841931
 30
0.0
 11
3441.023799826782124
 21
189.6852914349520915
 31
0.0
  0
ARC
  5
17513
  8
0
 10
3441.1355347880421505
 20
189.8348457451498916
 30
0.0
 40
0.1889496488638915
 50
231.6752136996084062
 51
233.2378268136046984
  0
ARC
  5
17514
  8
0
 10
3440.838768445245023
 20
188.9361273823469958
 30
0.0
 40
0.7716757025262505
 50
63.9836323355482079
 51
76.5419124163562259
  0
ARC
  5
17515
  8
0
 10
3441.1578664431781363
 20
189.6843371422193911
 30
0.0
 40
0.0580590683573426
 50
265.3450038855147
 51
289.4999682862127202
  0
ARC
  5
17516
  8
0
 10
3441.0838862128298388
 20
189.7127441065860864
 30
0.0
 40
0.1178024161198526
 50
236.09075091151999
 51
263.1050348978761804
  0
ARC
  5
17517
  8
0
 10
3440.9908014378152075
 20
189.4624748611290954
 30
0.0
 40
0.1549381818271169
 50
59.368765089871637
 51
79.8270207195416077
  0
LINE
  5
17518
  8
0
 10
3440.4806112251421837
 20
190.2085987670637905
 30
0.0
 11
3440.4479761385300662
 21
190.1784358720657906
 31
0.0
  0
ARC
  5
17519
  8
0
 10
3440.4392472752379035
 20
190.187880164782797
 30
0.0
 40
0.0128603156761522
 50
240.5641530454026054
 51
312.7455797771821153
  0
ARC
  5
1751A
  8
0
 10
3440.6406876482219559
 20
190.4997137150616027
 30
0.0
 40
0.3840770887138846
 50
221.0569075490718944
 51
237.2527210836888969
  0
ARC
  5
1751B
  8
0
 10
3440.3618918111387757
 20
190.2548888600393866
 30
0.0
 40
0.013131538243017
 50
144.156519938422008
 51
214.512601061208386
  0
LINE
  5
1751C
  8
0
 10
3440.3512471278299927
 20
190.2625783342656973
 30
0.0
 11
3440.3851064819300518
 21
190.3070450228657933
 31
0.0
  0
ARC
  5
1751D
  8
0
 10
3440.2947833821817767
 20
190.0998212416398871
 30
0.0
 40
0.1511719205649012
 50
39.3913792612703304
 51
58.8786883133596604
  0
ARC
  5
1751E
  8
0
 10
3440.491540419600824
 20
190.3272446207207054
 30
0.0
 40
0.153874273403743
 50
219.5641225764622959
 51
238.7059449981344983
  0
ARC
  5
1751F
  8
0
 10
3440.2570254445490718
 20
190.0872422783330933
 30
0.0
 40
0.2543973243584047
 50
28.4919472343004401
 51
59.7702598447242366
  0
LINE
  5
17520
  8
0
 10
3440.6801862865231669
 20
189.904633852657696
 30
0.0
 11
3440.6475511999110495
 21
189.8744709576596961
 31
0.0
  0
ARC
  5
17521
  8
0
 10
3440.6388223366188868
 20
189.8839152503767878
 30
0.0
 40
0.0128603156761522
 50
240.5641530454026054
 51
312.7455797771821153
  0
ARC
  5
17522
  8
0
 10
3440.8402627096029391
 20
190.1957488006555081
 30
0.0
 40
0.3840770887138846
 50
221.0569075490718944
 51
237.2527210836888969
  0
ARC
  5
17523
  8
0
 10
3440.5614668725188494
 20
189.9509239456334058
 30
0.0
 40
0.013131538243017
 50
144.156519938422008
 51
214.512601061208386
  0
LINE
  5
17524
  8
0
 10
3440.5508221892100664
 20
189.9586134198598018
 30
0.0
 11
3440.5846815433101256
 21
190.0030801084596987
 31
0.0
  0
ARC
  5
17525
  8
0
 10
3440.4943584435618504
 20
189.7958563272339063
 30
0.0
 40
0.1511719205649012
 50
39.3913792612703304
 51
58.8786883133596604
  0
ARC
  5
17526
  8
0
 10
3440.6911154809818072
 20
190.0232797063148098
 30
0.0
 40
0.153874273403743
 50
219.5641225764622959
 51
238.7059449981344983
  0
ARC
  5
17527
  8
0
 10
3440.4566005059291456
 20
189.7832773639271124
 30
0.0
 40
0.2543973243584047
 50
28.4919472343004401
 51
59.7702598447242366
  0
LINE
  5
17528
  8
0
 10
3439.0277012530427783
 20
191.6337225788105911
 30
0.0
 11
3438.9817198803129941
 21
191.5815515166165142
 31
0.0
  0
ARC
  5
17529
  8
0
 10
3438.9943603228762186
 20
191.5715261941703034
 30
0.0
 40
0.016133439755363
 50
141.5815443613502964
 51
191.6718489035787911
  0
ARC
  5
1752A
  8
0
 10
3439.2821285524310042
 20
191.6475904232329128
 30
0.0
 40
0.3137618884204567
 50
194.6449847237840061
 51
215.8168243407345983
  0
ARC
  5
1752B
  8
0
 10
3439.0368823080748371
 20
191.4731907856300097
 30
0.0
 40
0.013006026184332
 50
225.0988676998757114
 51
309.4067741623741767
  0
LINE
  5
1752C
  8
0
 10
3439.0451388179408241
 20
191.4631415686484104
 30
0.0
 11
3439.0861877438619558
 21
191.4983344521967012
 31
0.0
  0
ARC
  5
1752D
  8
0
 10
3439.2275687039277727
 20
191.6202467870824933
 30
0.0
 40
0.1889496488638915
 50
220.7691323448883054
 51
222.3317454589011106
  0
ARC
  5
1752E
  8
0
 10
3438.3517845259648311
 20
191.2614055527085952
 30
0.0
 40
0.7716757025262505
 50
17.4650467421667415
 51
30.0233268229668795
  0
ARC
  5
1752F
  8
0
 10
3439.0758675253978254
 20
191.6320066684475023
 30
0.0
 40
0.0580590683573426
 50
164.5069908722834953
 51
188.661955273007095
  0
ARC
  5
17530
  8
0
 10
3439.1093746146598278
 20
191.5601922891347897
 30
0.0
 40
0.1178024161198526
 50
190.9019242606401008
 51
217.9162082469858035
  0
ARC
  5
17531
  8
0
 10
3438.8662216789630293
 20
191.4498468296789042
 30
0.0
 40
0.1549381818271169
 50
14.17993843897289
 51
34.6381940686358405
  0
LINE
  5
17532
  8
0
 10
3439.1110369503790025
 20
191.4052793192716138
 30
0.0
 11
3439.0704630835421085
 21
191.3565688848750028
 31
0.0
  0
ARC
  5
17533
  8
0
 10
3439.0795346055429036
 20
191.3490126655511006
 30
0.0
 40
0.0118063102568871
 50
140.2070388314994034
 51
211.5313140361907074
  0
LINE
  5
17534
  8
0
 10
3439.0694714441701763
 20
191.3428383846153054
 30
0.0
 11
3439.1278898501918775
 21
191.2519598073193947
 31
0.0
  0
ARC
  5
17535
  8
0
 10
3439.1376946461068655
 20
191.2585531747577932
 30
0.0
 40
0.0118155201802265
 50
213.9193919731731057
 51
310.197215529107325
  0
LINE
  5
17536
  8
0
 10
3439.1453206258520368
 20
191.2495281567485108
 30
0.0
 11
3439.1892423813510504
 21
191.2866540633033026
 31
0.0
  0
LINE
  5
17537
  8
0
 10
3440.1097606601811094
 20
190.2843776408718952
 30
0.0
 11
3440.0710365233808261
 21
190.2471881533300859
 31
0.0
  0
ARC
  5
17538
  8
0
 10
3440.062481602664775
 20
190.2564567694801099
 30
0.0
 40
0.0126132435884177
 50
232.4114176812149992
 51
312.706970150984489
  0
ARC
  5
17539
  8
0
 10
3440.4392990992610066
 20
190.7260074835859029
 30
0.0
 40
0.6146649498932734
 50
221.3197003040172888
 51
231.2765060365161105
  0
ARC
  5
1753A
  8
0
 10
3439.9880910147271607
 20
190.326648646488195
 30
0.0
 40
0.0122773703744688
 50
140.3203873580879986
 51
211.8558844844777127
  0
LINE
  5
1753B
  8
0
 10
3439.9786420214918508
 20
190.3344876738611049
 30
0.0
 11
3440.0128592150190343
 21
190.3750716674003911
 31
0.0
  0
LINE
  5
1753C
  8
0
 10
3439.9815053075139986
 20
190.3898677742187999
 30
0.0
 11
3439.9467495174280884
 21
190.3484373094242983
 31
0.0
  0
ARC
  5
1753D
  8
0
 10
3439.9543270790809402
 20
190.3420805344404982
 30
0.0
 40
0.0098908052655945
 50
140.0068968870457979
 51
212.3145769865166983
  0
ARC
  5
1753E
  8
0
 10
3440.6984114727101769
 20
191.0527754353205978
 30
0.0
 40
1.038653714222125
 50
223.5776318467360966
 51
228.5868057930742907
  0
ARC
  5
1753F
  8
0
 10
3440.0170430813709572
 20
190.2836154233326056
 30
0.0
 40
0.0113187263051965
 50
239.8498606532843098
 51
300.9444583147334242
  0
ARC
  5
17540
  8
0
 10
3439.8257563669380943
 20
190.4623160862888938
 30
0.0
 40
0.0098908052655945
 50
156.5684742852353111
 51
212.3145769865166983
  0
ARC
  5
17541
  8
0
 10
3437.3725219777747952
 20
187.7950183156160904
 30
0.0
 40
3.6143762290943751
 50
44.839267593911913
 51
47.4346409509328311
  0
ARC
  5
17542
  8
0
 10
3439.9024601919682027
 20
190.3879445303836064
 30
0.0
 40
0.0091933817932089
 50
250.9999023732210048
 51
322.750990904779826
  0
LINE
  5
17543
  8
0
 10
3439.9097782385229038
 20
190.3823799582158927
 30
0.0
 11
3439.9457332271567793
 21
190.4188218891466136
 31
0.0
  0
ARC
  5
17544
  8
0
 10
3439.9420307030832191
 20
190.3512858912002912
 30
0.0
 40
0.0101389543057984
 50
229.3924841213921013
 51
282.1129432845094129
  0
LINE
  5
17545
  8
0
 10
3439.7578769139208816
 20
190.5978323782333064
 30
0.0
 11
3439.7247836955862113
 21
190.5669212047073984
 31
0.0
  0
ARC
  5
17546
  8
0
 10
3439.7167157874359873
 20
190.5755586330375024
 30
0.0
 40
0.0118193193576252
 50
224.6105008827472034
 51
313.0474221864081983
  0
ARC
  5
17547
  8
0
 10
3440.8105947914791614
 20
191.7097081680221038
 30
0.0
 40
1.587527099958266
 50
222.2116405933716976
 51
226.024872523816498
  0
ARC
  5
17548
  8
0
 10
3439.6445725050580222
 20
190.6497862300078907
 30
0.0
 40
0.0118736088043802
 50
141.3606330188420941
 51
214.3030662131423867
  0
LINE
  5
17549
  8
0
 10
3439.6352981285958776
 20
190.6572003063002967
 30
0.0
 11
3439.6660825516341902
 21
190.6926883177443983
 31
0.0
  0
LINE
  5
1754A
  8
0
 10
3439.5467233138620031
 20
190.8242085800663972
 30
0.0
 11
3439.5090466769061095
 21
190.7923615082754054
 31
0.0
  0
ARC
  5
1754B
  8
0
 10
3439.5014221340170479
 20
190.8013817138460126
 30
0.0
 40
0.0118109171023146
 50
222.0975442544618943
 51
310.2069591170317722
  0
LINE
  5
1754C
  8
0
 10
3439.4926583794881481
 20
190.7934637362409944
 30
0.0
 11
3439.4229278992238505
 21
190.8720751514499909
 31
0.0
  0
ARC
  5
1754D
  8
0
 10
3439.4318321813962029
 20
190.8798369729314004
 30
0.0
 40
0.0118123712144507
 50
140.217725500563887
 51
221.0785115779333978
  0
LINE
  5
1754E
  8
0
 10
3439.4227545924518381
 20
190.887395378362811
 30
0.0
 11
3439.4575431637531437
 21
190.9291600629086076
 31
0.0
  0
LINE
  5
1754F
  8
0
 10
3439.4204820135842056
 20
190.9746155577938111
 30
0.0
 11
3439.4046462201499708
 21
190.9598436138333
 31
0.0
  0
ARC
  5
17550
  8
0
 10
3439.3963197626540023
 20
190.9687697281827923
 30
0.0
 40
0.0122067772907845
 50
234.1626180496363929
 51
313.0093413657413066
  0
ARC
  5
17551
  8
0
 10
3440.1925915081751555
 20
191.7246920008911104
 30
0.0
 40
1.109936427209621
 50
212.5825760957316959
 51
223.6273954525406964
  0
ARC
  5
17552
  8
0
 10
3439.2692826298011823
 20
191.1324762825765902
 30
0.0
 40
0.0131477632109376
 50
148.0361845809100885
 51
204.7345329466137116
  0
ARC
  5
17553
  8
0
 10
3438.9223388368118322
 20
190.7301245571732125
 30
0.0
 40
0.5092028249080262
 50
33.3252436800984384
 51
42.2220676697426924
  0
ARC
  5
17554
  8
0
 10
3439.619748415387221
 20
191.2705774579220872
 30
0.0
 40
0.3767162746809698
 50
211.7557715772182121
 51
223.7915397726079902
  0
LINE
  5
17555
  8
0
 10
3439.3430868180980724
 20
191.1192920271410003
 30
0.0
 11
3439.3142960460791073
 21
191.0947105146763931
 31
0.0
  0
ARC
  5
17556
  8
0
 10
3439.3057050284328398
 20
191.1047726306991024
 30
0.0
 40
0.0132307128692375
 50
235.0832595450387998
 51
310.4906437296236277
  0
ARC
  5
17557
  8
0
 10
3439.4718404788332009
 20
191.2847798541505995
 30
0.0
 40
0.2580711925123176
 50
202.7371357962867933
 51
227.6929827137008999
  0
ARC
  5
17558
  8
0
 10
3439.2492672009420858
 20
191.1892725353706055
 30
0.0
 40
0.0160136539966167
 50
143.8749049557910951
 51
195.3468589649571072
  0
LINE
  5
17559
  8
0
 10
3439.2363324642778935
 20
191.1987133881789021
 30
0.0
 11
3439.2691037775171026
 21
191.2436127543165014
 31
0.0
  0
ARC
  5
1755A
  8
0
 10
3439.3479086675488361
 20
191.194517757718387
 30
0.0
 40
0.1015365116665681
 50
200.1103159933136055
 51
229.9449866171273129
  0
ARC
  5
1755B
  8
0
 10
3439.1876044911950885
 20
191.0821562314895914
 30
0.0
 40
0.1010846803074393
 50
20.04207859201939
 51
50.0132240184246584
  0
LINE
  5
1755C
  8
0
 10
3439.6378358275078426
 20
190.7229449200216891
 30
0.0
 11
3439.6100949861461231
 21
190.6992588022843051
 31
0.0
  0
ARC
  5
1755D
  8
0
 10
3439.6022619185177973
 20
190.7084327787391089
 30
0.0
 40
0.0120631170285605
 50
242.5159750617426937
 51
310.4918792514670827
  0
ARC
  5
1755E
  8
0
 10
3439.9185095776201706
 20
191.0677116546443983
 30
0.0
 40
0.4903573905110087
 50
215.7628770287595046
 51
228.9827491912728874
  0
ARC
  5
1755F
  8
0
 10
3439.531323305217029
 20
190.7855084743337954
 30
0.0
 40
0.0115706166095764
 50
138.9755656078972095
 51
202.2296511582864014
  0
LINE
  5
17560
  8
0
 10
3439.5225940880718554
 20
190.7931032051891123
 30
0.0
 11
3439.5481942479341342
 21
190.8225274676989045
 31
0.0
  0
ARC
  5
17561
  8
0
 10
3439.7352891469831775
 20
190.9000809512565979
 30
0.0
 40
0.2408248453869596
 50
216.3984719730206905
 51
228.610309137950594
  0
ARC
  5
17562
  8
0
 10
3439.3699605508190871
 20
190.5652674648509901
 30
0.0
 40
0.2573645268097132
 50
36.7922230118153877
 51
48.2165580991711806
  0
LINE
  5
17563
  8
0
 10
3439.5307105554811642
 20
190.919855860997302
 30
0.0
 11
3439.5120353214538227
 21
190.8967878002291911
 31
0.0
  0
ARC
  5
17564
  8
0
 10
3439.5258461443581837
 20
190.8867857898551108
 30
0.0
 40
0.0170522444505037
 50
144.0873659553076891
 51
200.7522665859407027
  0
ARC
  5
17565
  8
0
 10
3439.9840586126670132
 20
191.1513643082593035
 30
0.0
 40
0.5459502590473108
 50
209.7150815020110031
 51
231.6781409417311863
  0
ARC
  5
17566
  8
0
 10
3439.6547445113851609
 20
190.7375477328172053
 30
0.0
 40
0.0171846046999348
 50
237.5609609926621033
 51
306.3589542183627259
  0
LINE
  5
17567
  8
0
 10
3439.6649322688890607
 20
190.7237086491869036
 30
0.0
 11
3439.6836185910610766
 21
190.7411189345914977
 31
0.0
  0
ARC
  5
17568
  8
0
 10
3439.7003145821881844
 20
190.9053283220517869
 30
0.0
 40
0.1635312886086062
 50
206.8296630962776135
 51
234.8566060367728028
  0
ARC
  5
17569
  8
0
 10
3439.4615497428208073
 20
190.6989181570328071
 30
0.0
 40
0.1618705170898746
 50
26.682902334746089
 51
55.0033667982905428
  0
LINE
  5
1756A
  8
0
 10
3439.8182712274201549
 20
190.5748295072702092
 30
0.0
 11
3439.7904625262540321
 21
190.5401664829884965
 31
0.0
  0
ARC
  5
1756B
  8
0
 10
3439.8004936854072184
 20
190.5321189016536039
 30
0.0
 40
0.0128603156761522
 50
141.2613793813256962
 51
213.4428061131083041
  0
ARC
  5
1756C
  8
0
 10
3440.0974888031041701
 20
190.7548570596138973
 30
0.0
 40
0.3840770887138846
 50
216.754238074818204
 51
232.9500516094338138
  0
ARC
  5
1756D
  8
0
 10
3439.8727439997019246
 20
190.4596349368734138
 30
0.0
 40
0.013131538243017
 50
239.4943580972966117
 51
309.8504392200819098
  0
LINE
  5
1756E
  8
0
 10
3439.8811585028720401
 20
190.4495535960379016
 30
0.0
 11
3439.9231504841009155
 21
190.4864374104766114
 31
0.0
  0
LINE
  5
1756F
  8
0
 10
3439.7889824360190687
 20
190.5668386007887989
 30
0.0
 11
3439.763466394399984
 21
190.5371166203956932
 31
0.0
  0
ARC
  5
17570
  8
0
 10
3439.772602836113947
 20
190.5292730708090971
 30
0.0
 40
0.0120414217314604
 50
139.3542190129068103
 51
212.9463474330675012
  0
ARC
  5
17571
  8
0
 10
3440.3320664468278665
 20
191.0149492995313096
 30
0.0
 40
0.7527906498745924
 50
220.8337990111660929
 51
228.9282802402096877
  0
ARC
  5
17572
  8
0
 10
3439.8455057886831128
 20
190.4568104066418925
 30
0.0
 40
0.0123451636597724
 50
229.4531090197824028
 51
312.6270126784241938
  0
ARC
  5
17573
  8
0
 10
3440.0329180289968463
 20
190.7171078771781936
 30
0.0
 40
0.3297306858170225
 50
220.6667769364455012
 51
229.5435576562724975
  0
ARC
  5
17574
  8
0
 10
3439.5671029824320613
 20
190.2495796625861999
 30
0.0
 40
0.3322140046583595
 50
40.7000199360684078
 51
49.5103146566402188
  0
ARC
  5
17575
  8
0
 10
3439.722744811677785
 20
190.3818547909156962
 30
0.0
 40
0.1511719205649012
 50
35.1282708451615093
 51
54.6155798972469313
  0
ARC
  5
17576
  8
0
 10
3439.9358633533352076
 20
190.5940226780446096
 30
0.0
 40
0.153874273403743
 50
215.3010141603625129
 51
234.4428365820355964
  0
LINE
  5
17577
  8
0
 10
3439.8538662166488393
 20
190.4477271082311916
 30
0.0
 11
3439.8588032219181514
 21
190.4539510885713867
 31
0.0
  0
LINE
  5
17578
  8
0
 10
3440.1279064629338791
 20
190.3506401072307028
 30
0.0
 11
3440.1055599241158234
 21
190.3297963370632999
 31
0.0
  0
ARC
  5
17579
  8
0
 10
3440.0941643122419009
 20
190.3431510362534027
 30
0.0
 40
0.0175558525982109
 50
248.4631341993909075
 51
310.4742432014764972
  0
ARC
  5
1757A
  8
0
 10
3440.3147523865859512
 20
190.7106112762280077
 30
0.0
 40
0.445913614637895
 50
212.7598739053991039
 51
239.3933827134709134
  0
ARC
  5
1757B
  8
0
 10
3439.9590780077128329
 20
190.4788325090898127
 30
0.0
 40
0.0215307316150729
 50
148.4669941282224954
 51
206.2231270830650089
  0
LINE
  5
1757C
  8
0
 10
3439.9407265247750729
 20
190.4900928588997999
 30
0.0
 11
3439.9601206473807906
 21
190.5140483100200868
 31
0.0
  0
ARC
  5
1757D
  8
0
 10
3439.932617640378794
 20
190.3148620288918096
 30
0.0
 40
0.1261400240869346
 50
28.2558530511411696
 51
64.3679528358429138
  0
ARC
  5
1757E
  8
0
 10
3440.0926596495301055
 20
190.4824060959822134
 30
0.0
 40
0.1184115916648852
 50
207.0324013596109864
 51
245.5914045273750901
  0
ARC
  5
1757F
  8
0
 10
3443.1844232088319586
 20
194.005626985083893
 30
0.0
 40
4.8326269868105296
 50
227.136047601183094
 51
228.4655041604488872
  0
ARC
  5
17580
  8
0
 10
3443.1844232088319586
 20
194.005626985083893
 30
0.0
 40
4.8326269868105296
 50
222.2508051472592001
 51
225.5760634938199019
  0
ARC
  5
17581
  8
0
 10
3443.1844232088319586
 20
194.005626985083893
 30
0.0
 40
4.8326269868105296
 50
216.9412982568277073
 51
221.2058945405198926
  0
ARC
  5
17582
  8
0
 10
3443.1844232088319586
 20
194.005626985083893
 30
0.0
 40
4.8326269868105296
 50
211.5121527535825976
 51
215.3653190566369915
  0
ARC
  5
17583
  8
0
 10
3440.0623909351120346
 20
190.4777681026970129
 30
0.0
 40
0.121098430056592
 50
219.6841173228260118
 51
227.4155543139098086
  0
ARC
  5
17584
  8
0
 10
3439.5151589340948703
 20
189.8593756460572024
 30
0.0
 40
0.7063291286945077
 50
45.9608021982738109
 51
49.9981075579158514
  0
ARC
  5
17585
  8
0
 10
3440.1147277771210611
 20
190.2893960943239904
 30
0.0
 40
0.0118482108618209
 50
224.7075469905038005
 51
275.9881624767270978
  0
ARC
  5
17586
  8
0
 10
3439.4276883234351772
 20
189.6527357448507018
 30
0.0
 40
0.9296204372557461
 50
42.2359185660531082
 51
51.980747792149792
  0
ARC
  5
17587
  8
0
 10
3440.0276457860941264
 20
190.395425527489607
 30
0.0
 40
0.0292641588665192
 50
200.6729824467811909
 51
233.3789433608230013
  0
ARC
  5
17588
  8
0
 10
3439.7371309436989577
 20
190.1172403866397076
 30
0.0
 40
0.4551713259922263
 50
30.848737661703499
 51
60.6658073891882168
  0
ARC
  5
17589
  8
0
 10
3439.7128350322450387
 20
190.3433101616687111
 30
0.0
 40
0.2543973243584047
 50
34.2366993137915401
 51
65.5150119242066751
  0
ARC
  5
1758A
  8
0
 10
3439.2811952267761626
 20
190.5516231841438071
 30
0.0
 40
0.4448069284097426
 50
25.2151154395499013
 51
55.878340669022613
  0
ARC
  5
1758B
  8
0
 10
3439.0582991104552093
 20
191.0339893264325042
 30
0.0
 40
0.2972887303159375
 50
16.6745795778626089
 51
44.8390216015334673
  0
LINE
  5
1758C
  8
0
 10
3439.4084893909380298
 20
191.2722646248664091
 30
0.0
 11
3439.3625080182077909
 21
191.2200935626723037
 31
0.0
  0
ARC
  5
1758D
  8
0
 10
3439.3751484607710154
 20
191.2100682402260929
 30
0.0
 40
0.016133439755363
 50
141.5815443613502964
 51
191.6718489035787911
  0
ARC
  5
1758E
  8
0
 10
3439.662916690325801
 20
191.2861324692887024
 30
0.0
 40
0.3137618884204567
 50
194.6449847237840061
 51
215.8168243407345983
  0
ARC
  5
1758F
  8
0
 10
3439.4176704459700886
 20
191.1117328316857993
 30
0.0
 40
0.013006026184332
 50
225.0988676998757114
 51
309.4067741623741767
  0
LINE
  5
17590
  8
0
 10
3439.4259269558360756
 20
191.1016836147040863
 30
0.0
 11
3439.4669758817572074
 21
191.1368764982524908
 31
0.0
  0
ARC
  5
17591
  8
0
 10
3439.6083568418230243
 20
191.2587888331383965
 30
0.0
 40
0.1889496488638915
 50
220.7691323448883054
 51
222.3317454589011106
  0
ARC
  5
17592
  8
0
 10
3438.7325726638600827
 20
190.8999475987644132
 30
0.0
 40
0.7716757025262505
 50
17.4650467421667415
 51
30.0233268229668795
  0
ARC
  5
17593
  8
0
 10
3439.4566556632921674
 20
191.2705487145032066
 30
0.0
 40
0.0580590683573426
 50
164.5069908722834953
 51
188.661955273007095
  0
ARC
  5
17594
  8
0
 10
3439.4901627525559888
 20
191.1987343351906929
 30
0.0
 40
0.1178024161198526
 50
190.9019242606401008
 51
217.9162082469858035
  0
ARC
  5
17595
  8
0
 10
3439.2470098168569166
 20
191.0883888757348075
 30
0.0
 40
0.1549381818271169
 50
14.17993843897289
 51
34.6381940686358405
  0
LINE
  5
17596
  8
0
 10
3440.0269607621121395
 20
190.6315831630826096
 30
0.0
 11
3439.9991520609460167
 21
190.5969201388010106
 31
0.0
  0
ARC
  5
17597
  8
0
 10
3440.0091832200978388
 20
190.5888725574660043
 30
0.0
 40
0.0128603156761522
 50
141.2613793813256962
 51
213.4428061131083041
  0
ARC
  5
17598
  8
0
 10
3440.3061783377961547
 20
190.8116107154262977
 30
0.0
 40
0.3840770887138846
 50
216.754238074818204
 51
232.9500516094338138
  0
ARC
  5
17599
  8
0
 10
3440.0814335343939092
 20
190.5163885926857859
 30
0.0
 40
0.013131538243017
 50
239.4943580972966117
 51
309.8504392200819098
  0
LINE
  5
1759A
  8
0
 10
3440.0898480375631152
 20
190.5063072518503873
 30
0.0
 11
3440.1318400187929001
 21
190.5431910662890118
 31
0.0
  0
ARC
  5
1759B
  8
0
 10
3439.9314343463702244
 20
190.4386084467280966
 30
0.0
 40
0.1511719205649012
 50
35.1282708451615093
 51
54.6155798972469313
  0
ARC
  5
1759C
  8
0
 10
3440.1445528880271922
 20
190.6507763338570953
 30
0.0
 40
0.153874273403743
 50
215.3010141603625129
 51
234.4428365820355964
  0
ARC
  5
1759D
  8
0
 10
3439.9215245669370233
 20
190.4000638174811115
 30
0.0
 40
0.2543973243584047
 50
34.2366993137915401
 51
65.5150119242066751
  0
LINE
  5
1759E
  8
0
 10
3439.7097930347708825
 20
190.8094300271204133
 30
0.0
 11
3439.6819843336052145
 21
190.7747670028387859
 31
0.0
  0
ARC
  5
1759F
  8
0
 10
3439.692015492757946
 20
190.766719421503808
 30
0.0
 40
0.0128603156761522
 50
141.2613793813256962
 51
213.4428061131083041
  0
ARC
  5
175A0
  8
0
 10
3439.9890106104539882
 20
190.9894575794641014
 30
0.0
 40
0.3840770887138846
 50
216.754238074818204
 51
232.9500516094338138
  0
ARC
  5
175A1
  8
0
 10
3439.764265807053107
 20
190.6942354567235896
 30
0.0
 40
0.013131538243017
 50
239.4943580972966117
 51
309.8504392200819098
  0
LINE
  5
175A2
  8
0
 10
3439.7726803102218582
 20
190.684154115888191
 30
0.0
 11
3439.8146722914511884
 21
190.7210379303269008
 31
0.0
  0
ARC
  5
175A3
  8
0
 10
3439.6142666190280579
 20
190.6164553107659003
 30
0.0
 40
0.1511719205649012
 50
35.1282708451615093
 51
54.6155798972469313
  0
ARC
  5
175A4
  8
0
 10
3439.8273851606850258
 20
190.828623197894899
 30
0.0
 40
0.153874273403743
 50
215.3010141603625129
 51
234.4428365820355964
  0
ARC
  5
175A5
  8
0
 10
3439.6043568395948569
 20
190.5779106815188868
 30
0.0
 40
0.2543973243584047
 50
34.2366993137915401
 51
65.5150119242066751
  0
ARC
  5
175A6
  8
0
 10
3439.6004090065739547
 20
191.9442078779161989
 30
0.0
 40
0.6895398753683417
 50
158.3466721335794887
 51
209.6203292940164999
  0
ARC
  5
175A7
  8
0
 10
3440.158781307487061
 20
190.3222033557198927
 30
0.0
 40
0.0716038502174894
 50
218.4943714663965864
 51
239.9159403024144979
  0
ARC
  5
175A8
  8
0
 10
3445.6741372336400673
 20
184.5531906903640049
 30
0.0
 40
0.0197069535221284
 50
292.0636459470297268
 51
20.0030209211022587
  0
LINE
  5
175A9
  8
0
 10
3444.6838260729059584
 20
184.1710257972775935
 30
0.0
 11
3445.6815398808821556
 21
184.5349269330581876
 31
0.0
  0
ARC
  5
175AA
  8
0
 10
3510.5085073127311261
 20
167.756069004897796
 30
0.0
 40
66.7958856622059329
 50
184.9422513848456049
 51
188.4742732646406864
  0
ARC
  5
175AB
  8
0
 10
3576.6446726143440173
 20
177.3620440328762982
 30
0.0
 40
133.6257973257565084
 50
188.3691890325889915
 51
189.7928776281879948
  0
LINE
  5
175AC
  8
0
 10
3449.0442428955411742
 20
162.3207740811600104
 30
0.0
 11
3449.0442428955411742
 21
159.9388979026599884
 31
0.0
  0
LINE
  5
175AD
  8
0
 10
3448.4143216357410893
 20
162.2517522543600137
 30
0.0
 11
3448.4143216357410893
 21
160.0079197294600135
 31
0.0
  0
ARC
  5
175AE
  8
0
 10
3448.355266517641212
 20
161.9465525037599889
 30
0.0
 40
0.0590551181000052
 50
270.9999999774345838
 51
359.9999999999869829
  0
LINE
  5
175AF
  8
0
 10
3447.8040854152409338
 20
161.8778674881974098
 30
0.0
 11
3447.8040854152409338
 21
160.3818044956225037
 31
0.0
  0
LINE
  5
175B0
  8
0
 10
3448.3562971715409731
 20
161.8875063800400937
 30
0.0
 11
3447.8040854080018107
 21
161.8778674880711037
 31
0.0
  0
ARC
  5
175B1
  8
0
 10
3448.4733767538409666
 20
162.2517522543600137
 30
0.0
 40
0.0590551181000336
 50
91.0000000002362981
 51
179.999999999985306
  0
LINE
  5
175B2
  8
0
 10
3448.4723460999171039
 20
162.3107983780795109
 30
0.0
 11
3449.0442428955411742
 21
162.3207740811600104
 31
0.0
  0
LINE
  5
175B3
  8
0
 10
3447.4103846278408128
 20
161.7203871730100104
 30
0.0
 11
3447.4103846278408128
 21
160.5392848108099884
 31
0.0
  0
LINE
  5
175B4
  8
0
 10
3447.8040854152409338
 20
161.7203871730100104
 30
0.0
 11
3447.4103846278408128
 21
161.7203871730100104
 31
0.0
  0
LINE
  5
175B5
  8
0
 10
3447.3710145491409094
 20
161.8188123698600123
 30
0.0
 11
3447.3710145491409094
 21
160.4408596139599865
 31
0.0
  0
LINE
  5
175B6
  8
0
 10
3446.4317648374690179
 20
161.8188123698600123
 30
0.0
 11
3447.3710145491409094
 21
161.8188123698600123
 31
0.0
  0
LINE
  5
175B7
  8
0
 10
3447.3710145491409094
 20
161.5530643383600022
 30
0.0
 11
3447.4103846278408128
 21
161.5530643383600022
 31
0.0
  0
ARC
  5
175B8
  8
0
 10
3448.355266517641212
 20
160.3131194800600099
 30
0.0
 40
0.0590551181000052
 50
0.0000000000113991
 51
89.0000000225653736
  0
LINE
  5
175B9
  8
0
 10
3448.3562971715409731
 20
160.3721656037797914
 30
0.0
 11
3447.8040854080018107
 21
160.3818044957488951
 31
0.0
  0
ARC
  5
175BA
  8
0
 10
3448.4733767538409666
 20
160.0079197294600135
 30
0.0
 40
0.0590551181000336
 50
180.0000000000129887
 51
268.9999999997637019
  0
LINE
  5
175BB
  8
0
 10
3448.4723460999171039
 20
159.9488736057404878
 30
0.0
 11
3449.0442428955411742
 21
159.9388979026599884
 31
0.0
  0
LINE
  5
175BC
  8
0
 10
3446.4242216916031794
 20
160.4408596139981
 30
0.0
 11
3447.3710145491409094
 21
160.4408596139599865
 31
0.0
  0
LINE
  5
175BD
  8
0
 10
3447.3710145491409094
 20
160.7066076454599965
 30
0.0
 11
3447.4103846278408128
 21
160.7066076454599965
 31
0.0
  0
LINE
  5
175BE
  8
0
 10
3447.8040854152409338
 20
160.5392848108099884
 30
0.0
 11
3447.4103846278408128
 21
160.5392848108099884
 31
0.0
  0
ARC
  5
175BF
  8
0
 10
2646.8629187795031612
 20
13.9987489439968407
 30
0.0
 40
810.3990991030259465
 50
9.6872863088557395
 51
9.9936075415939207
  0
ARC
  5
175C0
  8
0
 10
3434.7617894285458533
 20
148.3162422595142118
 30
0.0
 40
11.13474187078873
 50
1.6242094352876979
 51
10.6033538545279207
  0
ARC
  5
175C1
  8
0
 10
3445.5922376703651935
 20
148.6090456704687028
 30
0.0
 40
0.3006856545309365
 50
175.6513186824840886
 51
4.3486813175093353
  0
ARC
  5
175C2
  8
0
 10
3002.4241002368130466
 20
76.9291655218719796
 30
0.0
 40
448.7324141148874901
 50
9.4189368047738995
 51
10.02281457209107
  0
ARC
  5
175C3
  8
0
 10
3444.6777318020499479
 20
184.1897667652318944
 30
0.0
 40
0.0197069535221284
 50
200.0743433091201098
 51
288.0137182832107214
  0
LINE
  5
175C4
  8
0
 10
3444.9405677689260301
 20
183.7530609932177015
 30
0.0
 11
3444.7573671105901667
 21
184.1978487869224921
 31
0.0
  0
LINE
  5
175C5
  8
0
 10
3445.6080327221811785
 20
184.5081163002641915
 30
0.0
 11
3445.7386353184078871
 21
184.0967549204455906
 31
0.0
  0
ARC
  5
175C6
  8
0
 10
3445.5619594309409877
 20
161.1298371836099932
 30
0.0
 40
0.9842507768781718
 50
9.1054572824093132
 51
350.8977913162012783
  0
LINE
  5
175C7
  8
0
 10
3445.0895188450408568
 20
159.9220629628100028
 30
0.0
 11
3446.0344000168411185
 21
159.9220629628100028
 31
0.0
  0
LINE
  5
175C8
  8
0
 10
3445.0895188450408568
 20
160.2663851093292067
 30
0.0
 11
3445.0895188450408568
 21
159.9220629628100028
 31
0.0
  0
LINE
  5
175C9
  8
0
 10
3445.1840589934017771
 20
158.5047401282099884
 30
0.0
 11
3445.9398598684801982
 21
158.5047401282099884
 31
0.0
  0
ARC
  5
175CA
  8
0
 10
3445.1877292473300258
 20
158.5246906807269909
 30
0.0
 40
0.0202853471654985
 50
183.0660700888682015
 51
259.5759907922767979
  0
LINE
  5
175CB
  8
0
 10
3445.1674729382311853
 20
158.5236056685969004
 30
0.0
 11
3445.1095456267389636
 21
159.9138611475100049
 31
0.0
  0
ARC
  5
175CC
  8
0
 10
3445.1176667024269591
 20
159.9140503623092116
 30
0.0
 40
0.0081232796689529
 50
99.4688930229403212
 51
181.334705984776889
  0
LINE
  5
175CD
  8
0
 10
3446.0344000168411185
 20
160.2663851093292067
 30
0.0
 11
3446.0344000168411185
 21
159.9220629628100028
 31
0.0
  0
ARC
  5
175CE
  8
0
 10
3445.9361896145519495
 20
158.5246906807269909
 30
0.0
 40
0.0202853471654985
 50
280.4240092077232021
 51
356.9339299111318269
  0
LINE
  5
175CF
  8
0
 10
3445.9564459236507901
 20
158.5236056685969004
 30
0.0
 11
3446.0143732351439212
 21
159.9138611475100049
 31
0.0
  0
ARC
  5
175D0
  8
0
 10
3446.0062521594550162
 20
159.9140503623092116
 30
0.0
 40
0.0081232796689529
 50
358.665294015221491
 51
80.5311069770596646
  0
LINE
  5
175D1
  8
0
 10
3445.8532980005411446
 20
149.2965045338306993
 30
0.0
 11
3445.8532980005411446
 21
158.5047401282099884
 31
0.0
  0
LINE
  5
175D2
  8
0
 10
3445.2707219085500583
 20
152.8932403021672997
 30
0.0
 11
3445.2707219085500583
 21
158.5047401282099884
 31
0.0
  0
LINE
  5
175D3
  8
0
 10
3428.3190043558338402
 20
204.0656942592825089
 30
0.0
 11
3428.5012295353781155
 21
204.0656942592825089
 31
0.0
  0
LINE
  5
175D4
  8
0
 10
3428.6503685943998789
 20
204.0656942592825089
 30
0.0
 11
3428.7429330765498889
 21
204.0656942592825089
 31
0.0
  0
LINE
  5
175D5
  8
0
 10
3429.0370238879249882
 20
204.0656942592825089
 30
0.0
 11
3429.1552857909750855
 21
204.0656942592823953
 31
0.0
  0
LINE
  5
175D6
  8
0
 10
3429.1704528117998052
 20
204.1247493773824999
 30
0.0
 11
3429.1631089087181863
 21
204.072494791784095
 31
0.0
  0
LINE
  5
175D7
  8
0
 10
3429.1535237922998931
 20
204.1247493773824999
 30
0.0
 11
3429.1461798893201376
 21
204.072494791798789
 31
0.0
  0
LINE
  5
175D8
  8
0
 10
3429.1475371828000789
 20
204.1247493773824999
 30
0.0
 11
3429.1401932797180052
 21
204.072494791784095
 31
0.0
  0
LINE
  5
175D9
  8
0
 10
3429.1447553909001726
 20
204.1247493773824999
 30
0.0
 11
3429.1374114878171895
 21
204.072494791784095
 31
0.0
  0
LINE
  5
175DA
  8
0
 10
3429.0218568670998138
 20
204.1247493773824999
 30
0.0
 11
3429.029200770182797
 21
204.072494791784095
 31
0.0
  0
LINE
  5
175DB
  8
0
 10
3428.7507561942920802
 20
204.072494791784095
 30
0.0
 11
3428.7573717195359677
 21
204.1195666997629985
 31
0.0
  0
LINE
  5
175DC
  8
0
 10
3428.5090526531212163
 20
204.072494791784095
 30
0.0
 11
3428.5163965562028352
 21
204.1247493773824999
 31
0.0
  0
LINE
  5
175DD
  8
0
 10
3428.419391955725132
 20
204.072494791784095
 30
0.0
 11
3428.4267358588081152
 21
204.1247493773824999
 31
0.0
  0
LINE
  5
175DE
  8
0
 10
3428.31118123808983
 20
204.072494791784095
 30
0.0
 11
3428.3038373350082111
 21
204.1247493773824999
 31
0.0
  0
ARC
  5
175DF
  8
0
 10
3428.7429330765498889
 20
204.0735942592824017
 30
0.0
 40
0.0079
 50
269.9999999999478746
 51
351.9999999942613726
  0
ARC
  5
175E0
  8
0
 10
3428.6503685943998789
 20
204.0735942592824017
 30
0.0
 40
0.0079
 50
239.7449195376549937
 51
269.9999999999739089
  0
ARC
  5
175E1
  8
0
 10
3428.5012295353781155
 20
204.0735942592824017
 30
0.0
 40
0.0079
 50
269.9999999999739089
 51
351.999999994266318
  0
ARC
  5
175E2
  8
0
 10
3428.4115688379829407
 20
204.0735942592824017
 30
0.0
 40
0.0079
 50
270.0
 51
351.999999994243808
  0
ARC
  5
175E3
  8
0
 10
3428.3190043558338402
 20
204.0735942592824017
 30
0.0
 40
0.0079
 50
188.0000000057839884
 51
270.0
  0
ARC
  5
175E4
  8
0
 10
3429.1295883700749982
 20
204.073594259282487
 30
0.0
 40
0.0079
 50
269.9999999999739089
 51
351.9999999941869078
  0
ARC
  5
175E5
  8
0
 10
3429.1323701619749045
 20
204.0735942592824017
 30
0.0
 40
0.0079
 50
270.0
 51
351.999999994243808
  0
ARC
  5
175E6
  8
0
 10
3429.1383567715752179
 20
204.073594259282487
 30
0.0
 40
0.0079
 50
270.0000000000782165
 51
352.0000001016401825
  0
ARC
  5
175E7
  8
0
 10
3429.1552857909750855
 20
204.0735942592824017
 30
0.0
 40
0.0079
 50
269.9999999999739089
 51
351.9999999942405111
  0
ARC
  5
175E8
  8
0
 10
3429.0370238879249882
 20
204.0735942592824017
 30
0.0
 40
0.0079
 50
188.000000005756192
 51
270.0
  0
LINE
  5
175E9
  8
0
 10
3429.7676965917580674
 20
204.072494791784095
 30
0.0
 11
3429.7603526886750842
 21
204.1247493773824999
 31
0.0
  0
LINE
  5
175EA
  8
0
 10
3429.8759073093929146
 20
204.072494791784095
 30
0.0
 11
3429.8832512124749883
 21
204.1247493773824999
 31
0.0
  0
LINE
  5
175EB
  8
0
 10
3429.8680841916498139
 20
204.0656942592825089
 30
0.0
 11
3429.7755197094998039
 21
204.0656942592825089
 31
0.0
  0
ARC
  5
175EC
  8
0
 10
3429.8680841916498139
 20
204.0735942592824017
 30
0.0
 40
0.0079
 50
269.999999999895806
 51
351.9999999942551199
  0
ARC
  5
175ED
  8
0
 10
3429.7755197094998039
 20
204.0735942592824017
 30
0.0
 40
0.0079
 50
188.0000000057594889
 51
270.0000000000259774
  0
LINE
  5
175EE
  8
0
 10
3428.771810362522956
 20
204.0656942592825089
 30
0.0
 11
3428.8936236123950039
 21
204.0656942592825089
 31
0.0
  0
LINE
  5
175EF
  8
0
 10
3428.8721979624151572
 20
204.072494791784095
 30
0.0
 11
3428.8795418654967762
 21
204.1247493773824999
 31
0.0
  0
LINE
  5
175F0
  8
0
 10
3428.7639872447789458
 20
204.072494791784095
 30
0.0
 11
3428.7566433416968721
 21
204.1247493773824999
 31
0.0
  0
ARC
  5
175F1
  8
0
 10
3428.8643748446720565
 20
204.0735942592824017
 30
0.0
 40
0.0079
 50
269.9999999999478746
 51
351.9999999942613726
  0
ARC
  5
175F2
  8
0
 10
3428.771810362522956
 20
204.0735942592824017
 30
0.0
 40
0.0079
 50
188.0000000057530087
 51
269.9999999999739089
  0
LINE
  5
175F3
  8
0
 10
3428.9014467301371951
 20
204.072494791784095
 30
0.0
 11
3428.9087906332201783
 21
204.1247493773824999
 31
0.0
  0
ARC
  5
175F4
  8
0
 10
3428.8936236123950039
 20
204.0735942592824017
 30
0.0
 40
0.0079
 50
269.9999999999478746
 51
351.9999999942613726
  0
LINE
  5
175F5
  8
0
 10
3428.5498432732129004
 20
204.0656942592825089
 30
0.0
 11
3428.6424077553620009
 21
204.0656942592825089
 31
0.0
  0
LINE
  5
175F6
  8
0
 10
3428.6502308731051016
 20
204.072494791784095
 30
0.0
 11
3428.6575747761871753
 21
204.1247493773824999
 31
0.0
  0
LINE
  5
175F7
  8
0
 10
3428.5420201554697996
 20
204.072494791784095
 30
0.0
 11
3428.5346762523868165
 21
204.1247493773824999
 31
0.0
  0
ARC
  5
175F8
  8
0
 10
3428.6424077553620009
 20
204.0735942592824017
 30
0.0
 40
0.0079
 50
269.9999999999478746
 51
351.9999999942613726
  0
ARC
  5
175F9
  8
0
 10
3428.5498432732129004
 20
204.0735942592824017
 30
0.0
 40
0.0079
 50
188.0000000057530087
 51
269.9999999999739089
  0
LINE
  5
175FA
  8
0
 10
3428.0446165721082252
 20
204.072494791784095
 30
0.0
 11
3428.0519604751912084
 21
204.1247493773824999
 31
0.0
  0
LINE
  5
175FB
  8
0
 10
3427.9303325147729993
 20
204.072494791784095
 30
0.0
 11
3427.9229886116909256
 21
204.1247493773824999
 31
0.0
  0
LINE
  5
175FC
  8
0
 10
3428.0385432324078465
 20
204.072494791784095
 30
0.0
 11
3428.0458871354908297
 21
204.1247493773824999
 31
0.0
  0
LINE
  5
175FD
  8
0
 10
3427.1362277883408751
 20
204.072494791784095
 30
0.0
 11
3427.1435716914238583
 21
204.1247493773824999
 31
0.0
  0
LINE
  5
175FE
  8
0
 10
3426.621542493823199
 20
204.072494791784095
 30
0.0
 11
3426.6288863969061822
 21
204.1247493773824999
 31
0.0
  0
LINE
  5
175FF
  8
0
 10
3426.5037158205232117
 20
204.072494791784095
 30
0.0
 11
3426.5110597236061949
 21
204.1247493773824999
 31
0.0
  0
LINE
  5
17600
  8
0
 10
3425.876831608898101
 20
204.072494791784095
 30
0.0
 11
3425.8841755119810841
 21
204.1247493773824999
 31
0.0
  0
LINE
  5
17601
  8
0
 10
3425.6804079761282082
 20
204.072494791784095
 30
0.0
 11
3425.6877518792098272
 21
204.1247493773824999
 31
0.0
  0
LINE
  5
17602
  8
0
 10
3425.5715249937238696
 20
204.072494791784095
 30
0.0
 11
3425.5641810906408864
 21
204.1247493773824999
 31
0.0
  0
LINE
  5
17603
  8
0
 10
3425.5005477126242113
 20
204.072494791784095
 30
0.0
 11
3425.4932038095407734
 21
204.1247493773824999
 31
0.0
  0
LINE
  5
17604
  8
0
 10
3425.768620891262799
 20
204.072494791784095
 30
0.0
 11
3425.7612769881798158
 21
204.1247493773824999
 31
0.0
  0
LINE
  5
17605
  8
0
 10
3426.3955051028879097
 20
204.072494791784095
 30
0.0
 11
3426.3881611998049266
 21
204.1247493773824999
 31
0.0
  0
LINE
  5
17606
  8
0
 10
3426.9503998600371233
 20
204.072494791784095
 30
0.0
 11
3426.9430559569541401
 21
204.1247493773824999
 31
0.0
  0
LINE
  5
17607
  8
0
 10
3427.0273448059360817
 20
204.072494791784095
 30
0.0
 11
3427.020000902854008
 21
204.1247493773824999
 31
0.0
  0
LINE
  5
17608
  8
0
 10
3427.8188776942729419
 20
204.072494791784095
 30
0.0
 11
3427.8115337911908682
 21
204.1247493773824999
 31
0.0
  0
LINE
  5
17609
  8
0
 10
3427.9381556325161
 20
204.0656942592825089
 30
0.0
 11
3428.036793454366034
 21
204.0656942592825089
 31
0.0
  0
LINE
  5
1760A
  8
0
 10
3427.9192652941651431
 20
204.0656942592825089
 30
0.0
 11
3427.8267008120160426
 21
204.0656942592825089
 31
0.0
  0
LINE
  5
1760B
  8
0
 10
3427.1284046705991386
 20
204.0656942592825089
 30
0.0
 11
3426.958222977780224
 21
204.0656942592825089
 31
0.0
  0
LINE
  5
1760C
  8
0
 10
3426.6137193760810078
 20
204.0656942592825089
 30
0.0
 11
3426.5211548939319073
 21
204.0656942592825089
 31
0.0
  0
LINE
  5
1760D
  8
0
 10
3426.495892702780111
 20
204.0656942592825089
 30
0.0
 11
3426.40332822063192
 21
204.0656942592825089
 31
0.0
  0
LINE
  5
1760E
  8
0
 10
3425.8690084911550002
 20
204.0656942592825089
 30
0.0
 11
3425.7764440090058997
 21
204.0656942592825089
 31
0.0
  0
LINE
  5
1760F
  8
0
 10
3425.672584858386017
 20
204.0656942592825089
 30
0.0
 11
3425.5083708303668573
 21
204.0656942592825089
 31
0.0
  0
ARC
  5
17610
  8
0
 10
3425.672584858386017
 20
204.0735942592824017
 30
0.0
 40
0.0079
 50
269.9999999999739089
 51
351.9999999942111231
  0
ARC
  5
17611
  8
0
 10
3425.5793481114678798
 20
204.0735942592824017
 30
0.0
 40
0.0079
 50
188.0000000057337104
 51
270.0000000000259774
  0
ARC
  5
17612
  8
0
 10
3425.5083708303668573
 20
204.0735942592824017
 30
0.0
 40
0.0079
 50
188.000000005735302
 51
270.0000000000259774
  0
ARC
  5
17613
  8
0
 10
3425.7764440090058997
 20
204.0735942592824017
 30
0.0
 40
0.0079
 50
188.0000000057337104
 51
270.0000000000259774
  0
ARC
  5
17614
  8
0
 10
3425.8690084911550002
 20
204.0735942592824017
 30
0.0
 40
0.0079
 50
269.9999999999739089
 51
351.9999999942143063
  0
ARC
  5
17615
  8
0
 10
3426.40332822063192
 20
204.0735942592824017
 30
0.0
 40
0.0079
 50
188.0000000057337104
 51
270.0000000000259774
  0
ARC
  5
17616
  8
0
 10
3426.495892702780111
 20
204.0735942592824017
 30
0.0
 40
0.0079
 50
269.9999999999739089
 51
351.9999999942127147
  0
ARC
  5
17617
  8
0
 10
3426.6137193760810078
 20
204.0735942592824017
 30
0.0
 40
0.0079
 50
269.9999999999739089
 51
351.9999999942421027
  0
ARC
  5
17618
  8
0
 10
3427.0351679236800919
 20
204.0735942592824017
 30
0.0
 40
0.0079
 50
188.0000000057337104
 51
270.0000000000259774
  0
ARC
  5
17619
  8
0
 10
3426.958222977780224
 20
204.0735942592824017
 30
0.0
 40
0.0079
 50
188.0000000057094951
 51
270.0000000000259774
  0
ARC
  5
1761A
  8
0
 10
3427.1284046705991386
 20
204.0735942592824017
 30
0.0
 40
0.0079
 50
269.9999999999739089
 51
351.9999999942127147
  0
ARC
  5
1761B
  8
0
 10
3427.8267008120160426
 20
204.0735942592824017
 30
0.0
 40
0.0079
 50
188.0000000057110867
 51
270.0000000000259774
  0
ARC
  5
1761C
  8
0
 10
3428.03072011466611
 20
204.0735942592824017
 30
0.0
 40
0.0079
 50
269.9999999999739089
 51
351.9999999942647264
  0
ARC
  5
1761D
  8
0
 10
3428.036793454366034
 20
204.0735942592824017
 30
0.0
 40
0.0079
 50
269.9999999999739089
 51
351.999999994266318
  0
ARC
  5
1761E
  8
0
 10
3427.9381556325161
 20
204.0735942592824017
 30
0.0
 40
0.0079
 50
188.000000005735302
 51
270.0000000000259774
  0
LINE
  5
1761F
  8
0
 10
3427.9270884119150651
 20
204.0724947918319003
 30
0.0
 11
3427.9287104633049239
 21
204.0840362876820109
 31
0.0
  0
ARC
  5
17620
  8
0
 10
3427.9192652941651431
 20
204.0735942592824017
 30
0.0
 40
0.0079
 50
270.0
 51
352.000000344207308
  0
LINE
  5
17621
  8
0
 10
3426.5085237983262232
 20
204.1067053314401107
 30
0.0
 11
3426.5133317761901708
 21
204.0724947917707084
 31
0.0
  0
ARC
  5
17622
  8
0
 10
3426.5211548939319073
 20
204.0735942592824017
 30
0.0
 40
0.0079
 50
188.0000001042145925
 51
269.9999999999739089
  0
LINE
  5
17623
  8
0
 10
3429.5511041599079363
 20
204.0724947917829866
 30
0.0
 11
3429.5584480629981954
 21
204.1247493773824999
 31
0.0
  0
LINE
  5
17624
  8
0
 10
3429.5374984593081535
 20
204.072494791784095
 30
0.0
 11
3429.5448423623911367
 21
204.1247493773824999
 31
0.0
  0
LINE
  5
17625
  8
0
 10
3429.5363955686088957
 20
204.072494791784095
 30
0.0
 11
3429.5437394716909694
 21
204.1247493773824999
 31
0.0
  0
LINE
  5
17626
  8
0
 10
3429.428184850973139
 20
204.072494791784095
 30
0.0
 11
3429.4208409478910653
 21
204.1247493773824999
 31
0.0
  0
LINE
  5
17627
  8
0
 10
3429.436007968715785
 20
204.0656942592823953
 30
0.0
 11
3429.5432810421648355
 21
204.0656942592823953
 31
0.0
  0
ARC
  5
17628
  8
0
 10
3429.436007968715785
 20
204.0735942592824017
 30
0.0
 40
0.0079
 50
188.0000000057368936
 51
270.0000000000521254
  0
ARC
  5
17629
  8
0
 10
3429.5285724508648855
 20
204.0735942592824017
 30
0.0
 40
0.0079
 50
269.9999999999739089
 51
351.9999999942888849
  0
ARC
  5
1762A
  8
0
 10
3429.5296753415659623
 20
204.0735942592824017
 30
0.0
 40
0.0079
 50
269.9999999999478746
 51
351.9999999942647264
  0
ARC
  5
1762B
  8
0
 10
3429.5432810421648355
 20
204.0735942592824017
 30
0.0
 40
0.0079
 50
269.9999999999478746
 51
351.9999999863230755
  0
LINE
  5
1762C
  8
0
 10
3424.8276585562980472
 20
204.1247493773824999
 30
0.0
 11
3434.8159494054038987
 21
204.1247493773824999
 31
0.0
  0
LINE
  5
1762D
  8
0
 10
3434.8160668959021677
 20
204.2192375663825032
 30
0.0
 11
3424.8276585562980472
 21
204.2192375663825032
 31
0.0
  0
ARC
  5
1762E
  8
0
 10
3424.8276587873360768
 20
204.2133318235449053
 30
0.0
 40
0.0059057428420887
 50
90.0022414585822759
 51
179.9977585415267924
  0
LINE
  5
1762F
  8
0
 10
3424.8217530444990189
 20
204.2133320545825086
 30
0.0
 11
3424.8217511492421181
 21
204.1306548892042088
 31
0.0
  0
ARC
  5
17630
  8
0
 10
3424.8276565260389361
 20
204.130654753831891
 30
0.0
 40
0.0059053767983758
 50
179.9986865759113925
 51
270.019698200347591
  0
ARC
  5
17631
  8
0
 10
3425.0862462820991823
 20
204.6050643380825136
 30
0.0
 40
0.3858267716999748
 50
270.0
 51
289.0402300408280212
  0
LINE
  5
17632
  8
0
 10
3425.2121153087000494
 20
204.2403462470824991
 30
0.0
 11
3425.6526904510537861
 21
204.3923945432364917
 31
0.0
  0
ARC
  5
17633
  8
0
 10
3425.7939720099379883
 20
203.9830170987542886
 30
0.0
 40
0.4330708613282043
 50
89.999999806801398
 51
109.040230040828007
  0
LINE
  5
17634
  8
0
 10
3425.7939720113990916
 20
204.4160879600825069
 30
0.0
 11
3433.8522511494229548
 21
204.41608796030539
 31
0.0
  0
LINE
  5
17635
  8
0
 10
3426.190085923838069
 20
204.072494791784095
 30
0.0
 11
3426.1974298269210522
 21
204.1247493773824999
 31
0.0
  0
LINE
  5
17636
  8
0
 10
3426.0818752062032218
 20
204.072494791784095
 30
0.0
 11
3426.0745313031197838
 21
204.1247493773824999
 31
0.0
  0
LINE
  5
17637
  8
0
 10
3426.1822628060949683
 20
204.0656942592825089
 30
0.0
 11
3426.0896983239458677
 21
204.0656942592825089
 31
0.0
  0
ARC
  5
17638
  8
0
 10
3426.0896983239458677
 20
204.0735942592824017
 30
0.0
 40
0.0079
 50
188.0000000057337104
 51
270.0000000000259774
  0
ARC
  5
17639
  8
0
 10
3426.1822628060949683
 20
204.0735942592824017
 30
0.0
 40
0.0079
 50
269.9999999999739089
 51
351.9999999942143063
  0
LINE
  5
1763A
  8
0
 10
3426.3506677951359052
 20
204.072494791784095
 30
0.0
 11
3426.3580116982188883
 21
204.1247493773824999
 31
0.0
  0
LINE
  5
1763B
  8
0
 10
3426.2424570775010579
 20
204.072494791784095
 30
0.0
 11
3426.2351131744189843
 21
204.1247493773824999
 31
0.0
  0
LINE
  5
1763C
  8
0
 10
3426.3428446773941687
 20
204.0656942592825089
 30
0.0
 11
3426.2502801952441587
 21
204.0656942592825089
 31
0.0
  0
ARC
  5
1763D
  8
0
 10
3426.2502801952441587
 20
204.0735942592824017
 30
0.0
 40
0.0079
 50
188.0000000057337104
 51
270.0000000000259774
  0
ARC
  5
1763E
  8
0
 10
3426.3428446773941687
 20
204.0735942592824017
 30
0.0
 40
0.0079
 50
269.9999999999739089
 51
351.9999999942143063
  0
LINE
  5
1763F
  8
0
 10
3426.8077673331818005
 20
204.072494791784095
 30
0.0
 11
3426.8151112362647837
 21
204.1247493773824999
 31
0.0
  0
LINE
  5
17640
  8
0
 10
3426.6995566155469533
 20
204.072494791784095
 30
0.0
 11
3426.6922127124639701
 21
204.1247493773824999
 31
0.0
  0
LINE
  5
17641
  8
0
 10
3426.7999442154391545
 20
204.0656942592825089
 30
0.0
 11
3426.707379733290054
 21
204.0656942592825089
 31
0.0
  0
ARC
  5
17642
  8
0
 10
3426.707379733290054
 20
204.0735942592824017
 30
0.0
 40
0.0079
 50
188.0000000057337104
 51
270.0000000000259774
  0
ARC
  5
17643
  8
0
 10
3426.7999442154391545
 20
204.0735942592824017
 30
0.0
 40
0.0079
 50
269.9999999999739089
 51
351.9999999942143063
  0
LINE
  5
17644
  8
0
 10
3427.4217716195958019
 20
204.072494791784095
 30
0.0
 11
3427.4291155226778756
 21
204.1247493773824999
 31
0.0
  0
LINE
  5
17645
  8
0
 10
3427.3135609019609547
 20
204.072494791784095
 30
0.0
 11
3427.306216998878881
 21
204.1247493773824999
 31
0.0
  0
LINE
  5
17646
  8
0
 10
3427.4139485018531559
 20
204.0656942592825089
 30
0.0
 11
3427.3213840197040554
 21
204.0656942592825089
 31
0.0
  0
ARC
  5
17647
  8
0
 10
3427.3213840197040554
 20
204.0735942592824017
 30
0.0
 40
0.0079
 50
188.0000000057337104
 51
270.0000000000259774
  0
ARC
  5
17648
  8
0
 10
3427.4139485018531559
 20
204.0735942592824017
 30
0.0
 40
0.0079
 50
269.9999999999739089
 51
351.9999999942143063
  0
LINE
  5
17649
  8
0
 10
3427.7535750553711296
 20
204.072494791784095
 30
0.0
 11
3427.7609189584532032
 21
204.1247493773824999
 31
0.0
  0
LINE
  5
1764A
  8
0
 10
3427.6392909980349941
 20
204.072494791784095
 30
0.0
 11
3427.6319470949529205
 21
204.1247493773824999
 31
0.0
  0
LINE
  5
1764B
  8
0
 10
3427.7475017156712056
 20
204.072494791784095
 30
0.0
 11
3427.7548456187528245
 21
204.1247493773824999
 31
0.0
  0
LINE
  5
1764C
  8
0
 10
3427.6471141157780949
 20
204.0656942592825089
 30
0.0
 11
3427.7457519376280288
 21
204.0656942592825089
 31
0.0
  0
ARC
  5
1764D
  8
0
 10
3427.7396785979281049
 20
204.0735942592824017
 30
0.0
 40
0.0079
 50
269.9999999999739089
 51
351.9999999942647264
  0
ARC
  5
1764E
  8
0
 10
3427.7457519376280288
 20
204.0735942592824017
 30
0.0
 40
0.0079
 50
269.9999999999739089
 51
351.999999994266318
  0
ARC
  5
1764F
  8
0
 10
3427.6471141157780949
 20
204.0735942592824017
 30
0.0
 40
0.0079
 50
188.000000005735302
 51
270.0000000000259774
  0
LINE
  5
17650
  8
0
 10
3428.4573518796269127
 20
204.072494791784095
 30
0.0
 11
3428.4646957827098959
 21
204.1247493773824999
 31
0.0
  0
ARC
  5
17651
  8
0
 10
3428.4495287618851762
 20
204.0735942592824017
 30
0.0
 40
0.0079
 50
269.9999999999739089
 51
351.999999994266318
  0
LINE
  5
17652
  8
0
 10
3428.4327942247678038
 20
204.072494791784095
 30
0.0
 11
3428.440138127850787
 21
204.1247493773824999
 31
0.0
  0
ARC
  5
17653
  8
0
 10
3428.4249711070260673
 20
204.0735942592824017
 30
0.0
 40
0.0079
 50
269.9999999999739089
 51
351.999999994266318
  0
LINE
  5
17654
  8
0
 10
3431.3245995453480646
 20
204.0656942592825089
 30
0.0
 11
3431.1423743658037893
 21
204.0656942592825089
 31
0.0
  0
LINE
  5
17655
  8
0
 10
3430.9932353067820259
 20
204.0656942592825089
 30
0.0
 11
3430.9006708246320159
 21
204.0656942592825089
 31
0.0
  0
LINE
  5
17656
  8
0
 10
3430.6065800132569166
 20
204.0656942592825089
 30
0.0
 11
3430.4883181102068193
 21
204.0656942592823953
 31
0.0
  0
LINE
  5
17657
  8
0
 10
3430.4731510893820996
 20
204.1247493773824999
 30
0.0
 11
3430.4804949924641733
 21
204.072494791784095
 31
0.0
  0
LINE
  5
17658
  8
0
 10
3430.4900801088820117
 20
204.1247493773824999
 30
0.0
 11
3430.497424011862222
 21
204.072494791798789
 31
0.0
  0
LINE
  5
17659
  8
0
 10
3430.4960667183818259
 20
204.1247493773824999
 30
0.0
 11
3430.5034106214638996
 21
204.072494791784095
 31
0.0
  0
LINE
  5
1765A
  8
0
 10
3430.4988485102821869
 20
204.1247493773824999
 30
0.0
 11
3430.5061924133638058
 21
204.072494791784095
 31
0.0
  0
LINE
  5
1765B
  8
0
 10
3430.621747034082091
 20
204.1247493773824999
 30
0.0
 11
3430.6144031309991078
 21
204.072494791784095
 31
0.0
  0
LINE
  5
1765C
  8
0
 10
3430.8928477068889151
 20
204.072494791784095
 30
0.0
 11
3430.8862321816459371
 21
204.1195666997629985
 31
0.0
  0
LINE
  5
1765D
  8
0
 10
3431.1345512480611433
 20
204.072494791784095
 30
0.0
 11
3431.1272073449790696
 21
204.1247493773824999
 31
0.0
  0
LINE
  5
1765E
  8
0
 10
3431.2242119454558633
 20
204.072494791784095
 30
0.0
 11
3431.2168680423728802
 21
204.1247493773824999
 31
0.0
  0
LINE
  5
1765F
  8
0
 10
3431.3324226630911653
 20
204.072494791784095
 30
0.0
 11
3431.3397665661741485
 21
204.1247493773824999
 31
0.0
  0
ARC
  5
17660
  8
0
 10
3430.9006708246320159
 20
204.0735942592824017
 30
0.0
 40
0.0079
 50
188.0000000057385137
 51
270.0000000000521254
  0
ARC
  5
17661
  8
0
 10
3430.9932353067820259
 20
204.0735942592824017
 30
0.0
 40
0.0079
 50
270.0000000000259774
 51
300.2550804623448926
  0
ARC
  5
17662
  8
0
 10
3431.1423743658037893
 20
204.0735942592824017
 30
0.0
 40
0.0079
 50
188.0000000057337104
 51
270.0000000000259774
  0
ARC
  5
17663
  8
0
 10
3431.2320350631989641
 20
204.0735942592824017
 30
0.0
 40
0.0079
 50
188.000000005756192
 51
270.0
  0
ARC
  5
17664
  8
0
 10
3431.3245995453480646
 20
204.0735942592824017
 30
0.0
 40
0.0079
 50
270.0
 51
351.9999999942158979
  0
ARC
  5
17665
  8
0
 10
3430.5140155311078161
 20
204.073594259282487
 30
0.0
 40
0.0079
 50
188.0000000058130922
 51
270.0000000000259774
  0
ARC
  5
17666
  8
0
 10
3430.5112337392070003
 20
204.0735942592824017
 30
0.0
 40
0.0079
 50
188.000000005756192
 51
270.0
  0
ARC
  5
17667
  8
0
 10
3430.5052471296080512
 20
204.073594259282487
 30
0.0
 40
0.0079
 50
187.9999998983597891
 51
269.9999999999218971
  0
ARC
  5
17668
  8
0
 10
3430.4883181102068193
 20
204.0735942592824017
 30
0.0
 40
0.0079
 50
188.0000000057594889
 51
270.0000000000259774
  0
ARC
  5
17669
  8
0
 10
3430.6065800132569166
 20
204.0735942592824017
 30
0.0
 40
0.0079
 50
270.0
 51
351.999999994243808
  0
LINE
  5
1766A
  8
0
 10
3430.8717935386598583
 20
204.0656942592825089
 30
0.0
 11
3430.7499802887869009
 21
204.0656942592825089
 31
0.0
  0
LINE
  5
1766B
  8
0
 10
3430.7714059387672023
 20
204.072494791784095
 30
0.0
 11
3430.7640620356851286
 21
204.1247493773824999
 31
0.0
  0
LINE
  5
1766C
  8
0
 10
3430.8796166564029591
 20
204.072494791784095
 30
0.0
 11
3430.8869605594841232
 21
204.1247493773824999
 31
0.0
  0
ARC
  5
1766D
  8
0
 10
3430.7792290565098483
 20
204.0735942592824017
 30
0.0
 40
0.0079
 50
188.0000000057385137
 51
270.0000000000521254
  0
ARC
  5
1766E
  8
0
 10
3430.8717935386598583
 20
204.0735942592824017
 30
0.0
 40
0.0079
 50
270.0000000000259774
 51
351.9999999942469913
  0
LINE
  5
1766F
  8
0
 10
3430.7421571710451644
 20
204.072494791784095
 30
0.0
 11
3430.7348132679621813
 21
204.1247493773824999
 31
0.0
  0
ARC
  5
17670
  8
0
 10
3430.7499802887869009
 20
204.0735942592824017
 30
0.0
 40
0.0079
 50
188.0000000057385137
 51
270.0000000000521254
  0
LINE
  5
17671
  8
0
 10
3431.0937606279699139
 20
204.0656942592825089
 30
0.0
 11
3431.0011961458199039
 21
204.0656942592825089
 31
0.0
  0
LINE
  5
17672
  8
0
 10
3430.9933730280758937
 20
204.072494791784095
 30
0.0
 11
3430.98602912499382
 21
204.1247493773824999
 31
0.0
  0
LINE
  5
17673
  8
0
 10
3431.1015837457121052
 20
204.072494791784095
 30
0.0
 11
3431.1089276487941788
 21
204.1247493773824999
 31
0.0
  0
ARC
  5
17674
  8
0
 10
3431.0011961458199039
 20
204.0735942592824017
 30
0.0
 40
0.0079
 50
188.0000000057385137
 51
270.0000000000521254
  0
ARC
  5
17675
  8
0
 10
3431.0937606279699139
 20
204.0735942592824017
 30
0.0
 40
0.0079
 50
270.0000000000259774
 51
351.9999999942469913
  0
LINE
  5
17676
  8
0
 10
3431.5989873290732248
 20
204.072494791784095
 30
0.0
 11
3431.5916434259911512
 21
204.1247493773824999
 31
0.0
  0
LINE
  5
17677
  8
0
 10
3431.7132713864089055
 20
204.072494791784095
 30
0.0
 11
3431.7206152894909792
 21
204.1247493773824999
 31
0.0
  0
LINE
  5
17678
  8
0
 10
3431.6050606687731488
 20
204.072494791784095
 30
0.0
 11
3431.5977167656901656
 21
204.1247493773824999
 31
0.0
  0
LINE
  5
17679
  8
0
 10
3432.5073761128410297
 20
204.072494791784095
 30
0.0
 11
3432.5000322097580465
 21
204.1247493773824999
 31
0.0
  0
LINE
  5
1767A
  8
0
 10
3433.0220614073577963
 20
204.072494791784095
 30
0.0
 11
3433.0147175042761774
 21
204.1247493773824999
 31
0.0
  0
LINE
  5
1767B
  8
0
 10
3433.1398880806577836
 20
204.072494791784095
 30
0.0
 11
3433.1325441775761647
 21
204.1247493773824999
 31
0.0
  0
LINE
  5
1767C
  8
0
 10
3433.7667722922838038
 20
204.072494791784095
 30
0.0
 11
3433.7594283892008207
 21
204.1247493773824999
 31
0.0
  0
LINE
  5
1767D
  8
0
 10
3433.9631959250541513
 20
204.072494791784095
 30
0.0
 11
3433.9558520219711681
 21
204.1247493773824999
 31
0.0
  0
LINE
  5
1767E
  8
0
 10
3434.0720789074571258
 20
204.072494791784095
 30
0.0
 11
3434.0794228105401089
 21
204.1247493773824999
 31
0.0
  0
LINE
  5
1767F
  8
0
 10
3434.1430561885581483
 20
204.072494791784095
 30
0.0
 11
3434.1504000916402219
 21
204.1247493773824999
 31
0.0
  0
LINE
  5
17680
  8
0
 10
3433.8749830099191058
 20
204.072494791784095
 30
0.0
 11
3433.8823269130011795
 21
204.1247493773824999
 31
0.0
  0
LINE
  5
17681
  8
0
 10
3433.2480987982930856
 20
204.072494791784095
 30
0.0
 11
3433.2554427013760687
 21
204.1247493773824999
 31
0.0
  0
LINE
  5
17682
  8
0
 10
3432.6932040411447815
 20
204.072494791784095
 30
0.0
 11
3432.7005479442268552
 21
204.1247493773824999
 31
0.0
  0
LINE
  5
17683
  8
0
 10
3432.6162590952449136
 20
204.072494791784095
 30
0.0
 11
3432.6236029983269873
 21
204.1247493773824999
 31
0.0
  0
LINE
  5
17684
  8
0
 10
3431.8247262069089629
 20
204.072494791784095
 30
0.0
 11
3431.8320701099910366
 21
204.1247493773824999
 31
0.0
  0
LINE
  5
17685
  8
0
 10
3431.7054482686658048
 20
204.0656942592825089
 30
0.0
 11
3431.6068104468167803
 21
204.0656942592825089
 31
0.0
  0
LINE
  5
17686
  8
0
 10
3431.7243386070172164
 20
204.0656942592825089
 30
0.0
 11
3431.8169030891658622
 21
204.0656942592825089
 31
0.0
  0
LINE
  5
17687
  8
0
 10
3432.5151992305841304
 20
204.0656942592825089
 30
0.0
 11
3432.6853809234021355
 21
204.0656942592825089
 31
0.0
  0
LINE
  5
17688
  8
0
 10
3433.029884525100897
 20
204.0656942592825089
 30
0.0
 11
3433.122449007250907
 21
204.0656942592825089
 31
0.0
  0
LINE
  5
17689
  8
0
 10
3433.1477111984008843
 20
204.0656942592825089
 30
0.0
 11
3433.2402756805508943
 21
204.0656942592825089
 31
0.0
  0
LINE
  5
1768A
  8
0
 10
3433.7745954100269046
 20
204.0656942592825089
 30
0.0
 11
3433.8671598921760051
 21
204.0656942592825089
 31
0.0
  0
LINE
  5
1768B
  8
0
 10
3433.9710190427967973
 20
204.0656942592825089
 30
0.0
 11
3434.1352330708150475
 21
204.0656942592825089
 31
0.0
  0
ARC
  5
1768C
  8
0
 10
3433.9710190427967973
 20
204.0735942592824017
 30
0.0
 40
0.0079
 50
188.0000000057889054
 51
270.0000000000259774
  0
ARC
  5
1768D
  8
0
 10
3434.0642557897149345
 20
204.0735942592824017
 30
0.0
 40
0.0079
 50
269.9999999999739089
 51
351.999999994266318
  0
ARC
  5
1768E
  8
0
 10
3434.1352330708150475
 20
204.0735942592824017
 30
0.0
 40
0.0079
 50
269.9999999999478746
 51
351.9999999942647264
  0
ARC
  5
1768F
  8
0
 10
3433.8671598921760051
 20
204.0735942592824017
 30
0.0
 40
0.0079
 50
269.9999999999739089
 51
351.999999994266318
  0
ARC
  5
17690
  8
0
 10
3433.7745954100269046
 20
204.0735942592824017
 30
0.0
 40
0.0079
 50
188.0000000057856937
 51
270.0
  0
ARC
  5
17691
  8
0
 10
3433.2402756805508943
 20
204.0735942592824017
 30
0.0
 40
0.0079
 50
269.9999999999739089
 51
351.999999994266318
  0
ARC
  5
17692
  8
0
 10
3433.1477111984008843
 20
204.0735942592824017
 30
0.0
 40
0.0079
 50
188.0000000057873137
 51
270.0000000000259774
  0
ARC
  5
17693
  8
0
 10
3433.029884525100897
 20
204.0735942592824017
 30
0.0
 40
0.0079
 50
188.000000005757812
 51
270.0
  0
ARC
  5
17694
  8
0
 10
3432.6084359775018129
 20
204.0735942592824017
 30
0.0
 40
0.0079
 50
269.9999999999739089
 51
351.999999994266318
  0
ARC
  5
17695
  8
0
 10
3432.6853809234021355
 20
204.0735942592824017
 30
0.0
 40
0.0079
 50
269.9999999999739089
 51
351.9999999942904765
  0
ARC
  5
17696
  8
0
 10
3432.5151992305841304
 20
204.0735942592824017
 30
0.0
 40
0.0079
 50
188.0000000057873137
 51
270.0000000000259774
  0
ARC
  5
17697
  8
0
 10
3431.8169030891658622
 20
204.0735942592824017
 30
0.0
 40
0.0079
 50
269.9999999999739089
 51
351.9999999942888849
  0
ARC
  5
17698
  8
0
 10
3431.612883786517159
 20
204.0735942592824017
 30
0.0
 40
0.0079
 50
188.000000005735302
 51
270.0000000000259774
  0
ARC
  5
17699
  8
0
 10
3431.6068104468167803
 20
204.0735942592824017
 30
0.0
 40
0.0079
 50
188.0000000057337104
 51
270.0000000000259774
  0
ARC
  5
1769A
  8
0
 10
3431.7054482686658048
 20
204.0735942592824017
 30
0.0
 40
0.0079
 50
269.9999999999739089
 51
351.9999999942647264
  0
LINE
  5
1769B
  8
0
 10
3431.7165154892668397
 20
204.0724947918319003
 30
0.0
 11
3431.7148934378769809
 21
204.0840362876820109
 31
0.0
  0
ARC
  5
1769C
  8
0
 10
3431.7243386070172164
 20
204.0735942592824017
 30
0.0
 40
0.0079
 50
187.999999655792692
 51
270.0
  0
LINE
  5
1769D
  8
0
 10
3433.1350801028561364
 20
204.1067053314401107
 30
0.0
 11
3433.1302721249921888
 21
204.0724947917707084
 31
0.0
  0
ARC
  5
1769E
  8
0
 10
3433.122449007250907
 20
204.0735942592824017
 30
0.0
 40
0.0079
 50
270.0
 51
351.9999998957853791
  0
LINE
  5
1769F
  8
0
 10
3430.0924997412739685
 20
204.0724947917829866
 30
0.0
 11
3430.0851558381841642
 21
204.1247493773824999
 31
0.0
  0
LINE
  5
176A0
  8
0
 10
3430.1061054418728418
 20
204.072494791784095
 30
0.0
 11
3430.0987615387912228
 21
204.1247493773824999
 31
0.0
  0
LINE
  5
176A1
  8
0
 10
3430.1072083325730091
 20
204.072494791784095
 30
0.0
 11
3430.0998644294909354
 21
204.1247493773824999
 31
0.0
  0
LINE
  5
176A2
  8
0
 10
3430.2154190502092206
 20
204.072494791784095
 30
0.0
 11
3430.2227629532908395
 21
204.1247493773824999
 31
0.0
  0
LINE
  5
176A3
  8
0
 10
3430.2075959324661198
 20
204.0656942592823953
 30
0.0
 11
3430.1003228590161598
 21
204.0656942592823953
 31
0.0
  0
ARC
  5
176A4
  8
0
 10
3430.2075959324661198
 20
204.0735942592824017
 30
0.0
 40
0.0079
 50
269.9999999999478746
 51
351.999999994263078
  0
ARC
  5
176A5
  8
0
 10
3430.1150314503161098
 20
204.0735942592824017
 30
0.0
 40
0.0079
 50
188.0000000057110867
 51
270.0000000000259774
  0
ARC
  5
176A6
  8
0
 10
3430.1139285596159425
 20
204.0735942592824017
 30
0.0
 40
0.0079
 50
188.000000005735302
 51
270.0000000000259774
  0
ARC
  5
176A7
  8
0
 10
3430.1003228590161598
 20
204.0735942592824017
 30
0.0
 40
0.0079
 50
188.0000000136768108
 51
270.0000000000521254
  0
ARC
  5
176A8
  8
0
 10
3434.8159428921221661
 20
204.2133309032259092
 30
0.0
 40
0.0059079646734119
 50
0.0111659217456034
 51
88.7973159269923542
  0
LINE
  5
176A9
  8
0
 10
3434.8218508566828859
 20
204.2133320545825086
 30
0.0
 11
3434.8218527519397867
 21
204.1306548892042088
 31
0.0
  0
ARC
  5
176AA
  8
0
 10
3434.8159473751420592
 20
204.130654753831891
 30
0.0
 40
0.0059053767983758
 50
269.980301799652409
 51
0.0013134240885346
  0
ARC
  5
176AB
  8
0
 10
3434.5573576190831773
 20
204.6050643380825136
 30
0.0
 40
0.3858267716999748
 50
250.9597699591720072
 51
270.0
  0
LINE
  5
176AC
  8
0
 10
3434.431488592480946
 20
204.2403462470824991
 30
0.0
 11
3433.9909134501281187
 21
204.3923945432364917
 31
0.0
  0
ARC
  5
176AD
  8
0
 10
3433.8495566225119546
 20
203.9827213802319079
 30
0.0
 40
0.4333749568213454
 50
70.9631177484148026
 51
89.6437588003130088
  0
LINE
  5
176AE
  8
0
 10
3433.4535179773429263
 20
204.072494791784095
 30
0.0
 11
3433.4461740742608526
 21
204.1247493773824999
 31
0.0
  0
LINE
  5
176AF
  8
0
 10
3433.5617286949791378
 20
204.072494791784095
 30
0.0
 11
3433.5690725980612115
 21
204.1247493773824999
 31
0.0
  0
LINE
  5
176B0
  8
0
 10
3433.4613410950869365
 20
204.0656942592825089
 30
0.0
 11
3433.5539055772360371
 21
204.0656942592825089
 31
0.0
  0
ARC
  5
176B1
  8
0
 10
3433.5539055772360371
 20
204.0735942592824017
 30
0.0
 40
0.0079
 50
269.9999999999739089
 51
351.999999994266318
  0
ARC
  5
176B2
  8
0
 10
3433.4613410950869365
 20
204.0735942592824017
 30
0.0
 40
0.0079
 50
188.0000000057856937
 51
270.0
  0
LINE
  5
176B3
  8
0
 10
3433.2929361060450901
 20
204.072494791784095
 30
0.0
 11
3433.2855922029630165
 21
204.1247493773824999
 31
0.0
  0
LINE
  5
176B4
  8
0
 10
3433.4011468236799374
 20
204.072494791784095
 30
0.0
 11
3433.4084907267629205
 21
204.1247493773824999
 31
0.0
  0
LINE
  5
176B5
  8
0
 10
3433.3007592237891004
 20
204.0656942592825089
 30
0.0
 11
3433.3933237059382009
 21
204.0656942592825089
 31
0.0
  0
ARC
  5
176B6
  8
0
 10
3433.3933237059382009
 20
204.0735942592824017
 30
0.0
 40
0.0079
 50
269.9999999999739089
 51
351.999999994266318
  0
ARC
  5
176B7
  8
0
 10
3433.3007592237891004
 20
204.0735942592824017
 30
0.0
 40
0.0079
 50
188.0000000057856937
 51
270.0
  0
LINE
  5
176B8
  8
0
 10
3432.8358365680001043
 20
204.072494791784095
 30
0.0
 11
3432.8284926649171211
 21
204.1247493773824999
 31
0.0
  0
LINE
  5
176B9
  8
0
 10
3432.9440472856349515
 20
204.072494791784095
 30
0.0
 11
3432.9513911887179347
 21
204.1247493773824999
 31
0.0
  0
LINE
  5
176BA
  8
0
 10
3432.843659685743205
 20
204.0656942592825089
 30
0.0
 11
3432.9362241678918508
 21
204.0656942592825089
 31
0.0
  0
ARC
  5
176BB
  8
0
 10
3432.9362241678918508
 20
204.0735942592824017
 30
0.0
 40
0.0079
 50
269.9999999999739089
 51
351.999999994266318
  0
ARC
  5
176BC
  8
0
 10
3432.843659685743205
 20
204.0735942592824017
 30
0.0
 40
0.0079
 50
188.0000000057856937
 51
270.0
  0
LINE
  5
176BD
  8
0
 10
3432.2218322815861029
 20
204.072494791784095
 30
0.0
 11
3432.2144883785040292
 21
204.1247493773824999
 31
0.0
  0
LINE
  5
176BE
  8
0
 10
3432.3300429992209502
 20
204.072494791784095
 30
0.0
 11
3432.3373869023039333
 21
204.1247493773824999
 31
0.0
  0
LINE
  5
176BF
  8
0
 10
3432.2296553993292036
 20
204.0656942592825089
 30
0.0
 11
3432.3222198814778494
 21
204.0656942592825089
 31
0.0
  0
ARC
  5
176C0
  8
0
 10
3432.3222198814778494
 20
204.0735942592824017
 30
0.0
 40
0.0079
 50
269.9999999999739089
 51
351.999999994266318
  0
ARC
  5
176C1
  8
0
 10
3432.2296553993292036
 20
204.0735942592824017
 30
0.0
 40
0.0079
 50
188.0000000057856937
 51
270.0
  0
LINE
  5
176C2
  8
0
 10
3431.8900288458107752
 20
204.072494791784095
 30
0.0
 11
3431.8826849427277921
 21
204.1247493773824999
 31
0.0
  0
LINE
  5
176C3
  8
0
 10
3432.0043129031460012
 20
204.072494791784095
 30
0.0
 11
3432.0116568062289844
 21
204.1247493773824999
 31
0.0
  0
LINE
  5
176C4
  8
0
 10
3431.8961021855111539
 20
204.072494791784095
 30
0.0
 11
3431.8887582824281708
 21
204.1247493773824999
 31
0.0
  0
LINE
  5
176C5
  8
0
 10
3431.9964897854029005
 20
204.0656942592825089
 30
0.0
 11
3431.8978519635547855
 21
204.0656942592825089
 31
0.0
  0
ARC
  5
176C6
  8
0
 10
3431.9039253032537999
 20
204.0735942592824017
 30
0.0
 40
0.0079
 50
188.000000005735302
 51
270.0000000000259774
  0
ARC
  5
176C7
  8
0
 10
3431.8978519635547855
 20
204.0735942592824017
 30
0.0
 40
0.0079
 50
188.0000000057337104
 51
270.0000000000259774
  0
ARC
  5
176C8
  8
0
 10
3431.9964897854029005
 20
204.0735942592824017
 30
0.0
 40
0.0079
 50
269.9999999999739089
 51
351.9999999942647264
  0
LINE
  5
176C9
  8
0
 10
3431.1862520215540826
 20
204.072494791784095
 30
0.0
 11
3431.1789081184720089
 21
204.1247493773824999
 31
0.0
  0
ARC
  5
176CA
  8
0
 10
3431.1940751392971833
 20
204.0735942592824017
 30
0.0
 40
0.0079
 50
188.0000000057337104
 51
270.0000000000259774
  0
LINE
  5
176CB
  8
0
 10
3431.210809676414101
 20
204.072494791784095
 30
0.0
 11
3431.2034657733311178
 21
204.1247493773824999
 31
0.0
  0
ARC
  5
176CC
  8
0
 10
3431.2186327941558375
 20
204.0735942592824017
 30
0.0
 40
0.0079
 50
188.0000000057337104
 51
270.0000000000259774
  0
ARC
  5
176CD
  8
0
 10
3509.0864214220309805
 20
167.041898265128907
 30
0.0
 40
65.883104170847858
 50
182.2987092222130912
 51
190.5079292853723985
  0
ARC
  5
176CE
  8
0
 10
3444.6443253650581937
 20
162.1965009605256967
 30
0.0
 40
0.4255458500025852
 50
316.1356274180263881
 51
359.2366363171436774
  0
LINE
  5
176CF
  8
0
 10
3445.0698334467410859
 20
162.1908314916805978
 30
0.0
 11
3445.0702163203181954
 21
172.9237710771807031
 31
0.0
  0
LINE
  5
176D0
  8
0
 10
3445.0702844385891694
 20
174.8333029259817977
 30
0.0
 11
3445.0705636683219382
 21
182.6608366679975006
 31
0.0
  0
ARC
  5
176D1
  8
0
 10
3446.530360002776888
 20
162.2548043431158078
 30
0.0
 40
0.4762751442254971
 50
179.912397820718212
 51
231.170007551930496
  0
LINE
  5
176D2
  8
0
 10
3446.0540854152409338
 20
162.2555325420279928
 30
0.0
 11
3446.0535885934691578
 21
176.1373065333708041
 31
0.0
  0
LINE
  5
176D3
  8
0
 10
3446.0534880451650679
 20
178.9467422521638014
 30
0.0
 11
3446.0534296739920137
 21
180.5777002135116049
 31
0.0
  0
ARC
  5
176D4
  8
0
 10
3446.0909700040701864
 20
162.6182363064750973
 30
0.0
 40
0.1060220744574879
 50
151.1538396538005884
 51
167.9663193657883937
  0
ARC
  5
176D5
  8
0
 10
3446.0040935914180409
 20
162.6595745265387052
 30
0.0
 40
0.0114969950531714
 50
33.6947514898457072
 51
121.401251318228006
  0
ARC
  5
176D6
  8
0
 10
3445.89907486469383
 20
162.605174008048408
 30
0.0
 40
0.1297058467308141
 50
335.1176678595821272
 51
27.9427208410839008
  0
ARC
  5
176D7
  8
0
 10
3445.9946046018121706
 20
162.5639731839036983
 30
0.0
 40
0.0258623044059708
 50
308.8123443267805897
 51
328.8612880761668862
  0
ARC
  5
176D8
  8
0
 10
3446.0039501233100054
 20
162.5517406890251948
 30
0.0
 40
0.0104802711320001
 50
236.4868611943267922
 51
310.9172011188127271
  0
ARC
  5
176D9
  8
0
 10
3446.1289892035902085
 20
162.606911380202888
 30
0.0
 40
0.1456009750190697
 50
166.72682883477421
 51
206.0356650152367024
  0
ARC
  5
176DA
  8
0
 10
3446.4203504699030418
 20
162.1240996680041064
 30
0.0
 40
0.3055006091566358
 50
231.8724177812443088
 51
272.1412308984241122
  0
ARC
  5
176DB
  8
0
 10
3446.4212874231661772
 20
160.0216504666994979
 30
0.0
 40
0.4192194164277405
 50
89.5989628257197239
 51
124.2476126659693989
  0
ARC
  5
176DC
  8
0
 10
3434.1621494266041736
 20
148.3162422595142118
 30
0.0
 40
11.13474187078873
 50
1.6242094352876979
 51
10.6033538545279207
  0
ARC
  5
177D0
  8
0
 10
3445.2573553130641812
 20
161.2242643011786072
 30
0.0
 40
0.6560880266247322
 50
153.4912057712598141
 51
170.7199416063427861
  0
ARC
  5
177D1
  8
0
 10
3444.9425055652468473
 20
161.353362604846609
 30
0.0
 40
0.3177039938299959
 50
93.9605687163319629
 51
148.9774422635792916
  0
ARC
  5
177D2
  8
0
 10
3445.7921619481071502
 20
148.6449550901702992
 30
0.0
 40
13.05448205650044
 50
88.4133218974795483
 51
93.828278166983182
  0
ARC
  5
177D3
  8
0
 10
3446.168960396590137
 20
161.3804013688773011
 30
0.0
 40
0.3144043913661798
 50
19.2470157628000393
 51
92.7947948558039712
  0
ARC
  5
177D4
  8
0
 10
3445.4382625265538991
 20
161.1252729480632127
 30
0.0
 40
1.0883616824239259
 50
4.5125706657868401
 51
19.2470157628000393
  0
ARC
  5
177D5
  8
0
 10
3445.7543323081517883
 20
161.1911039381828914
 30
0.0
 40
0.7026638191359714
 50
5.7340931347165789
 51
23.9275329460059503
  0
ARC
  5
177D6
  8
0
 10
3446.1574813595211708
 20
161.3636339340581003
 30
0.0
 40
0.2642506793162889
 50
25.1867119200406897
 51
90.376894454801274
  0
ARC
  5
177D7
  8
0
 10
3445.7877633133361996
 20
148.6312385646160124
 30
0.0
 40
13.0018486780217692
 50
88.3781917477613348
 51
93.832068156565299
  0
ARC
  5
177D8
  8
0
 10
3444.9381366942029672
 20
161.3618596100967864
 30
0.0
 40
0.2429276250992613
 50
94.560960442824026
 51
158.6895512462575937
  0
ARC
  5
177D9
  8
0
 10
3445.5806662448130737
 20
161.1364226033525995
 30
0.0
 40
0.9237513803095621
 50
160.146434443757812
 51
173.9735348838503057
  0
LINE
  5
177DA
  8
0
 10
3446.4085182976409669
 20
160.9839193229109071
 30
0.0
 11
3446.4085182976409669
 21
161.2758103269108858
 31
0.0
  0
ARC
  5
177DB
  8
0
 10
3446.4203288721419085
 20
161.2758103269108858
 30
0.0
 40
0.0118105744999966
 50
90.0000033958398689
 51
179.9999999999820943
  0
LINE
  5
177DC
  8
0
 10
3446.4203288714411428
 20
161.2876209014108895
 30
0.0
 11
3446.4272911740408745
 21
161.2876209018236011
 31
0.0
  0
ARC
  5
177DD
  8
0
 10
3446.4272911733251021
 20
161.2996857596311884
 30
0.0
 40
0.0120648578076246
 50
270.0000033958659174
 51
6.7455626466184126
  0
ARC
  5
177DE
  8
0
 10
3445.8979110136010604
 20
161.237071061304988
 30
0.0
 40
0.5451351664511862
 50
6.7455626466184126
 51
24.1604859381352703
  0
ARC
  5
177DF
  8
0
 10
3446.1466079448200617
 20
161.3486338019976927
 30
0.0
 40
0.2725614907066187
 50
24.1604859381352703
 51
74.2109114262991341
  0
ARC
  5
177E0
  8
0
 10
3445.7107757676408255
 20
151.9958805701598124
 30
0.0
 40
9.6285468815534951
 50
86.9637930536048032
 51
94.9019582587648074
  0
ARC
  5
177E1
  8
0
 10
3444.9302083766338001
 20
161.3676017984425926
 30
0.0
 40
0.2255905172370081
 50
100.7818733707409962
 51
159.3299890782722912
  0
ARC
  5
177E2
  8
0
 10
3445.5807635978530925
 20
161.1363853121441991
 30
0.0
 40
0.9159813985915899
 50
160.1621700790379066
 51
174.0226703543453937
  0
LINE
  5
177E3
  8
0
 10
3446.514808513250955
 20
161.2852100928926973
 30
0.0
 11
3446.6507228941550238
 21
161.2879776006109012
 31
0.0
  0
ARC
  5
177E4
  8
0
 10
3446.6471312555781878
 20
161.2631295146443904
 30
0.0
 40
0.0251063188035404
 50
3.3116474077719351
 51
81.7752104353512834
  0
ARC
  5
177E5
  8
0
 10
3445.2573553130641812
 20
161.0354653486432142
 30
0.0
 40
0.6560880266247322
 50
189.2800583936571002
 51
206.5087942287401006
  0
ARC
  5
177E6
  8
0
 10
3444.9425055652468473
 20
160.9063670449752124
 30
0.0
 40
0.3177039938299959
 50
211.0225577364205947
 51
266.0394312836680228
  0
ARC
  5
177E7
  8
0
 10
3445.7921619481071502
 20
173.6147745596514937
 30
0.0
 40
13.05448205650044
 50
266.171721833016818
 51
271.5866781025204091
  0
ARC
  5
177E8
  8
0
 10
3446.168960396590137
 20
160.8793282809444918
 30
0.0
 40
0.3144043913661798
 50
267.2052051441959861
 51
340.7529842371998825
  0
ARC
  5
177E9
  8
0
 10
3445.4382625265538991
 20
161.1344567017586087
 30
0.0
 40
1.0883616824239259
 50
340.7529842371998825
 51
355.487429334213175
  0
ARC
  5
177EA
  8
0
 10
3445.7543323081517883
 20
161.0686257116387878
 30
0.0
 40
0.7026638191359714
 50
336.072467053994103
 51
354.265906865283398
  0
ARC
  5
177EB
  8
0
 10
3446.1574813595211708
 20
160.8960957157636926
 30
0.0
 40
0.2642506793162889
 50
269.6231055451987118
 51
334.8132880799593067
  0
ARC
  5
177EC
  8
0
 10
3445.7877633133361996
 20
173.628491085205809
 30
0.0
 40
13.0018486780217692
 50
266.167931843434701
 51
271.6218082522386794
  0
ARC
  5
177ED
  8
0
 10
3444.9381366942029672
 20
160.8978700397250066
 30
0.0
 40
0.2429276250992613
 50
201.3104487537422926
 51
265.4390395571759882
  0
ARC
  5
177EE
  8
0
 10
3445.5806662448130737
 20
161.1233070464691934
 30
0.0
 40
0.9237513803095621
 50
186.026465116149609
 51
199.853565556242188
  0
ARC
  5
177EF
  8
0
 10
3446.4203288721419085
 20
160.9839193229109071
 30
0.0
 40
0.0118105744999966
 50
180.0000000000179057
 51
269.9999966041601169
  0
LINE
  5
177F0
  8
0
 10
3446.4203288714411428
 20
160.9721087484109034
 30
0.0
 11
3446.4272911740408745
 21
160.9721087479981918
 31
0.0
  0
ARC
  5
177F1
  8
0
 10
3446.4272911733251021
 20
160.9600438901906045
 30
0.0
 40
0.0120648578076246
 50
353.2544373533816042
 51
89.9999966041340826
  0
ARC
  5
177F2
  8
0
 10
3445.8979110136010604
 20
161.0226585885168049
 30
0.0
 40
0.5451351664511862
 50
335.8395140618648043
 51
353.2544373533816042
  0
ARC
  5
177F3
  8
0
 10
3446.1466079448200617
 20
160.9110958478241002
 30
0.0
 40
0.2725614907066187
 50
285.7890885737007807
 51
335.8395140618633263
  0
ARC
  5
177F4
  8
0
 10
3445.7107757676408255
 20
170.263849079662009
 30
0.0
 40
9.6285468815534951
 50
265.0980417412351926
 51
273.0362069463952253
  0
ARC
  5
177F5
  8
0
 10
3444.9302083766338001
 20
160.8921278513792004
 30
0.0
 40
0.2255905172370081
 50
200.6700109217277088
 51
259.2181266292589044
  0
ARC
  5
177F6
  8
0
 10
3445.5807635978530925
 20
161.1233443376775085
 30
0.0
 40
0.9159813985915899
 50
185.9773296456546063
 51
199.8378299209620081
  0
LINE
  5
177F7
  8
0
 10
3446.514808513250955
 20
160.9745195569290956
 30
0.0
 11
3446.6507228941550238
 21
160.9717520492108918
 31
0.0
  0
ARC
  5
177F8
  8
0
 10
3446.6471312555781878
 20
160.9966001351772888
 30
0.0
 40
0.0251063188035404
 50
278.2247895646486882
 51
356.6883525922281137
  0
ARC
  5
177F9
  8
0
 10
3445.5520046925521456
 20
161.1298648249108965
 30
0.0
 40
0.963186230566407
 50
168.0034800096875074
 51
191.9965199903124073
  0
ARC
  5
177FA
  8
0
 10
3445.5057831606841319
 20
161.1298648249108965
 30
0.0
 40
0.8500923139429299
 50
173.0040583822176075
 51
186.9959416177823073
  0
ARC
  5
177FB
  8
0
 10
3445.6214293322118465
 20
161.1298648249108965
 30
0.0
 40
0.9571076965705033
 50
173.8879587489084884
 51
186.1120412510898063
  0
ARC
  5
177FC
  8
0
 10
3445.4195533842889745
 20
161.1298648249108965
 30
0.0
 40
1.042248566351766
 50
352.7548297883179202
 51
7.2451702116821171
  0
ARC
  5
177FD
  8
0
 10
3445.4056185784211266
 20
161.1298648249108965
 30
0.0
 40
1.120565944316013
 50
355.8528145652122134
 51
4.1471854347878692
  0
LINE
  5
177FE
  8
0
 10
3446.6721956491910532
 20
160.9951498191043129
 30
0.0
 11
3446.6721956491910532
 21
161.2645798307175085
 31
0.0
  0
ENDSEC
  0
EOF
