  0
SECTION
  2
HEADER
  9
$ACADVER
  1
AC1009
  9
$INSBASE
 10
3458.2202997246549785
 20
162.0784528568750034
 30
0.0
  9
$EXTMIN
 10
3452.0118100895051612
 20
149.2569768809028119
 30
0.0
  9
$EXTMAX
 10
3464.5465430458962146
 20
210.7792402584250055
 30
0.0
  9
$LIMMIN
 10
0.0
 20
0.0
  9
$LIMMAX
 10
11.6929133858000007
 20
8.2677165353999982
  9
$ORTHOMODE
 70
     0
  9
$REGENMODE
 70
     1
  9
$FILLMODE
 70
     1
  9
$QTEXTMODE
 70
     0
  9
$MIRRTEXT
 70
     0
  9
$DRAGMODE
 70
     2
  9
$LTSCALE
 40
0.6431102362
  9
$OSMODE
 70
  3839
  9
$ATTMODE
 70
     1
  9
$TEXTSIZE
 40
0.2
  9
$TRACEWID
 40
0.05
  9
$TEXTSTYLE
  7
STANDARD
  9
$CLAYER
  8
0
  9
$CELTYPE
  6
BYLAYER
  9
$CECOLOR
 62
   256
  9
$DIMSCALE
 40
1.0
  9
$DIMASZ
 40
0.1875
  9
$DIMEXO
 40
0.0625
  9
$DIMDLI
 40
0.4443307087
  9
$DIMRND
 40
0.0
  9
$DIMDLE
 40
0.0
  9
$DIMEXE
 40
0.125
  9
$DIMTP
 40
0.01
  9
$DIMTM
 40
0.01
  9
$DIMTXT
 40
2.0
  9
$DIMCEN
 40
0.1052362205
  9
$DIMTSZ
 40
0.0
  9
$DIMTOL
 70
     1
  9
$DIMLIM
 70
     0
  9
$DIMTIH
 70
     1
  9
$DIMTOH
 70
     1
  9
$DIMSE1
 70
     0
  9
$DIMSE2
 70
     0
  9
$DIMTAD
 70
     0
  9
$DIMZIN
 70
     0
  9
$DIMBLK
  1

  9
$DIMASO
 70
     1
  9
$DIMSHO
 70
     1
  9
$DIMPOST
  1
\X
  9
$DIMAPOST
  1

  9
$DIMALT
 70
     1
  9
$DIMALTD
 70
     2
  9
$DIMALTF
 40
25.3999999999999986
  9
$DIMLFAC
 40
1.0
  9
$DIMTOFL
 70
     0
  9
$DIMTVP
 40
0.0
  9
$DIMTIX
 70
     0
  9
$DIMSOXD
 70
     0
  9
$DIMSAH
 70
     0
  9
$DIMBLK1
  1

  9
$DIMBLK2
  1

  9
$DIMSTYLE
  2
STANDARD
  9
$DIMCLRD
 70
     0
  9
$DIMCLRE
 70
     0
  9
$DIMCLRT
 70
     0
  9
$DIMTFAC
 40
1.0
  9
$DIMGAP
 40
0.09
  9
$LUNITS
 70
     2
  9
$LUPREC
 70
     4
  9
$SKETCHINC
 40
0.1
  9
$FILLETRAD
 40
0.0
  9
$AUNITS
 70
     0
  9
$AUPREC
 70
     0
  9
$MENU
  1
.
  9
$ELEVATION
 40
0.0
  9
$PELEVATION
 40
0.0
  9
$THICKNESS
 40
0.0
  9
$LIMCHECK
 70
     0
  9
$BLIPMODE
 70
     0
  9
$CHAMFERA
 40
0.0
  9
$CHAMFERB
 40
0.0
  9
$SKPOLY
 70
     0
  9
$TDCREATE
 40
2458060.468368056230247
  9
$TDUPDATE
 40
2459179.8327083331532776
  9
$TDINDWG
 40
0.5865579861
  9
$TDUSRTIMER
 40
0.5865579861
  9
$USRTIMER
 70
     1
  9
$ANGBASE
 50
0.0
  9
$ANGDIR
 70
     0
  9
$PDMODE
 70
     0
  9
$PDSIZE
 40
0.3125
  9
$PLINEWID
 40
0.0
  9
$COORDS
 70
     1
  9
$SPLFRAME
 70
     0
  9
$SPLINETYPE
 70
     6
  9
$SPLINESEGS
 70
     8
  9
$ATTDIA
 70
     1
  9
$ATTREQ
 70
     1
  9
$HANDLING
 70
     1
  9
$HANDSEED
  5
17310
  9
$SURFTAB1
 70
     6
  9
$SURFTAB2
 70
     6
  9
$SURFTYPE
 70
     6
  9
$SURFU
 70
     6
  9
$SURFV
 70
     6
  9
$UCSNAME
  2

  9
$UCSORG
 10
0.0
 20
0.0
 30
0.0
  9
$UCSXDIR
 10
1.0
 20
0.0
 30
0.0
  9
$UCSYDIR
 10
0.0
 20
1.0
 30
0.0
  9
$PUCSNAME
  2

  9
$PUCSORG
 10
0.0
 20
0.0
 30
0.0
  9
$PUCSXDIR
 10
1.0
 20
0.0
 30
0.0
  9
$PUCSYDIR
 10
0.0
 20
1.0
 30
0.0
  9
$USERI1
 70
     0
  9
$USERI2
 70
     0
  9
$USERI3
 70
     0
  9
$USERI4
 70
     0
  9
$USERI5
 70
     0
  9
$USERR1
 40
0.0
  9
$USERR2
 40
0.0
  9
$USERR3
 40
0.0
  9
$USERR4
 40
0.0
  9
$USERR5
 40
0.0
  9
$WORLDVIEW
 70
     1
  9
$SHADEDGE
 70
     3
  9
$SHADEDIF
 70
    70
  9
$TILEMODE
 70
     1
  9
$MAXACTVP
 70
    64
  9
$PLIMCHECK
 70
     0
  9
$PEXTMIN
 10
1.0000000000000000E+20
 20
1.0000000000000000E+20
 30
1.0000000000000000E+20
  9
$PEXTMAX
 10
-1.0000000000000000E+20
 20
-1.0000000000000000E+20
 30
-1.0000000000000000E+20
  9
$PLIMMIN
 10
0.0
 20
0.0
  9
$PLIMMAX
 10
12.0
 20
9.0
  9
$UNITMODE
 70
     0
  9
$VISRETAIN
 70
     1
  9
$PLINEGEN
 70
     0
  9
$PSLTSCALE
 70
     1
  0
ENDSEC
  0
SECTION
  2
TABLES
  0
TABLE
  2
VPORT
 70
     1
  0
VPORT
  2
*ACTIVE
 70
     0
 10
0.0
 20
0.0
 11
1.0
 21
1.0
 12
0.0
 22
1.9987208302326129
 13
0.0
 23
0.0
 14
1.0
 24
1.0
 15
0.0
 25
0.0
 16
0.0
 26
0.0
 36
246.6774826463150134
 17
3458.26904296875
 27
180.0287857055664063
 37
0.0
 40
63.3709970095841584
 41
3.0887245841035109
 42
50.0
 43
0.0
 44
0.0
 50
0.0
 51
0.0
 71
     0
 72
   100
 73
     1
 74
     1
 75
     0
 76
     0
 77
     0
 78
     0
  0
ENDTAB
  0
TABLE
  2
LTYPE
 70
     2
  0
LTYPE
  2
CONTINUOUS
 70
     0
  3
Solid line
 72
    65
 73
     0
 40
0.0
  0
LTYPE
  2
PHANTOM2
 70
     0
  3
___ _ _ ___ _ _ ___ _ _ ___ _ _
 72
    65
 73
     6
 40
1.25
 49
0.625
 49
-0.125
 49
0.125
 49
-0.125
 49
0.125
 49
-0.125
  0
ENDTAB
  0
TABLE
  2
LAYER
 70
     2
  0
LAYER
  2
0
 70
     0
 62
   255
  6
CONTINUOUS
  0
LAYER
  2
DEFPOINTS
 70
     0
 62
     7
  6
CONTINUOUS
  0
ENDTAB
  0
TABLE
  2
STYLE
 70
     1
  0
STYLE
  2
STANDARD
 70
     0
 40
0.0
 41
0.8
 50
0.0
 71
     0
 42
0.2
  3
txt
  4

  0
ENDTAB
  0
TABLE
  2
VIEW
 70
     0
  0
ENDTAB
  0
TABLE
  2
UCS
 70
     0
  0
ENDTAB
  0
TABLE
  2
APPID
 70
     9
  0
APPID
  2
ACAD
 70
     0
  0
APPID
  2
ACAD_MLEADERVER
 70
     0
  0
APPID
  2
ACAD_EXEMPT_FROM_CAD_STANDARDS
 70
     0
  0
APPID
  2
ACAD_NAV_VCDISPLAY
 70
     0
  0
APPID
  2
ACAECLAYERSTANDARD
 70
     0
  0
APPID
  2
ACCMTRANSPARENCY
 70
     0
  0
APPID
  2
ACAD_DSTYLE_DIMJAG
 70
     0
  0
APPID
  2
ACAD_DSTYLE_DIMTALN
 70
     0
  0
APPID
  2
ACDBATTR
 70
     0
  0
ENDTAB
  0
TABLE
  2
DIMSTYLE
 70
     1
  0
DIMSTYLE
  2
STANDARD
 70
     0
  3

  4

  5

  6

  7

 40
1.0
 41
0.1875
 42
0.0625
 43
0.38
 44
0.125
 45
0.0
 46
0.0
 47
0.01
 48
0.01
140
0.15625
141
0.09
142
0.0
143
25.3999999999999986
144
1.0
145
0.0
146
1.0
147
0.09
 71
     1
 72
     0
 73
     1
 74
     1
 75
     0
 76
     0
 77
     0
 78
     4
170
     0
171
     2
172
     0
173
     0
174
     0
175
     0
176
     0
177
     0
178
     0
  0
ENDTAB
  0
ENDSEC
  0
SECTION
  2
BLOCKS
  0
BLOCK
  8
0
  2
$MODEL_SPACE
 70
     0
 10
0.0
 20
0.0
 30
0.0
  3
$MODEL_SPACE
  1

  0
ENDBLK
  5
21
  8
0
  0
BLOCK
 67
     1
  8
0
  2
$PAPER_SPACE
 70
     0
 10
0.0
 20
0.0
 30
0.0
  3
$PAPER_SPACE
  1

  0
ENDBLK
  5
1D
 67
     1
  8
0
  0
BLOCK
  8
0
  2
_FILLED
 70
     0
 10
0.0
 20
0.0
 30
0.0
  3
_FILLED
  1

  0
SOLID
  5
13356
  8
0
  6
BYBLOCK
 62
     0
 10
0.0
 20
0.0
 30
0.0
 11
-1.0
 21
0.1666666667
 31
0.0
 12
-1.0
 22
-0.1666666667
 32
0.0
 13
-1.0
 23
-0.1666666667
 33
0.0
  0
ENDBLK
  5
13357
  8
0
  6
BYBLOCK
 62
     0
  0
ENDSEC
  0
SECTION
  2
ENTITIES
  0
ATTDEF
  5
12BEB
  8
DEFPOINTS
 10
3458.2205487102478401
 20
162.0770943855370945
 30
0.0
 40
0.001
  1
K-97822T-9
  3

  2
MODELNUMBER
 70
     0
1001
ACDBATTR
1070
     0
1070
     1
  0
ATTDEF
  5
12BEC
  8
DEFPOINTS
 10
3458.2205487102478401
 20
162.0754277188704009
 30
0.0
 40
0.001
  1
ALEO
  3

  2
TRADENAME
 70
     0
1001
ACDBATTR
1070
     0
1070
     1
  0
ATTDEF
  5
12BED
  8
DEFPOINTS
 10
3458.2205487102478401
 20
162.0737610522037926
 30
0.0
 40
0.001
  1
BATH AND SHOWER FAUCET
  3

  2
PRODUCT
 70
     0
1001
ACDBATTR
1070
     0
1070
     1
  0
LINE
  5
16B0A
  8
0
 10
3457.5903934253551597
 20
192.6493189985750121
 30
0.0
 11
3458.5255722718079596
 21
192.6493189985750121
 31
0.0
  0
LINE
  5
16B0B
  8
0
 10
3457.5903934253551597
 20
193.8894764788749114
 30
0.0
 11
3458.8502060238552076
 21
193.8894764788749114
 31
0.0
  0
LINE
  5
16B0C
  8
0
 10
3457.5706934253548752
 20
192.6690189985750123
 30
0.0
 11
3457.5706934253548752
 21
193.8697764788749112
 31
0.0
  0
LINE
  5
16B0D
  8
0
 10
3458.8699060238550373
 20
193.8697764788749112
 30
0.0
 11
3458.8699060238550373
 21
192.8833707846933123
 31
0.0
  0
ARC
  5
16B0E
  8
0
 10
3457.5903934253551597
 20
192.6690189985750123
 30
0.0
 40
0.0197
 50
179.9999999999901945
 51
270.0
  0
ARC
  5
16B0F
  8
0
 10
3457.5903934253551597
 20
193.8697764788749112
 30
0.0
 40
0.0197
 50
90.0
 51
179.9999999999901945
  0
ARC
  5
16B10
  8
0
 10
3458.8502060238552076
 20
193.8697764788749112
 30
0.0
 40
0.0197
 50
0.0
 51
90.0
  0
LINE
  5
16B11
  8
0
 10
3458.8502060238552076
 20
193.9526220760749027
 30
0.0
 11
3457.5903934253551597
 21
193.9526220760749027
 31
0.0
  0
LINE
  5
16B12
  8
0
 10
3458.8502060238552076
 20
194.4250630209749886
 30
0.0
 11
3457.5903934253551597
 21
194.4250630209749886
 31
0.0
  0
LINE
  5
16B13
  8
0
 10
3457.5706934253548752
 20
194.4053630209749883
 30
0.0
 11
3457.5706934253548752
 21
193.972322076074903
 31
0.0
  0
LINE
  5
16B14
  8
0
 10
3458.8699060238550373
 20
193.972322076074903
 30
0.0
 11
3458.8699060238550373
 21
194.4053630209749883
 31
0.0
  0
ARC
  5
16B15
  8
0
 10
3458.8502060238552076
 20
193.972322076074903
 30
0.0
 40
0.0197
 50
269.9999999999739089
 51
0.0
  0
ARC
  5
16B16
  8
0
 10
3458.8502060238552076
 20
194.4053630209749883
 30
0.0
 40
0.0197
 50
0.0
 51
90.0
  0
ARC
  5
16B17
  8
0
 10
3457.5903934253551597
 20
194.4053630209749883
 30
0.0
 40
0.0197
 50
89.9999999999739515
 51
179.9999999999901945
  0
ARC
  5
16B18
  8
0
 10
3457.5903934253551597
 20
193.972322076074903
 30
0.0
 40
0.0197
 50
179.9999999999901945
 51
270.0
  0
LINE
  5
16B19
  8
0
 10
3456.3895962440387848
 20
183.4709597891396129
 30
0.0
 11
3457.6376127794392232
 21
183.4709597891396129
 31
0.0
  0
LINE
  5
16B1A
  8
0
 10
3458.8029671101389795
 20
183.4709597891396129
 30
0.0
 11
3459.0485027221770906
 21
183.4709597891396129
 31
0.0
  0
LINE
  5
16B1B
  8
0
 10
3459.0902899448387871
 20
183.4709597891396129
 30
0.0
 11
3460.3312331033807823
 21
183.4678289630448944
 31
0.0
  0
LINE
  5
16B1C
  8
0
 10
3456.3895962440387848
 20
185.0457629387396139
 30
0.0
 11
3456.8779738694588559
 21
185.0457629387396139
 31
0.0
  0
LINE
  5
16B1D
  8
0
 10
3457.5154454490161697
 20
185.0457629387396139
 30
0.0
 11
3457.6376127794392232
 21
185.0457629387396139
 31
0.0
  0
LINE
  5
16B1E
  8
0
 10
3458.8029671101389795
 20
185.0457629387396139
 30
0.0
 11
3459.0485027221770906
 21
185.0457629387396139
 31
0.0
  0
LINE
  5
16B1F
  8
0
 10
3459.0902899448387871
 20
185.0457629387396139
 30
0.0
 11
3459.7866470496887814
 21
185.0457629387396139
 31
0.0
  0
LINE
  5
16B20
  8
0
 10
3456.369896244038955
 20
185.0260629387396136
 30
0.0
 11
3456.369896244038955
 21
183.4906597891396132
 31
0.0
  0
ARC
  5
16B21
  8
0
 10
3456.3895962440387848
 20
185.0260629387396136
 30
0.0
 40
0.0197
 50
90.0
 51
180.0000000000048885
  0
ARC
  5
16B22
  8
0
 10
3456.3895962440387848
 20
183.4906597891396132
 30
0.0
 40
0.0197
 50
180.0
 51
270.0
  0
LINE
  5
16B23
  8
0
 10
3456.9525625807809774
 20
185.211931162276187
 30
0.0
 11
3456.9083435584830113
 21
185.0345783504726001
 31
0.0
  0
LINE
  5
16B24
  8
0
 10
3457.5406716492589112
 20
185.2023994395864861
 30
0.0
 11
3457.5004302727979848
 21
185.041000094488794
 31
0.0
  0
LINE
  5
16B25
  8
0
 10
3456.9716774065909703
 20
185.2268653009396076
 30
0.0
 11
3457.5215568234539205
 21
185.2268653009396076
 31
0.0
  0
ARC
  5
16B26
  8
0
 10
3456.9716774065909703
 20
185.2071653009396073
 30
0.0
 40
0.0197
 50
90.0
 51
166.0000000203035029
  0
ARC
  5
16B27
  8
0
 10
3457.5215568234539205
 20
185.2071653009396073
 30
0.0
 40
0.0197
 50
345.9999999707665097
 51
89.9999999999739515
  0
ARC
  5
16B28
  8
0
 10
3457.1967096592379676
 20
185.7456345534749005
 30
0.0
 40
0.7673043280813433
 50
246.1089495454249914
 51
293.8910504545750086
  0
ARC
  5
16B29
  8
0
 10
3456.8779738694588559
 20
185.0260629387396136
 30
0.0
 40
0.0197
 50
66.1089495454249629
 51
90.0
  0
ARC
  5
16B2A
  8
0
 10
3457.5154454490161697
 20
185.0260629387393863
 30
0.0
 40
0.0197
 50
90.0000000000521254
 51
113.8910504544051037
  0
LINE
  5
16B2B
  8
0
 10
3457.6376127794392232
 20
183.4316046710395938
 30
0.0
 11
3457.6376127794392232
 21
183.4709597891396129
 31
0.0
  0
LINE
  5
16B2C
  8
0
 10
3458.7360372395451122
 20
183.4119046710395935
 30
0.0
 11
3458.7832671101400592
 21
183.4119046710395935
 31
0.0
  0
ARC
  5
16B2D
  8
0
 10
3458.4542018588631436
 20
182.2692433332859991
 30
0.0
 40
1.3634445130815209
 50
109.3430060945889011
 51
122.820163219148796
  0
ARC
  5
16B2E
  8
0
 10
3458.2195442605811877
 20
182.937711339111587
 30
0.0
 40
0.6549858599164406
 50
72.8284495071064839
 51
109.3430060945889011
  0
ARC
  5
16B2F
  8
0
 10
3457.9867847728642118
 20
182.2636156988193079
 30
0.0
 40
1.3679517927982701
 50
57.3202611870042986
 51
71.849626785226917
  0
ARC
  5
16B30
  8
0
 10
3458.7360372395451122
 20
183.4316046710395085
 30
0.0
 40
0.0197
 50
237.3202611869349141
 51
270.0000000000259774
  0
LINE
  5
16B31
  8
0
 10
3457.7045320218271627
 20
183.4119046710395935
 30
0.0
 11
3457.657312779439053
 21
183.4119046710395935
 31
0.0
  0
ARC
  5
16B32
  8
0
 10
3457.7045320218271627
 20
183.4316046710395938
 30
0.0
 40
0.0197
 50
270.0000000000259774
 51
302.8201632190891814
  0
ARC
  5
16B33
  8
0
 10
3457.657312779439053
 20
183.4316046710395938
 30
0.0
 40
0.0197
 50
179.9999999999901945
 51
270.0
  0
LINE
  5
16B34
  8
0
 10
3458.8029671101389795
 20
183.4316046710395938
 30
0.0
 11
3458.8029671101389795
 21
183.4709597891396129
 31
0.0
  0
ARC
  5
16B35
  8
0
 10
3458.7832671101400592
 20
183.4316046710395938
 30
0.0
 40
0.0197
 50
269.9999999999739089
 51
0.0000000000048853
  0
ARC
  5
16B36
  8
0
 10
3458.9044185747338815
 20
181.6421089171253129
 30
0.0
 40
2.2247454764669699
 50
119.7867868054935059
 51
124.7095156102094933
  0
ARC
  5
16B37
  8
0
 10
3458.3964893938441492
 20
182.5294777187797877
 30
0.0
 40
1.202289881856756
 50
107.600825220291398
 51
119.7867868054935059
  0
ARC
  5
16B38
  8
0
 10
3458.2211723395739682
 20
183.0821194818439039
 30
0.0
 40
0.6225063120649317
 50
70.558044590053413
 51
107.600825220291398
  0
ARC
  5
16B39
  8
0
 10
3457.9631299306479377
 20
182.3510774034128872
 30
0.0
 40
1.397753630822772
 50
56.135273432013939
 51
70.558044590053413
  0
ARC
  5
16B3A
  8
0
 10
3470.0305085732338739
 20
200.333135007289286
 30
0.0
 40
20.2581006116835916
 50
236.1352734320138893
 51
236.3426634909729955
  0
LINE
  5
16B3B
  8
0
 10
3457.6376127794392232
 20
185.0851180568396046
 30
0.0
 11
3457.6376127794392232
 21
185.0457629387396139
 31
0.0
  0
LINE
  5
16B3C
  8
0
 10
3458.7360372395451122
 20
185.1048180568396049
 30
0.0
 11
3458.7832671101400592
 21
185.1048180568396049
 31
0.0
  0
ARC
  5
16B3D
  8
0
 10
3458.4542018588631436
 20
186.2474793945931992
 30
0.0
 40
1.3634445130815209
 50
237.1798367808511045
 51
250.6569939054110989
  0
ARC
  5
16B3E
  8
0
 10
3458.2195442605811877
 20
185.5790113887676114
 30
0.0
 40
0.6549858599164406
 50
250.6569939054110989
 51
287.1715504928935161
  0
ARC
  5
16B3F
  8
0
 10
3457.9867847728642118
 20
186.2531070290598905
 30
0.0
 40
1.3679517927982701
 50
288.150373214773083
 51
302.6797388129957085
  0
ARC
  5
16B40
  8
0
 10
3458.7360372395451122
 20
185.0851180568396899
 30
0.0
 40
0.0197
 50
89.9999999999739515
 51
122.6797388130650006
  0
LINE
  5
16B41
  8
0
 10
3457.7045320218271627
 20
185.1048180568396049
 30
0.0
 11
3457.657312779439053
 21
185.1048180568396049
 31
0.0
  0
ARC
  5
16B42
  8
0
 10
3457.7045320218271627
 20
185.0851180568396046
 30
0.0
 40
0.0197
 50
57.1798367809107972
 51
89.9999999999739515
  0
ARC
  5
16B43
  8
0
 10
3457.657312779439053
 20
185.0851180568396046
 30
0.0
 40
0.0197
 50
89.9999999999739515
 51
180.0000000000098055
  0
LINE
  5
16B44
  8
0
 10
3458.8029671101389795
 20
185.0851180568396046
 30
0.0
 11
3458.8029671101389795
 21
185.0457629387396139
 31
0.0
  0
ARC
  5
16B45
  8
0
 10
3458.7832671101400592
 20
185.0851180568396046
 30
0.0
 40
0.0197
 50
359.9999999999951115
 51
90.0
  0
ARC
  5
16B46
  8
0
 10
3458.9044185747338815
 20
186.8746138107538002
 30
0.0
 40
2.2247454764669699
 50
235.2904843897904072
 51
240.2132131945064941
  0
ARC
  5
16B47
  8
0
 10
3458.3964893938441492
 20
185.9872450090994107
 30
0.0
 40
1.202289881856756
 50
240.2132131945064941
 51
252.3991747797084884
  0
ARC
  5
16B48
  8
0
 10
3458.2211723395739682
 20
185.4346032460352944
 30
0.0
 40
0.6225063120649317
 50
252.3991747797084884
 51
289.4419554099465017
  0
ARC
  5
16B49
  8
0
 10
3457.9631299306479377
 20
186.1656453244663965
 30
0.0
 40
1.397753630822772
 50
289.4419554099465017
 51
303.864726567985997
  0
ARC
  5
16B4A
  8
0
 10
3470.0305085732338739
 20
168.1835877205897987
 30
0.0
 40
20.2581006116835916
 50
123.6573365090053045
 51
123.864726567985997
  0
LINE
  5
16B4B
  8
0
 10
3460.6655607921188675
 20
183.4785696195957883
 30
0.0
 11
3460.3312331033807823
 21
183.4678289630448091
 31
0.0
  0
LINE
  5
16B4C
  8
0
 10
3460.6856920247391827
 20
183.4991642853406972
 30
0.0
 11
3460.6856920247391827
 21
184.7464311058286057
 31
0.0
  0
ARC
  5
16B4D
  8
0
 10
3460.6650920247388967
 20
183.4991642853406972
 30
0.0
 40
0.0206
 50
271.3039180072203749
 51
0.0
  0
LINE
  5
16B4E
  8
0
 10
3459.0902899448387871
 20
183.4709597891396129
 30
0.0
 11
3459.0902899448387871
 21
185.0457629387396139
 31
0.0
  0
LINE
  5
16B4F
  8
0
 10
3459.0485027221770906
 20
184.9394637261395928
 30
0.0
 11
3459.0902899448387871
 21
184.9394637261395928
 31
0.0
  0
LINE
  5
16B50
  8
0
 10
3459.0485027221770906
 20
183.5772590017396055
 30
0.0
 11
3459.0902899448387871
 21
183.5772590017396055
 31
0.0
  0
ARC
  5
16B51
  8
0
 10
3458.2202997246549785
 20
193.2693977386749111
 30
0.0
 40
1.2401574802999991
 50
108.5094049816960933
 51
111.2718185656579948
  0
ARC
  5
16B52
  8
0
 10
3458.2202997246549785
 20
193.2693977386749111
 30
0.0
 40
1.2401574802999991
 50
121.5881355103507957
 51
246.6201318815780041
  0
ARC
  5
16B53
  8
0
 10
3458.2202997246549785
 20
193.2693977386749111
 30
0.0
 40
1.2401574802999991
 50
352.8045588775507895
 51
58.4118644950643784
  0
ARC
  5
16B54
  8
0
 10
3458.2202997246549785
 20
193.2693977386749111
 30
0.0
 40
1.2401574802999991
 50
68.728181434341991
 51
71.4905950183039351
  0
LINE
  5
16B55
  8
0
 10
3457.8265989372548574
 20
207.6296339592250035
 30
0.0
 11
3458.6140005119550551
 21
207.6296339592250035
 31
0.0
  0
LINE
  5
16B56
  8
0
 10
3457.8561264962550013
 20
207.5115237323749966
 30
0.0
 11
3457.8561264962550013
 21
207.6296339592250035
 31
0.0
  0
ARC
  5
16B57
  8
0
 10
3458.2202997246549785
 20
210.3855394710249982
 30
0.0
 40
0.3937007873999967
 50
90.0000000072693638
 51
180.0
  0
ARC
  5
16B58
  8
0
 10
3460.1649023692161791
 20
185.2577813257836112
 30
0.0
 40
0.595795150378115
 50
292.273194850623895
 51
305.8252483892331952
  0
ARC
  5
16B59
  8
0
 10
3460.2264996758181042
 20
185.1073912045804093
 30
0.0
 40
0.4332792535058774
 50
261.9624231666895184
 51
292.273194850623895
  0
ARC
  5
16B5A
  8
0
 10
3460.2462310534638164
 20
185.1688477913575923
 30
0.0
 40
0.4970115352014585
 50
234.383613858926708
 51
260.7006290632227206
  0
ARC
  5
16B5B
  8
0
 10
3460.3606597914467784
 20
185.3527147256326941
 30
0.0
 40
0.71325991666443
 50
223.3755584356269992
 51
235.5125469405467982
  0
LINE
  5
16B5C
  8
0
 10
3458.7714808269552123
 20
193.9526220760749027
 30
0.0
 11
3458.7714808269552123
 21
193.8894764788749114
 31
0.0
  0
LINE
  5
16B5D
  8
0
 10
3457.6691186222551551
 20
193.8894764788749114
 30
0.0
 11
3457.6691186222551551
 21
193.9526220760749027
 31
0.0
  0
ARC
  5
16B5E
  8
0
 10
3458.5134705434288662
 20
186.3469509344172934
 30
0.0
 40
1.536017263469627
 50
235.2348856214711077
 51
249.1855189733319094
  0
ARC
  5
16B5F
  8
0
 10
3458.2205188161028673
 20
185.577839764449493
 30
0.0
 40
0.713003234503237
 50
249.228434801546797
 51
280.6531204054195996
  0
ARC
  5
16B60
  8
0
 10
3458.0313086244577789
 20
186.1648290366246954
 30
0.0
 40
1.3271143953682829
 50
283.9982102574851979
 51
305.5530076688904728
  0
ARC
  5
16B61
  8
0
 10
3458.5085664449679825
 20
182.1761977787176079
 30
0.0
 40
1.527941999156734
 50
110.0647313337678952
 51
124.7514454986413028
  0
ARC
  5
16B62
  8
0
 10
3458.2191640891410316
 20
182.9662850182104137
 30
0.0
 40
0.6865204400891524
 50
73.9224359996195375
 51
110.0002272433976032
  0
ARC
  5
16B63
  8
0
 10
3457.9687774785797956
 20
182.2377465158832024
 30
0.0
 40
1.4564235771351841
 50
55.0566797451488696
 51
72.3945581883784541
  0
LINE
  5
16B64
  8
0
 10
3457.7910257712251223
 20
193.9526220760749027
 30
0.0
 11
3457.7910257712251223
 21
194.4250630209749886
 31
0.0
  0
ARC
  5
16B65
  8
0
 10
3459.8197682907480157
 20
184.9636716918722925
 30
0.0
 40
0.0389358560982361
 50
141.6888355151367875
 51
204.5529233291464095
  0
ARC
  5
16B66
  8
0
 10
3460.0535285989099066
 20
185.0694350025310939
 30
0.0
 40
0.295508739103215
 50
204.3715798825018055
 51
224.3496844028674104
  0
LINE
  5
16B67
  8
0
 10
3460.5136302241407975
 20
184.7747070619140004
 30
0.0
 11
3460.6856920247391827
 21
184.7464311058286057
 31
0.0
  0
LINE
  5
16B68
  8
0
 10
3459.0485027221770906
 20
185.0457629387396139
 30
0.0
 11
3459.0485027221770906
 21
183.4709597891396129
 31
0.0
  0
LINE
  5
16B69
  8
0
 10
3458.5844729529549113
 20
207.5115237323749966
 30
0.0
 11
3457.8561264962550013
 21
207.5115237323749966
 31
0.0
  0
LINE
  5
16B6A
  8
0
 10
3457.8561264962550013
 20
207.5115237323749966
 30
0.0
 11
3457.8069138977548391
 21
207.4623111352750016
 31
0.0
  0
LINE
  5
16B6B
  8
0
 10
3457.8069138977548391
 20
207.4623111352750016
 30
0.0
 11
3457.8069138977548391
 21
207.4198229355748992
 31
0.0
  0
LINE
  5
16B6C
  8
0
 10
3458.5844729529549113
 20
207.5115237323749966
 30
0.0
 11
3458.5844729529549113
 21
207.6296339592250035
 31
0.0
  0
ARC
  5
16B6D
  8
0
 10
3458.2202997245549341
 20
210.3855394710249982
 30
0.0
 40
0.3937007873999967
 50
0.0
 51
89.9999999927306362
  0
LINE
  5
16B6E
  8
0
 10
3458.5844729529549113
 20
207.5115237323749966
 30
0.0
 11
3458.6336855514550734
 21
207.4623111352750016
 31
0.0
  0
LINE
  5
16B6F
  8
0
 10
3458.6336855514550734
 20
207.4623111352750016
 30
0.0
 11
3458.6336855514550734
 21
207.4198229355748992
 31
0.0
  0
LINE
  5
16B70
  8
0
 10
3458.6140005119550551
 20
210.3855394710249982
 30
0.0
 11
3458.6140005119550551
 21
207.4819961742149985
 31
0.0
  0
LINE
  5
16B71
  8
0
 10
3458.6140005119550551
 20
205.0217071241268059
 30
0.0
 11
3458.6140005119550551
 21
194.4250630209749886
 31
0.0
  0
LINE
  5
16B72
  8
0
 10
3458.7124257089549246
 20
190.5977914535928051
 30
0.0
 11
3458.7124257089549246
 21
185.0934789251884069
 31
0.0
  0
LINE
  5
16B73
  8
0
 10
3457.7281737402549879
 20
192.6493189985750121
 30
0.0
 11
3457.7281737402549879
 21
185.0934789251884069
 31
0.0
  0
LINE
  5
16B74
  8
0
 10
3457.8265989372548574
 20
205.0217071262613047
 30
0.0
 11
3457.8265989372548574
 21
194.4250630209749886
 31
0.0
  0
LINE
  5
16B75
  8
0
 10
3457.8265989372548574
 20
210.3855394710249982
 30
0.0
 11
3457.8265989372548574
 21
207.4819961742149985
 31
0.0
  0
ARC
  5
16B76
  8
0
 10
3461.1235543430238977
 20
190.7271379149275106
 30
0.0
 40
0.0158605807137526
 50
324.2394184961652854
 51
67.0033838462698981
  0
ARC
  5
16B77
  8
0
 10
3461.0946570028791029
 20
190.7562068045556032
 30
0.0
 40
0.0566950177214783
 50
246.4731974511296073
 51
317.4517227797161922
  0
ARC
  5
16B78
  8
0
 10
3461.0764835544609923
 20
190.719576644850406
 30
0.0
 40
0.0159861554976066
 50
152.4446030863057047
 51
253.8076090149442905
  0
ARC
  5
16B79
  8
0
 10
3461.1051155400500647
 20
190.6928628033504083
 30
0.0
 40
0.0547327900958636
 50
63.2499767706408633
 51
141.4502634687277975
  0
ARC
  5
16B7A
  8
0
 10
3461.1662598983248245
 20
190.7406868595253115
 30
0.0
 40
0.0486730783452054
 50
319.1578359819349089
 51
61.2885480124258066
  0
ARC
  5
16B7B
  8
0
 10
3461.0871727906560409
 20
190.8154791324159874
 30
0.0
 40
0.1574910575545338
 50
242.5655543709669928
 51
317.3893934999989028
  0
ARC
  5
16B7C
  8
0
 10
3461.038243647040872
 20
190.7227351059898126
 30
0.0
 40
0.0526384696859408
 50
150.5540833620383978
 51
243.3234032705927916
  0
ARC
  5
16B7D
  8
0
 10
3461.1125790912269622
 20
190.6436946396794099
 30
0.0
 40
0.1595290558649843
 50
61.1140649164381173
 51
138.8775098927004024
  0
LINE
  5
16B7E
  8
0
 10
3461.214932670844064
 20
190.7408594019699137
 30
0.0
 11
3461.2190639338459732
 21
190.7839777789062055
 31
0.0
  0
ARC
  5
16B7F
  8
0
 10
3461.1800858735859947
 20
190.7689881923496955
 30
0.0
 40
0.0417609493044361
 50
328.0191707770679272
 51
29.0545641892025905
  0
ARC
  5
16B80
  8
0
 10
3461.1241233416499199
 20
190.7038495691550963
 30
0.0
 40
0.1258843011852876
 50
42.7308816232725732
 51
91.8063237887285766
  0
ARC
  5
16B81
  8
0
 10
3461.1087463189378468
 20
190.6665915489577117
 30
0.0
 40
0.1634783664592842
 50
85.9981239425629553
 51
136.4914950191663934
  0
ARC
  5
16B82
  8
0
 10
3461.0256082074538426
 20
190.7471826979642913
 30
0.0
 40
0.0477120670867652
 50
137.9483835643085001
 51
213.0788411731743963
  0
LINE
  5
16B83
  8
0
 10
3460.9856228726089284
 20
190.7213703389103046
 30
0.0
 11
3460.9820390524200775
 21
190.7666292934320893
 31
0.0
  0
ARC
  5
16B84
  8
0
 10
3461.555914608751209
 20
190.8581931137385084
 30
0.0
 40
0.0102232792820635
 50
320.1661347978127878
 51
69.0763881104431903
  0
ARC
  5
16B85
  8
0
 10
3461.5345323782339619
 20
190.8760295383250991
 30
0.0
 40
0.0380681679321529
 50
253.6225302683155007
 51
320.1661347978115941
  0
ARC
  5
16B86
  8
0
 10
3461.5270355818947792
 20
190.8505205797517874
 30
0.0
 40
0.0114804090412692
 50
147.6195894756775999
 51
253.6225302683155007
  0
ARC
  5
16B87
  8
0
 10
3461.5464274486780596
 20
190.8317970226306102
 30
0.0
 40
0.0382709979693845
 50
69.9224314584453168
 51
139.4670564415270917
  0
ARC
  5
16B88
  8
0
 10
3461.5769605794189374
 20
190.8700249670698099
 30
0.0
 40
0.0278277611967817
 50
318.0431887654643788
 51
56.5040373540970933
  0
ARC
  5
16B89
  8
0
 10
3461.5292036431860652
 20
190.9072460892892877
 30
0.0
 40
0.0883293699154341
 50
246.1535248913158114
 51
320.8006819835379133
  0
ARC
  5
16B8A
  8
0
 10
3461.5070665559178451
 20
190.8532828318415966
 30
0.0
 40
0.0300640914076377
 50
144.4852524984854085
 51
243.1612748828532915
  0
ARC
  5
16B8B
  8
0
 10
3461.551971574685922
 20
190.8111558604593085
 30
0.0
 40
0.0914560481217059
 50
63.8222294724333068
 51
139.3386335615788028
  0
LINE
  5
16B8C
  8
0
 10
3461.6047209783660037
 20
190.871960049388008
 30
0.0
 11
3461.6100041558511293
 21
190.9383728332306021
 31
0.0
  0
ARC
  5
16B8D
  8
0
 10
3461.5883722056291845
 20
190.9210276688725116
 30
0.0
 40
0.0277271707354273
 50
312.1796146265483003
 51
41.9374134521764788
  0
ARC
  5
16B8E
  8
0
 10
3461.5592420388870778
 20
190.8587354282391004
 30
0.0
 40
0.0949102752243234
 50
58.382932761868517
 51
108.1448976636943939
  0
ARC
  5
16B8F
  8
0
 10
3461.5538066436479312
 20
190.8400023503077136
 30
0.0
 40
0.1115626171787395
 50
102.4869038774973973
 51
136.8909041366659096
  0
ARC
  5
16B90
  8
0
 10
3461.4918235534319138
 20
190.8945147019624073
 30
0.0
 40
0.029171141471741
 50
131.8530034892224876
 51
231.5572467250892998
  0
LINE
  5
16B91
  8
0
 10
3461.4771710418531256
 20
190.8501035503294929
 30
0.0
 11
3461.4674143688780532
 21
190.9104880298619946
 31
0.0
  0
ARC
  5
16B92
  8
0
 10
3461.0294670997509456
 20
190.960714024438488
 30
0.0
 40
0.0102232792820635
 50
320.1661347978127878
 51
69.0763881104431903
  0
ARC
  5
16B93
  8
0
 10
3461.0080848692341533
 20
190.9785504490251071
 30
0.0
 40
0.0380681679321529
 50
253.6225302683155007
 51
320.1661347978115941
  0
ARC
  5
16B94
  8
0
 10
3461.0005880728949705
 20
190.9530414904517954
 30
0.0
 40
0.0114804090412692
 50
147.6195894756775999
 51
253.6225302683155007
  0
ARC
  5
16B95
  8
0
 10
3461.0199799396777962
 20
190.9343179333305898
 30
0.0
 40
0.0382709979693845
 50
69.9224314584453168
 51
139.4670564415270917
  0
ARC
  5
16B96
  8
0
 10
3461.0505130704191288
 20
190.9725458777697895
 30
0.0
 40
0.0278277611967817
 50
318.0431887654643788
 51
56.5040373540970933
  0
ARC
  5
16B97
  8
0
 10
3461.0027561341858018
 20
191.0097669999892105
 30
0.0
 40
0.0883293699154341
 50
246.1535248913158114
 51
320.8006819835379133
  0
ARC
  5
16B98
  8
0
 10
3460.9806190469180365
 20
190.9558037425416046
 30
0.0
 40
0.0300640914076377
 50
144.4852524984854085
 51
243.1612748828532915
  0
ARC
  5
16B99
  8
0
 10
3461.0255240656861133
 20
190.9136767711594018
 30
0.0
 40
0.0914560481217059
 50
63.8222294724333068
 51
139.3386335615788028
  0
LINE
  5
16B9A
  8
0
 10
3461.0782734693648308
 20
190.9744809600879876
 30
0.0
 11
3461.0835566468499565
 21
191.0408937439304964
 31
0.0
  0
ARC
  5
16B9B
  8
0
 10
3461.0619246966289211
 20
191.0235485795724912
 30
0.0
 40
0.0277271707354273
 50
312.1796146265483003
 51
41.9374134521764788
  0
ARC
  5
16B9C
  8
0
 10
3461.0327945298868144
 20
190.9612563389391084
 30
0.0
 40
0.0949102752243234
 50
58.382932761868517
 51
108.1448976636943939
  0
ARC
  5
16B9D
  8
0
 10
3461.0273591346481226
 20
190.9425232610076932
 30
0.0
 40
0.1115626171787395
 50
102.4869038774973973
 51
136.8909041366659096
  0
ARC
  5
16B9E
  8
0
 10
3460.9653760444321051
 20
190.9970356126623869
 30
0.0
 40
0.029171141471741
 50
131.8530034892224876
 51
231.5572467250892998
  0
LINE
  5
16B9F
  8
0
 10
3460.9507235328519528
 20
190.9526244610295009
 30
0.0
 11
3460.9409668598777898
 21
191.0130089405620026
 31
0.0
  0
ARC
  5
16BA0
  8
0
 10
3461.9582042222509699
 20
191.1609252284384866
 30
0.0
 40
0.0102232792820635
 50
320.1661347978127878
 51
69.0763881104431903
  0
ARC
  5
16BA1
  8
0
 10
3461.9368219917341776
 20
191.1787616530251057
 30
0.0
 40
0.0380681679321529
 50
253.6225302683155007
 51
320.1661347978115941
  0
ARC
  5
16BA2
  8
0
 10
3461.9293251953949948
 20
191.153252694451794
 30
0.0
 40
0.0114804090412692
 50
147.6195894756775999
 51
253.6225302683155007
  0
ARC
  5
16BA3
  8
0
 10
3461.9487170621778205
 20
191.1345291373305884
 30
0.0
 40
0.0382709979693845
 50
69.9224314584453168
 51
139.4670564415270917
  0
ARC
  5
16BA4
  8
0
 10
3461.9792501929191531
 20
191.1727570817699018
 30
0.0
 40
0.0278277611967817
 50
318.0431887654643788
 51
56.5040373540970933
  0
ARC
  5
16BA5
  8
0
 10
3461.9314932566858261
 20
191.2099782039892943
 30
0.0
 40
0.0883293699154341
 50
246.1535248913158114
 51
320.8006819835379133
  0
ARC
  5
16BA6
  8
0
 10
3461.9093561694180607
 20
191.1560149465416032
 30
0.0
 40
0.0300640914076377
 50
144.4852524984854085
 51
243.1612748828532915
  0
ARC
  5
16BA7
  8
0
 10
3461.9542611881861376
 20
191.1138879751592867
 30
0.0
 40
0.0914560481217059
 50
63.8222294724333068
 51
139.3386335615788028
  0
LINE
  5
16BA8
  8
0
 10
3462.0070105918662193
 20
191.1746921640879862
 30
0.0
 11
3462.0122937693499807
 21
191.241104947930495
 31
0.0
  0
ARC
  5
16BA9
  8
0
 10
3461.9906618191289454
 20
191.2237597835724898
 30
0.0
 40
0.0277271707354273
 50
312.1796146265483003
 51
41.9374134521764788
  0
ARC
  5
16BAA
  8
0
 10
3461.9615316523882029
 20
191.161467542939107
 30
0.0
 40
0.0949102752243234
 50
58.382932761868517
 51
108.1448976636943939
  0
ARC
  5
16BAB
  8
0
 10
3461.9560962571481468
 20
191.1427344650076918
 30
0.0
 40
0.1115626171787395
 50
102.4869038774973973
 51
136.8909041366659096
  0
ARC
  5
16BAC
  8
0
 10
3461.8941131669321294
 20
191.1972468166624139
 30
0.0
 40
0.029171141471741
 50
131.8530034892224876
 51
231.5572467250892998
  0
LINE
  5
16BAD
  8
0
 10
3461.8794606553528865
 20
191.1528356650294995
 30
0.0
 11
3461.8697039823778141
 21
191.2132201445620012
 31
0.0
  0
ARC
  5
16BAE
  8
0
 10
3461.6699998651010901
 20
191.4054005730384915
 30
0.0
 40
0.0102232792820635
 50
320.1661347978127878
 51
69.0763881104431903
  0
ARC
  5
16BAF
  8
0
 10
3461.648617634583843
 20
191.4232369976251107
 30
0.0
 40
0.0380681679321529
 50
253.6225302683155007
 51
320.1661347978115941
  0
ARC
  5
16BB0
  8
0
 10
3461.6411208382442055
 20
191.397728039051799
 30
0.0
 40
0.0114804090412692
 50
147.6195894756775999
 51
253.6225302683155007
  0
ARC
  5
16BB1
  8
0
 10
3461.6605127050288502
 20
191.3790044819305933
 30
0.0
 40
0.0382709979693845
 50
69.9224314584453168
 51
139.4670564415270917
  0
ARC
  5
16BB2
  8
0
 10
3461.6910458357688185
 20
191.4172324263699068
 30
0.0
 40
0.0278277611967817
 50
318.0431887654643788
 51
56.5040373540970933
  0
ARC
  5
16BB3
  8
0
 10
3461.6432888995359463
 20
191.4544535485892993
 30
0.0
 40
0.0883293699154341
 50
246.1535248913158114
 51
320.8006819835379133
  0
ARC
  5
16BB4
  8
0
 10
3461.6211518122681809
 20
191.4004902911416082
 30
0.0
 40
0.0300640914076377
 50
144.4852524984854085
 51
243.1612748828532915
  0
ARC
  5
16BB5
  8
0
 10
3461.666056831035803
 20
191.3583633197592917
 30
0.0
 40
0.0914560481217059
 50
63.8222294724333068
 51
139.3386335615788028
  0
LINE
  5
16BB6
  8
0
 10
3461.7188062347158848
 20
191.4191675086879911
 30
0.0
 11
3461.7240894122001009
 21
191.4855802925304999
 31
0.0
  0
ARC
  5
16BB7
  8
0
 10
3461.7024574619781561
 20
191.4682351281724948
 30
0.0
 40
0.0277271707354273
 50
312.1796146265483003
 51
41.9374134521764788
  0
ARC
  5
16BB8
  8
0
 10
3461.6733272952369589
 20
191.405942887539112
 30
0.0
 40
0.0949102752243234
 50
58.382932761868517
 51
108.1448976636943939
  0
ARC
  5
16BB9
  8
0
 10
3461.6678918999978123
 20
191.3872098096076968
 30
0.0
 40
0.1115626171787395
 50
102.4869038774973973
 51
136.8909041366659096
  0
ARC
  5
16BBA
  8
0
 10
3461.6059088097817948
 20
191.4417221612623905
 30
0.0
 40
0.029171141471741
 50
131.8530034892224876
 51
231.5572467250892998
  0
LINE
  5
16BBB
  8
0
 10
3461.5912562982020972
 20
191.3973110096295045
 30
0.0
 11
3461.5814996252279343
 21
191.4576954891620062
 31
0.0
  0
ARC
  5
16BBC
  8
0
 10
3461.8186204585599626
 20
191.8249020936837042
 30
0.0
 40
0.0102232792820635
 50
320.1661347978127878
 51
69.0763881104431903
  0
ARC
  5
16BBD
  8
0
 10
3461.797238228041806
 20
191.8427385182702949
 30
0.0
 40
0.0380681679321529
 50
253.6225302683155007
 51
320.1661347978115941
  0
ARC
  5
16BBE
  8
0
 10
3461.7897414317039875
 20
191.8172295596970116
 30
0.0
 40
0.0114804090412692
 50
147.6195894756775999
 51
253.6225302683155007
  0
ARC
  5
16BBF
  8
0
 10
3461.8091332984868131
 20
191.798506002575806
 30
0.0
 40
0.0382709979693845
 50
69.9224314584453168
 51
139.4670564415270917
  0
ARC
  5
16BC0
  8
0
 10
3461.8396664292281457
 20
191.836733947015091
 30
0.0
 40
0.0278277611967817
 50
318.0431887654643788
 51
56.5040373540970933
  0
ARC
  5
16BC1
  8
0
 10
3461.7919094929939092
 20
191.8739550692345119
 30
0.0
 40
0.0883293699154341
 50
246.1535248913158114
 51
320.8006819835379133
  0
ARC
  5
16BC2
  8
0
 10
3461.7697724057270534
 20
191.8199918117867924
 30
0.0
 40
0.0300640914076377
 50
144.4852524984854085
 51
243.1612748828532915
  0
ARC
  5
16BC3
  8
0
 10
3461.8146774244942208
 20
191.7778648404045043
 30
0.0
 40
0.0914560481217059
 50
63.8222294724333068
 51
139.3386335615788028
  0
LINE
  5
16BC4
  8
0
 10
3461.8674268281738478
 20
191.8386690293332038
 30
0.0
 11
3461.8727100056589734
 21
191.9050818131757978
 31
0.0
  0
ARC
  5
16BC5
  8
0
 10
3461.8510780554370285
 20
191.8877366488177074
 30
0.0
 40
0.0277271707354273
 50
312.1796146265483003
 51
41.9374134521764788
  0
ARC
  5
16BC6
  8
0
 10
3461.8219478886958314
 20
191.8254444081844099
 30
0.0
 40
0.0949102752243234
 50
58.382932761868517
 51
108.1448976636943939
  0
ARC
  5
16BC7
  8
0
 10
3461.8165124934557753
 20
191.8067113302529094
 30
0.0
 40
0.1115626171787395
 50
102.4869038774973973
 51
136.8909041366659096
  0
ARC
  5
16BC8
  8
0
 10
3461.7545294032402126
 20
191.8612236819076031
 30
0.0
 40
0.029171141471741
 50
131.8530034892224876
 51
231.5572467250892998
  0
LINE
  5
16BC9
  8
0
 10
3461.7398768916609697
 20
191.8168125302746887
 30
0.0
 11
3461.7301202186868068
 21
191.8771970098071904
 31
0.0
  0
ARC
  5
16BCA
  8
0
 10
3461.3334109095048916
 20
191.9149824402377931
 30
0.0
 40
0.0102232792820635
 50
320.1661347978127878
 51
69.0763881104431903
  0
ARC
  5
16BCB
  8
0
 10
3461.3120286789880993
 20
191.9328188648244122
 30
0.0
 40
0.0380681679321529
 50
253.6225302683155007
 51
320.1661347978115941
  0
ARC
  5
16BCC
  8
0
 10
3461.3045318826489165
 20
191.9073099062511005
 30
0.0
 40
0.0114804090412692
 50
147.6195894756775999
 51
253.6225302683155007
  0
ARC
  5
16BCD
  8
0
 10
3461.3239237494321969
 20
191.8885863491298096
 30
0.0
 40
0.0382709979693845
 50
69.9224314584453168
 51
139.4670564415270917
  0
ARC
  5
16BCE
  8
0
 10
3461.3544568801730748
 20
191.9268142935690946
 30
0.0
 40
0.0278277611967817
 50
318.0431887654643788
 51
56.5040373540970933
  0
ARC
  5
16BCF
  8
0
 10
3461.3066999439402025
 20
191.9640354157884872
 30
0.0
 40
0.0883293699154341
 50
246.1535248913158114
 51
320.8006819835379133
  0
ARC
  5
16BD0
  8
0
 10
3461.2845628566719824
 20
191.9100721583409097
 30
0.0
 40
0.0300640914076377
 50
144.4852524984854085
 51
243.1612748828532915
  0
ARC
  5
16BD1
  8
0
 10
3461.3294678754400593
 20
191.8679451869585932
 30
0.0
 40
0.0914560481217059
 50
63.8222294724333068
 51
139.3386335615788028
  0
LINE
  5
16BD2
  8
0
 10
3461.3822172791187768
 20
191.9287493758872074
 30
0.0
 11
3461.3875004566039024
 21
191.9951621597298015
 31
0.0
  0
ARC
  5
16BD3
  8
0
 10
3461.3658685063828671
 20
191.9778169953717963
 30
0.0
 40
0.0277271707354273
 50
312.1796146265483003
 51
41.9374134521764788
  0
ARC
  5
16BD4
  8
0
 10
3461.3367383396421246
 20
191.9155247547384135
 30
0.0
 40
0.0949102752243234
 50
58.382932761868517
 51
108.1448976636943939
  0
ARC
  5
16BD5
  8
0
 10
3461.331302944401159
 20
191.8967916768069131
 30
0.0
 40
0.1115626171787395
 50
102.4869038774973973
 51
136.8909041366659096
  0
ARC
  5
16BD6
  8
0
 10
3461.2693198541851416
 20
191.951304028461692
 30
0.0
 40
0.029171141471741
 50
131.8530034892224876
 51
231.5572467250892998
  0
LINE
  5
16BD7
  8
0
 10
3461.2546673426068082
 20
191.9068928768286924
 30
0.0
 11
3461.2449106696321905
 21
191.9672773563613077
 31
0.0
  0
ARC
  5
16BD8
  8
0
 10
3461.1791835045009975
 20
192.3385426970885135
 30
0.0
 40
0.0102232792820635
 50
320.1661347978127878
 51
69.0763881104431903
  0
ARC
  5
16BD9
  8
0
 10
3461.1578012739842052
 20
192.3563791216751042
 30
0.0
 40
0.0380681679321529
 50
253.6225302683155007
 51
320.1661347978115941
  0
ARC
  5
16BDA
  8
0
 10
3461.1503044776450224
 20
192.3308701631017925
 30
0.0
 40
0.0114804090412692
 50
147.6195894756775999
 51
253.6225302683155007
  0
ARC
  5
16BDB
  8
0
 10
3461.1696963444278481
 20
192.3121466059805869
 30
0.0
 40
0.0382709979693845
 50
69.9224314584453168
 51
139.4670564415270917
  0
ARC
  5
16BDC
  8
0
 10
3461.2002294751691807
 20
192.3503745504199003
 30
0.0
 40
0.0278277611967817
 50
318.0431887654643788
 51
56.5040373540970933
  0
ARC
  5
16BDD
  8
0
 10
3461.1524725389358537
 20
192.3875956726392928
 30
0.0
 40
0.0883293699154341
 50
246.1535248913158114
 51
320.8006819835379133
  0
ARC
  5
16BDE
  8
0
 10
3461.1303354516680884
 20
192.3336324151916017
 30
0.0
 40
0.0300640914076377
 50
144.4852524984854085
 51
243.1612748828532915
  0
ARC
  5
16BDF
  8
0
 10
3461.175240470434801
 20
192.2915054438093136
 30
0.0
 40
0.0914560481217059
 50
63.8222294724333068
 51
139.3386335615788028
  0
LINE
  5
16BE0
  8
0
 10
3461.2279898741157922
 20
192.3523096327380131
 30
0.0
 11
3461.2332730516000083
 21
192.4187224165804935
 31
0.0
  0
ARC
  5
16BE1
  8
0
 10
3461.211641101378973
 20
192.4013772522224883
 30
0.0
 40
0.0277271707354273
 50
312.1796146265483003
 51
41.9374134521764788
  0
ARC
  5
16BE2
  8
0
 10
3461.1825109346377758
 20
192.3390850115891055
 30
0.0
 40
0.0949102752243234
 50
58.382932761868517
 51
108.1448976636943939
  0
ARC
  5
16BE3
  8
0
 10
3461.1770755393981744
 20
192.3203519336576903
 30
0.0
 40
0.1115626171787395
 50
102.4869038774973973
 51
136.8909041366659096
  0
ARC
  5
16BE4
  8
0
 10
3461.115092449182157
 20
192.3748642853124124
 30
0.0
 40
0.029171141471741
 50
131.8530034892224876
 51
231.5572467250892998
  0
LINE
  5
16BE5
  8
0
 10
3461.1004399376029141
 20
192.330453133679498
 30
0.0
 11
3461.0906832646278417
 21
192.3908376132119997
 31
0.0
  0
ARC
  5
16BE6
  8
0
 10
3460.650608669500798
 20
192.2280838431885002
 30
0.0
 40
0.0102232792820635
 50
320.1661347978127878
 51
69.0763881104431903
  0
ARC
  5
16BE7
  8
0
 10
3460.6292264389840057
 20
192.2459202677750909
 30
0.0
 40
0.0380681679321529
 50
253.6225302683155007
 51
320.1661347978115941
  0
ARC
  5
16BE8
  8
0
 10
3460.6217296426448229
 20
192.2204113092018076
 30
0.0
 40
0.0114804090412692
 50
147.6195894756775999
 51
253.6225302683155007
  0
ARC
  5
16BE9
  8
0
 10
3460.6411215094290128
 20
192.201687752080602
 30
0.0
 40
0.0382709979693845
 50
69.9224314584453168
 51
139.4670564415270917
  0
ARC
  5
16BEA
  8
0
 10
3460.6716546401689811
 20
192.2399156965198017
 30
0.0
 40
0.0278277611967817
 50
318.0431887654643788
 51
56.5040373540970933
  0
ARC
  5
16BEB
  8
0
 10
3460.6238977039361089
 20
192.2771368187391943
 30
0.0
 40
0.0883293699154341
 50
246.1535248913158114
 51
320.8006819835379133
  0
ARC
  5
16BEC
  8
0
 10
3460.6017606166678888
 20
192.2231735612915884
 30
0.0
 40
0.0300640914076377
 50
144.4852524984854085
 51
243.1612748828532915
  0
ARC
  5
16BED
  8
0
 10
3460.6466656354359657
 20
192.181046589909414
 30
0.0
 40
0.0914560481217059
 50
63.8222294724333068
 51
139.3386335615788028
  0
LINE
  5
16BEE
  8
0
 10
3460.6994150391160474
 20
192.2418507788379998
 30
0.0
 11
3460.704698216601173
 21
192.3082635626805086
 31
0.0
  0
ARC
  5
16BEF
  8
0
 10
3460.6830662663787734
 20
192.2909183983225034
 30
0.0
 40
0.0277271707354273
 50
312.1796146265483003
 51
41.9374134521764788
  0
ARC
  5
16BF0
  8
0
 10
3460.653936099638031
 20
192.2286261576892059
 30
0.0
 40
0.0949102752243234
 50
58.382932761868517
 51
108.1448976636943939
  0
ARC
  5
16BF1
  8
0
 10
3460.6485007043979749
 20
192.2098930797577054
 30
0.0
 40
0.1115626171787395
 50
102.4869038774973973
 51
136.8909041366659096
  0
ARC
  5
16BF2
  8
0
 10
3460.5865176141819575
 20
192.2644054314123991
 30
0.0
 40
0.029171141471741
 50
131.8530034892224876
 51
231.5572467250892998
  0
LINE
  5
16BF3
  8
0
 10
3460.5718651026031694
 20
192.2199942797795131
 30
0.0
 11
3460.5621084296271874
 21
192.2803787593119864
 31
0.0
  0
ARC
  5
16BF4
  8
0
 10
3460.4857871000508567
 20
191.773999202438489
 30
0.0
 40
0.0102232792820635
 50
320.1661347978127878
 51
69.0763881104431903
  0
ARC
  5
16BF5
  8
0
 10
3460.4644048695331549
 20
191.7918356270251081
 30
0.0
 40
0.0380681679321529
 50
253.6225302683155007
 51
320.1661347978115941
  0
ARC
  5
16BF6
  8
0
 10
3460.4569080731948816
 20
191.7663266684517964
 30
0.0
 40
0.0114804090412692
 50
147.6195894756775999
 51
253.6225302683155007
  0
ARC
  5
16BF7
  8
0
 10
3460.476299939978162
 20
191.7476031113305908
 30
0.0
 40
0.0382709979693845
 50
69.9224314584453168
 51
139.4670564415270917
  0
ARC
  5
16BF8
  8
0
 10
3460.5068330707199493
 20
191.7858310557697905
 30
0.0
 40
0.0278277611967817
 50
318.0431887654643788
 51
56.5040373540970933
  0
ARC
  5
16BF9
  8
0
 10
3460.4590761344861676
 20
191.8230521779892968
 30
0.0
 40
0.0883293699154341
 50
246.1535248913158114
 51
320.8006819835379133
  0
ARC
  5
16BFA
  8
0
 10
3460.4369390472179475
 20
191.7690889205416056
 30
0.0
 40
0.0300640914076377
 50
144.4852524984854085
 51
243.1612748828532915
  0
ARC
  5
16BFB
  8
0
 10
3460.4818440659860244
 20
191.7269619491592891
 30
0.0
 40
0.0914560481217059
 50
63.8222294724333068
 51
139.3386335615788028
  0
LINE
  5
16BFC
  8
0
 10
3460.5345934696651966
 20
191.7877661380879886
 30
0.0
 11
3460.5398766471498675
 21
191.8541789219304974
 31
0.0
  0
ARC
  5
16BFD
  8
0
 10
3460.5182446969288321
 20
191.8368337575724922
 30
0.0
 40
0.0277271707354273
 50
312.1796146265483003
 51
41.9374134521764788
  0
ARC
  5
16BFE
  8
0
 10
3460.4891145301871802
 20
191.7745415169391947
 30
0.0
 40
0.0949102752243234
 50
58.382932761868517
 51
108.1448976636943939
  0
ARC
  5
16BFF
  8
0
 10
3460.4836791349489431
 20
191.7558084390076942
 30
0.0
 40
0.1115626171787395
 50
102.4869038774973973
 51
136.8909041366659096
  0
ARC
  5
16C00
  8
0
 10
3460.4216960447320162
 20
191.8103207906623879
 30
0.0
 40
0.029171141471741
 50
131.8530034892224876
 51
231.5572467250892998
  0
LINE
  5
16C01
  8
0
 10
3460.4070435331518638
 20
191.7659096390295019
 30
0.0
 11
3460.3972868601781556
 21
191.8262941185620036
 31
0.0
  0
ARC
  5
16C02
  8
0
 10
3460.8970043473509577
 20
191.5951747404384946
 30
0.0
 40
0.0102232792820635
 50
320.1661347978127878
 51
69.0763881104431903
  0
ARC
  5
16C03
  8
0
 10
3460.8756221168341654
 20
191.6130111650251138
 30
0.0
 40
0.0380681679321529
 50
253.6225302683155007
 51
320.1661347978115941
  0
ARC
  5
16C04
  8
0
 10
3460.8681253204949826
 20
191.5875022064518021
 30
0.0
 40
0.0114804090412692
 50
147.6195894756775999
 51
253.6225302683155007
  0
ARC
  5
16C05
  8
0
 10
3460.8875171872778083
 20
191.5687786493305964
 30
0.0
 40
0.0382709979693845
 50
69.9224314584453168
 51
139.4670564415270917
  0
ARC
  5
16C06
  8
0
 10
3460.9180503180191408
 20
191.6070065937699098
 30
0.0
 40
0.0278277611967817
 50
318.0431887654643788
 51
56.5040373540970933
  0
ARC
  5
16C07
  8
0
 10
3460.8702933817858138
 20
191.6442277159893024
 30
0.0
 40
0.0883293699154341
 50
246.1535248913158114
 51
320.8006819835379133
  0
ARC
  5
16C08
  8
0
 10
3460.8481562945180485
 20
191.5902644585416112
 30
0.0
 40
0.0300640914076377
 50
144.4852524984854085
 51
243.1612748828532915
  0
ARC
  5
16C09
  8
0
 10
3460.8930613132861254
 20
191.5481374871592948
 30
0.0
 40
0.0914560481217059
 50
63.8222294724333068
 51
139.3386335615788028
  0
LINE
  5
16C0A
  8
0
 10
3460.9458107169648429
 20
191.6089416760879942
 30
0.0
 11
3460.9510938944499685
 21
191.675354459930503
 31
0.0
  0
ARC
  5
16C0B
  8
0
 10
3460.9294619442289331
 20
191.6580092955724979
 30
0.0
 40
0.0277271707354273
 50
312.1796146265483003
 51
41.9374134521764788
  0
ARC
  5
16C0C
  8
0
 10
3460.9003317774868265
 20
191.5957170549390867
 30
0.0
 40
0.0949102752243234
 50
58.382932761868517
 51
108.1448976636943939
  0
ARC
  5
16C0D
  8
0
 10
3460.8948963822481346
 20
191.5769839770076999
 30
0.0
 40
0.1115626171787395
 50
102.4869038774973973
 51
136.8909041366659096
  0
ARC
  5
16C0E
  8
0
 10
3460.8329132920321172
 20
191.6314963286623936
 30
0.0
 40
0.029171141471741
 50
131.8530034892224876
 51
231.5572467250892998
  0
LINE
  5
16C0F
  8
0
 10
3460.8182607804519648
 20
191.5870851770295076
 30
0.0
 11
3460.8085041074778019
 21
191.6474696565620945
 31
0.0
  0
ARC
  5
16C10
  8
0
 10
3460.5605629237511494
 20
191.5299803161385057
 30
0.0
 40
0.0102232792820635
 50
320.1661347978127878
 51
69.0763881104431903
  0
ARC
  5
16C11
  8
0
 10
3460.5391806932339023
 20
191.5478167407250965
 30
0.0
 40
0.0380681679321529
 50
253.6225302683155007
 51
320.1661347978115941
  0
ARC
  5
16C12
  8
0
 10
3460.5316838968951743
 20
191.5223077821518132
 30
0.0
 40
0.0114804090412692
 50
147.6195894756775999
 51
253.6225302683155007
  0
ARC
  5
16C13
  8
0
 10
3460.5510757636789094
 20
191.5035842250306075
 30
0.0
 40
0.0382709979693845
 50
69.9224314584453168
 51
139.4670564415270917
  0
ARC
  5
16C14
  8
0
 10
3460.5816088944197872
 20
191.5418121694698073
 30
0.0
 40
0.0278277611967817
 50
318.0431887654643788
 51
56.5040373540970933
  0
ARC
  5
16C15
  8
0
 10
3460.5338519581860055
 20
191.5790332916893135
 30
0.0
 40
0.0883293699154341
 50
246.1535248913158114
 51
320.8006819835379133
  0
ARC
  5
16C16
  8
0
 10
3460.5117148709177854
 20
191.5250700342415939
 30
0.0
 40
0.0300640914076377
 50
144.4852524984854085
 51
243.1612748828532915
  0
ARC
  5
16C17
  8
0
 10
3460.5566198896858623
 20
191.4829430628593059
 30
0.0
 40
0.0914560481217059
 50
63.8222294724333068
 51
139.3386335615788028
  0
LINE
  5
16C18
  8
0
 10
3460.6093692933650345
 20
191.5437472517880053
 30
0.0
 11
3460.6146524708501602
 21
191.6101600356305141
 31
0.0
  0
ARC
  5
16C19
  8
0
 10
3460.5930205206291248
 20
191.592814871272509
 30
0.0
 40
0.0277271707354273
 50
312.1796146265483003
 51
41.9374134521764788
  0
ARC
  5
16C1A
  8
0
 10
3460.5638903538870181
 20
191.5305226306390978
 30
0.0
 40
0.0949102752243234
 50
58.382932761868517
 51
108.1448976636943939
  0
ARC
  5
16C1B
  8
0
 10
3460.5584549586478715
 20
191.511789552707711
 30
0.0
 40
0.1115626171787395
 50
102.4869038774973973
 51
136.8909041366659096
  0
ARC
  5
16C1C
  8
0
 10
3460.4964718684309446
 20
191.5663019043624047
 30
0.0
 40
0.029171141471741
 50
131.8530034892224876
 51
231.5572467250892998
  0
LINE
  5
16C1D
  8
0
 10
3460.481819356853066
 20
191.5218907527294903
 30
0.0
 11
3460.472062683878903
 21
191.582275232261992
 31
0.0
  0
ARC
  5
16C1E
  8
0
 10
3460.7688367613518494
 20
191.35394990533851
 30
0.0
 40
0.0102232792820635
 50
320.1661347978127878
 51
69.0763881104431903
  0
ARC
  5
16C1F
  8
0
 10
3460.7474545308341476
 20
191.3717863299251007
 30
0.0
 40
0.0380681679321529
 50
253.6225302683155007
 51
320.1661347978115941
  0
ARC
  5
16C20
  8
0
 10
3460.7399577344949648
 20
191.346277371351789
 30
0.0
 40
0.0114804090412692
 50
147.6195894756775999
 51
253.6225302683155007
  0
ARC
  5
16C21
  8
0
 10
3460.7593496012777905
 20
191.3275538142306118
 30
0.0
 40
0.0382709979693845
 50
69.9224314584453168
 51
139.4670564415270917
  0
ARC
  5
16C22
  8
0
 10
3460.7898827320191231
 20
191.3657817586698968
 30
0.0
 40
0.0278277611967817
 50
318.0431887654643788
 51
56.5040373540970933
  0
ARC
  5
16C23
  8
0
 10
3460.7421257957857961
 20
191.4030028808892894
 30
0.0
 40
0.0883293699154341
 50
246.1535248913158114
 51
320.8006819835379133
  0
ARC
  5
16C24
  8
0
 10
3460.7199887085180308
 20
191.3490396234415982
 30
0.0
 40
0.0300640914076377
 50
144.4852524984854085
 51
243.1612748828532915
  0
ARC
  5
16C25
  8
0
 10
3460.7648937272861076
 20
191.3069126520593102
 30
0.0
 40
0.0914560481217059
 50
63.8222294724333068
 51
139.3386335615788028
  0
LINE
  5
16C26
  8
0
 10
3460.8176431309648251
 20
191.3677168409880096
 30
0.0
 11
3460.8229263084508602
 21
191.4341296248306037
 31
0.0
  0
ARC
  5
16C27
  8
0
 10
3460.8012943582289154
 20
191.4167844604725133
 30
0.0
 40
0.0277271707354273
 50
312.1796146265483003
 51
41.9374134521764788
  0
ARC
  5
16C28
  8
0
 10
3460.7721641914868087
 20
191.3544922198391021
 30
0.0
 40
0.0949102752243234
 50
58.382932761868517
 51
108.1448976636943939
  0
ARC
  5
16C29
  8
0
 10
3460.7667287962481169
 20
191.3357591419076869
 30
0.0
 40
0.1115626171787395
 50
102.4869038774973973
 51
136.8909041366659096
  0
ARC
  5
16C2A
  8
0
 10
3460.7047457060320994
 20
191.390271493562409
 30
0.0
 40
0.029171141471741
 50
131.8530034892224876
 51
231.5572467250892998
  0
LINE
  5
16C2B
  8
0
 10
3460.6900931944528566
 20
191.3458603419294946
 30
0.0
 11
3460.6803365214777841
 21
191.4062448214619963
 31
0.0
  0
ARC
  5
16C2C
  8
0
 10
3461.1005572698509241
 20
191.2931712663385042
 30
0.0
 40
0.0102232792820635
 50
320.1661347978127878
 51
69.0763881104431903
  0
ARC
  5
16C2D
  8
0
 10
3461.0791750393341317
 20
191.3110076909250949
 30
0.0
 40
0.0380681679321529
 50
253.6225302683155007
 51
320.1661347978115941
  0
ARC
  5
16C2E
  8
0
 10
3461.071678242994949
 20
191.2854987323518117
 30
0.0
 40
0.0114804090412692
 50
147.6195894756775999
 51
253.6225302683155007
  0
ARC
  5
16C2F
  8
0
 10
3461.0910701097791389
 20
191.2667751752304923
 30
0.0
 40
0.0382709979693845
 50
69.9224314584453168
 51
139.4670564415270917
  0
ARC
  5
16C30
  8
0
 10
3461.1216032405191072
 20
191.3050031196698058
 30
0.0
 40
0.0278277611967817
 50
318.0431887654643788
 51
56.5040373540970933
  0
ARC
  5
16C31
  8
0
 10
3461.0738463042857802
 20
191.342224241889312
 30
0.0
 40
0.0883293699154341
 50
246.1535248913158114
 51
320.8006819835379133
  0
ARC
  5
16C32
  8
0
 10
3461.0517092170189244
 20
191.2882609844415924
 30
0.0
 40
0.0300640914076377
 50
144.4852524984854085
 51
243.1612748828532915
  0
ARC
  5
16C33
  8
0
 10
3461.0966142357860917
 20
191.2461340130593044
 30
0.0
 40
0.0914560481217059
 50
63.8222294724333068
 51
139.3386335615788028
  0
LINE
  5
16C34
  8
0
 10
3461.1493636394661735
 20
191.3069382019880038
 30
0.0
 11
3461.1546468169499349
 21
191.3733509858305126
 31
0.0
  0
ARC
  5
16C35
  8
0
 10
3461.13301486672799
 20
191.3560058214725075
 30
0.0
 40
0.0277271707354273
 50
312.1796146265483003
 51
41.9374134521764788
  0
ARC
  5
16C36
  8
0
 10
3461.1038846999867928
 20
191.2937135808390963
 30
0.0
 40
0.0949102752243234
 50
58.382932761868517
 51
108.1448976636943939
  0
ARC
  5
16C37
  8
0
 10
3461.098449304748101
 20
191.2749805029077095
 30
0.0
 40
0.1115626171787395
 50
102.4869038774973973
 51
136.8909041366659096
  0
ARC
  5
16C38
  8
0
 10
3461.0364662145320835
 20
191.3294928545624032
 30
0.0
 40
0.029171141471741
 50
131.8530034892224876
 51
231.5572467250892998
  0
LINE
  5
16C39
  8
0
 10
3461.0218137029528407
 20
191.2850817029294035
 30
0.0
 11
3461.012057029978223
 21
191.3454661824619905
 31
0.0
  0
ARC
  5
16C3A
  8
0
 10
3460.8170023484008198
 20
191.1378742752384881
 30
0.0
 40
0.0102232792820635
 50
320.1661347978127878
 51
69.0763881104431903
  0
ARC
  5
16C3B
  8
0
 10
3460.7956201178840274
 20
191.1557106998251072
 30
0.0
 40
0.0380681679321529
 50
253.6225302683155007
 51
320.1661347978115941
  0
ARC
  5
16C3C
  8
0
 10
3460.7881233215448447
 20
191.1302017412517955
 30
0.0
 40
0.0114804090412692
 50
147.6195894756775999
 51
253.6225302683155007
  0
ARC
  5
16C3D
  8
0
 10
3460.8075151883281251
 20
191.1114781841305899
 30
0.0
 40
0.0382709979693845
 50
69.9224314584453168
 51
139.4670564415270917
  0
ARC
  5
16C3E
  8
0
 10
3460.8380483190690029
 20
191.1497061285697896
 30
0.0
 40
0.0278277611967817
 50
318.0431887654643788
 51
56.5040373540970933
  0
ARC
  5
16C3F
  8
0
 10
3460.7902913828361307
 20
191.1869272507892106
 30
0.0
 40
0.0883293699154341
 50
246.1535248913158114
 51
320.8006819835379133
  0
ARC
  5
16C40
  8
0
 10
3460.7681542955679106
 20
191.1329639933416047
 30
0.0
 40
0.0300640914076377
 50
144.4852524984854085
 51
243.1612748828532915
  0
ARC
  5
16C41
  8
0
 10
3460.8130593143359874
 20
191.0908370219592882
 30
0.0
 40
0.0914560481217059
 50
63.8222294724333068
 51
139.3386335615788028
  0
LINE
  5
16C42
  8
0
 10
3460.8658087180160692
 20
191.1516412108879877
 30
0.0
 11
3460.8710918955011948
 21
191.2180539947304965
 31
0.0
  0
ARC
  5
16C43
  8
0
 10
3460.8494599452787952
 20
191.2007088303724913
 30
0.0
 40
0.0277271707354273
 50
312.1796146265483003
 51
41.9374134521764788
  0
ARC
  5
16C44
  8
0
 10
3460.8203297785371433
 20
191.1384165897391085
 30
0.0
 40
0.0949102752243234
 50
58.382932761868517
 51
108.1448976636943939
  0
ARC
  5
16C45
  8
0
 10
3460.8148943832979967
 20
191.1196835118076933
 30
0.0
 40
0.1115626171787395
 50
102.4869038774973973
 51
136.8909041366659096
  0
ARC
  5
16C46
  8
0
 10
3460.7529112930810697
 20
191.174195863462387
 30
0.0
 40
0.029171141471741
 50
131.8530034892224876
 51
231.5572467250892998
  0
LINE
  5
16C47
  8
0
 10
3460.7382587815031911
 20
191.129784711829501
 30
0.0
 11
3460.7285021085281187
 21
191.1901691913620027
 31
0.0
  0
ARC
  5
16C48
  8
0
 10
3460.6821744216508705
 20
190.9366451846385075
 30
0.0
 40
0.0102232792820635
 50
320.1661347978127878
 51
69.0763881104431903
  0
ARC
  5
16C49
  8
0
 10
3460.6607921911340782
 20
190.9544816092250983
 30
0.0
 40
0.0380681679321529
 50
253.6225302683155007
 51
320.1661347978115941
  0
ARC
  5
16C4A
  8
0
 10
3460.6532953947948954
 20
190.9289726506517866
 30
0.0
 40
0.0114804090412692
 50
147.6195894756775999
 51
253.6225302683155007
  0
ARC
  5
16C4B
  8
0
 10
3460.6726872615781758
 20
190.9102490935304957
 30
0.0
 40
0.0382709979693845
 50
69.9224314584453168
 51
139.4670564415270917
  0
ARC
  5
16C4C
  8
0
 10
3460.7032203923199631
 20
190.9484770379698091
 30
0.0
 40
0.0278277611967817
 50
318.0431887654643788
 51
56.5040373540970933
  0
ARC
  5
16C4D
  8
0
 10
3460.6554634560870909
 20
190.9856981601892869
 30
0.0
 40
0.0883293699154341
 50
246.1535248913158114
 51
320.8006819835379133
  0
ARC
  5
16C4E
  8
0
 10
3460.6333263688179613
 20
190.9317349027415958
 30
0.0
 40
0.0300640914076377
 50
144.4852524984854085
 51
243.1612748828532915
  0
ARC
  5
16C4F
  8
0
 10
3460.6782313875860382
 20
190.8896079313593077
 30
0.0
 40
0.0914560481217059
 50
63.8222294724333068
 51
139.3386335615788028
  0
LINE
  5
16C50
  8
0
 10
3460.7309807912652104
 20
190.9504121202880071
 30
0.0
 11
3460.7362639687498813
 21
191.0168249041304875
 31
0.0
  0
ARC
  5
16C51
  8
0
 10
3460.7146320185288459
 20
190.9994797397725108
 30
0.0
 40
0.0277271707354273
 50
312.1796146265483003
 51
41.9374134521764788
  0
ARC
  5
16C52
  8
0
 10
3460.685501851787194
 20
190.9371874991390996
 30
0.0
 40
0.0949102752243234
 50
58.382932761868517
 51
108.1448976636943939
  0
ARC
  5
16C53
  8
0
 10
3460.6800664565489569
 20
190.9184544212077128
 30
0.0
 40
0.1115626171787395
 50
102.4869038774973973
 51
136.8909041366659096
  0
ARC
  5
16C54
  8
0
 10
3460.61808336633203
 20
190.9729667728624065
 30
0.0
 40
0.029171141471741
 50
131.8530034892224876
 51
231.5572467250892998
  0
LINE
  5
16C55
  8
0
 10
3460.6034308547518776
 20
190.9285556212294068
 30
0.0
 11
3460.5936741817781694
 21
190.9889401007619938
 31
0.0
  0
ARC
  5
16C56
  8
0
 10
3460.7115306637469985
 20
190.7121936333664962
 30
0.0
 40
0.0102232792820635
 50
320.1661347978127878
 51
69.0763881104431903
  0
ARC
  5
16C57
  8
0
 10
3460.6901484332302061
 20
190.7300300579532006
 30
0.0
 40
0.0380681679321529
 50
253.6225302683155007
 51
320.1661347978115941
  0
ARC
  5
16C58
  8
0
 10
3460.6826516368910234
 20
190.7045210993798889
 30
0.0
 40
0.0114804090412692
 50
147.6195894756775999
 51
253.6225302683155007
  0
ARC
  5
16C59
  8
0
 10
3460.7020435036752133
 20
190.685797542258598
 30
0.0
 40
0.0382709979693845
 50
69.9224314584453168
 51
139.4670564415270917
  0
ARC
  5
16C5A
  8
0
 10
3460.7325766344151816
 20
190.7240254866979114
 30
0.0
 40
0.0278277611967817
 50
318.0431887654643788
 51
56.5040373540970933
  0
ARC
  5
16C5B
  8
0
 10
3460.6848196981818546
 20
190.761246608917304
 30
0.0
 40
0.0883293699154341
 50
246.1535248913158114
 51
320.8006819835379133
  0
ARC
  5
16C5C
  8
0
 10
3460.6626826109149988
 20
190.7072833514696981
 30
0.0
 40
0.0300640914076377
 50
144.4852524984854085
 51
243.1612748828532915
  0
ARC
  5
16C5D
  8
0
 10
3460.7075876296821662
 20
190.6651563800874101
 30
0.0
 40
0.0914560481217059
 50
63.8222294724333068
 51
139.3386335615788028
  0
LINE
  5
16C5E
  8
0
 10
3460.7603370333617931
 20
190.7259605690161095
 30
0.0
 11
3460.7656202108460093
 21
190.7923733528585899
 31
0.0
  0
ARC
  5
16C5F
  8
0
 10
3460.7439882606240644
 20
190.7750281885006132
 30
0.0
 40
0.0277271707354273
 50
312.1796146265483003
 51
41.9374134521764788
  0
ARC
  5
16C60
  8
0
 10
3460.7148580938828673
 20
190.712735947867202
 30
0.0
 40
0.0949102752243234
 50
58.382932761868517
 51
108.1448976636943939
  0
ARC
  5
16C61
  8
0
 10
3460.7094226986441754
 20
190.6940028699357867
 30
0.0
 40
0.1115626171787395
 50
102.4869038774973973
 51
136.8909041366659096
  0
ARC
  5
16C62
  8
0
 10
3460.647439608428158
 20
190.7485152215905089
 30
0.0
 40
0.029171141471741
 50
131.8530034892224876
 51
231.5572467250892998
  0
LINE
  5
16C63
  8
0
 10
3460.6327870968480056
 20
190.7041040699575092
 30
0.0
 11
3460.6230304238738427
 21
190.7644885494900961
 31
0.0
  0
ARC
  5
16C64
  8
0
 10
3460.4066552058511661
 20
190.813198175038508
 30
0.0
 40
0.0102232792820635
 50
320.1661347978127878
 51
69.0763881104431903
  0
ARC
  5
16C65
  8
0
 10
3460.3852729753330095
 20
190.8310345996250987
 30
0.0
 40
0.0380681679321529
 50
253.6225302683155007
 51
320.1661347978115941
  0
ARC
  5
16C66
  8
0
 10
3460.377776178995191
 20
190.805525641051787
 30
0.0
 40
0.0114804090412692
 50
147.6195894756775999
 51
253.6225302683155007
  0
ARC
  5
16C67
  8
0
 10
3460.3971680457789262
 20
190.7868020839306098
 30
0.0
 40
0.0382709979693845
 50
69.9224314584453168
 51
139.4670564415270917
  0
ARC
  5
16C68
  8
0
 10
3460.4277011765188945
 20
190.8250300283698948
 30
0.0
 40
0.0278277611967817
 50
318.0431887654643788
 51
56.5040373540970933
  0
ARC
  5
16C69
  8
0
 10
3460.3799442402860223
 20
190.8622511505892874
 30
0.0
 40
0.0883293699154341
 50
246.1535248913158114
 51
320.8006819835379133
  0
ARC
  5
16C6A
  8
0
 10
3460.3578071530178022
 20
190.8082878931415962
 30
0.0
 40
0.0300640914076377
 50
144.4852524984854085
 51
243.1612748828532915
  0
ARC
  5
16C6B
  8
0
 10
3460.4027121717867885
 20
190.7661609217593082
 30
0.0
 40
0.0914560481217059
 50
63.8222294724333068
 51
139.3386335615788028
  0
LINE
  5
16C6C
  8
0
 10
3460.4554615754659608
 20
190.8269651106880076
 30
0.0
 11
3460.4607447529501769
 21
190.893377894530488
 31
0.0
  0
ARC
  5
16C6D
  8
0
 10
3460.4391128027291415
 20
190.8760327301725113
 30
0.0
 40
0.0277271707354273
 50
312.1796146265483003
 51
41.9374134521764788
  0
ARC
  5
16C6E
  8
0
 10
3460.4099826359870349
 20
190.8137404895391001
 30
0.0
 40
0.0949102752243234
 50
58.382932761868517
 51
108.1448976636943939
  0
ARC
  5
16C6F
  8
0
 10
3460.4045472407478883
 20
190.7950074116077133
 30
0.0
 40
0.1115626171787395
 50
102.4869038774973973
 51
136.8909041366659096
  0
ARC
  5
16C70
  8
0
 10
3460.3425641505318708
 20
190.849519763262407
 30
0.0
 40
0.029171141471741
 50
131.8530034892224876
 51
231.5572467250892998
  0
LINE
  5
16C71
  8
0
 10
3460.3279116389530827
 20
190.8051086116294073
 30
0.0
 11
3460.3181549659780103
 21
190.8654930911619942
 31
0.0
  0
ARC
  5
16C72
  8
0
 10
3461.0259918943511366
 20
190.4449450824884877
 30
0.0
 40
0.0102232792820635
 50
320.1661347978127878
 51
69.0763881104431903
  0
ARC
  5
16C73
  8
0
 10
3461.0046096638338895
 20
190.4627815070751069
 30
0.0
 40
0.0380681679321529
 50
253.6225302683155007
 51
320.1661347978115941
  0
ARC
  5
16C74
  8
0
 10
3460.9971128674951615
 20
190.4372725485017952
 30
0.0
 40
0.0114804090412692
 50
147.6195894756775999
 51
253.6225302683155007
  0
ARC
  5
16C75
  8
0
 10
3461.0165047342779872
 20
190.4185489913805895
 30
0.0
 40
0.0382709979693845
 50
69.9224314584453168
 51
139.4670564415270917
  0
ARC
  5
16C76
  8
0
 10
3461.047037865018865
 20
190.4567769358197893
 30
0.0
 40
0.0278277611967817
 50
318.0431887654643788
 51
56.5040373540970933
  0
ARC
  5
16C77
  8
0
 10
3460.9992809287859927
 20
190.4939980580392103
 30
0.0
 40
0.0883293699154341
 50
246.1535248913158114
 51
320.8006819835379133
  0
ARC
  5
16C78
  8
0
 10
3460.9771438415177727
 20
190.4400348005916044
 30
0.0
 40
0.0300640914076377
 50
144.4852524984854085
 51
243.1612748828532915
  0
ARC
  5
16C79
  8
0
 10
3461.0220488602858495
 20
190.3979078292094016
 30
0.0
 40
0.0914560481217059
 50
63.8222294724333068
 51
139.3386335615788028
  0
LINE
  5
16C7A
  8
0
 10
3461.0747982639659313
 20
190.4587120181379873
 30
0.0
 11
3461.0800814414501474
 21
190.5251248019804962
 31
0.0
  0
ARC
  5
16C7B
  8
0
 10
3461.058449491229112
 20
190.507779637622491
 30
0.0
 40
0.0277271707354273
 50
312.1796146265483003
 51
41.9374134521764788
  0
ARC
  5
16C7C
  8
0
 10
3461.0293193244870054
 20
190.4454873969891082
 30
0.0
 40
0.0949102752243234
 50
58.382932761868517
 51
108.1448976636943939
  0
ARC
  5
16C7D
  8
0
 10
3461.0238839292478588
 20
190.426754319057693
 30
0.0
 40
0.1115626171787395
 50
102.4869038774973973
 51
136.8909041366659096
  0
ARC
  5
16C7E
  8
0
 10
3460.9619008390318413
 20
190.4812666707123867
 30
0.0
 40
0.029171141471741
 50
131.8530034892224876
 51
231.5572467250892998
  0
LINE
  5
16C7F
  8
0
 10
3460.9472483274530532
 20
190.436855519079387
 30
0.0
 11
3460.9374916544779808
 21
190.4972399986120024
 31
0.0
  0
ARC
  5
16C80
  8
0
 10
3461.5522618427007728
 20
190.5554801699385052
 30
0.0
 40
0.0102232792820635
 50
320.1661347978127878
 51
69.0763881104431903
  0
ARC
  5
16C81
  8
0
 10
3461.5308796121839805
 20
190.573316594525096
 30
0.0
 40
0.0380681679321529
 50
253.6225302683155007
 51
320.1661347978115941
  0
ARC
  5
16C82
  8
0
 10
3461.5233828158447977
 20
190.5478076359518127
 30
0.0
 40
0.0114804090412692
 50
147.6195894756775999
 51
253.6225302683155007
  0
ARC
  5
16C83
  8
0
 10
3461.5427746826289876
 20
190.5290840788304934
 30
0.0
 40
0.0382709979693845
 50
69.9224314584453168
 51
139.4670564415270917
  0
ARC
  5
16C84
  8
0
 10
3461.573307813368956
 20
190.5673120232698068
 30
0.0
 40
0.0278277611967817
 50
318.0431887654643788
 51
56.5040373540970933
  0
ARC
  5
16C85
  8
0
 10
3461.5255508771360837
 20
190.6045331454891993
 30
0.0
 40
0.0883293699154341
 50
246.1535248913158114
 51
320.8006819835379133
  0
ARC
  5
16C86
  8
0
 10
3461.5034137898687732
 20
190.5505698880415935
 30
0.0
 40
0.0300640914076377
 50
144.4852524984854085
 51
243.1612748828532915
  0
ARC
  5
16C87
  8
0
 10
3461.5483188086359405
 20
190.5084429166593054
 30
0.0
 40
0.0914560481217059
 50
63.8222294724333068
 51
139.3386335615788028
  0
LINE
  5
16C88
  8
0
 10
3461.6010682123160223
 20
190.5692471055880048
 30
0.0
 11
3461.6063513897997836
 21
190.6356598894305137
 31
0.0
  0
ARC
  5
16C89
  8
0
 10
3461.584719439579203
 20
190.6183147250725085
 30
0.0
 40
0.0277271707354273
 50
312.1796146265483003
 51
41.9374134521764788
  0
ARC
  5
16C8A
  8
0
 10
3461.5555892728370964
 20
190.5560224844390973
 30
0.0
 40
0.0949102752243234
 50
58.382932761868517
 51
108.1448976636943939
  0
ARC
  5
16C8B
  8
0
 10
3461.5501538775979498
 20
190.5372894065077105
 30
0.0
 40
0.1115626171787395
 50
102.4869038774973973
 51
136.8909041366659096
  0
ARC
  5
16C8C
  8
0
 10
3461.4881707873819323
 20
190.5918017581624042
 30
0.0
 40
0.029171141471741
 50
131.8530034892224876
 51
231.5572467250892998
  0
LINE
  5
16C8D
  8
0
 10
3461.47351827580178
 20
190.5473906065294898
 30
0.0
 11
3461.4637616028280718
 21
190.6077750860619915
 31
0.0
  0
ARC
  5
16C8E
  8
0
 10
3460.7340254637510952
 20
190.2064717456352128
 30
0.0
 40
0.0102232792820635
 50
320.1661347978127878
 51
69.0763881104431903
  0
ARC
  5
16C8F
  8
0
 10
3460.7126432332338482
 20
190.2243081702218035
 30
0.0
 40
0.0380681679321529
 50
253.6225302683155007
 51
320.1661347978115941
  0
ARC
  5
16C90
  8
0
 10
3460.7051464368951201
 20
190.1987992116484918
 30
0.0
 40
0.0114804090412692
 50
147.6195894756775999
 51
253.6225302683155007
  0
ARC
  5
16C91
  8
0
 10
3460.7245383036788553
 20
190.1800756545272861
 30
0.0
 40
0.0382709979693845
 50
69.9224314584453168
 51
139.4670564415270917
  0
ARC
  5
16C92
  8
0
 10
3460.7550714344201879
 20
190.2183035989664859
 30
0.0
 40
0.0278277611967817
 50
318.0431887654643788
 51
56.5040373540970933
  0
ARC
  5
16C93
  8
0
 10
3460.7073144981868609
 20
190.2555247211859069
 30
0.0
 40
0.0883293699154341
 50
246.1535248913158114
 51
320.8006819835379133
  0
ARC
  5
16C94
  8
0
 10
3460.6851774109181861
 20
190.201561463738301
 30
0.0
 40
0.0300640914076377
 50
144.4852524984854085
 51
243.1612748828532915
  0
ARC
  5
16C95
  8
0
 10
3460.7300824296858082
 20
190.1594344923560129
 30
0.0
 40
0.0914560481217059
 50
63.8222294724333068
 51
139.3386335615788028
  0
LINE
  5
16C96
  8
0
 10
3460.7828318333658899
 20
190.2202386812847124
 30
0.0
 11
3460.7881150108510155
 21
190.2866514651271928
 31
0.0
  0
ARC
  5
16C97
  8
0
 10
3460.7664830606290707
 20
190.2693063007691876
 30
0.0
 40
0.0277271707354273
 50
312.1796146265483003
 51
41.9374134521764788
  0
ARC
  5
16C98
  8
0
 10
3460.737352893886964
 20
190.2070140601358048
 30
0.0
 40
0.0949102752243234
 50
58.382932761868517
 51
108.1448976636943939
  0
ARC
  5
16C99
  8
0
 10
3460.7319174986491817
 20
190.1882809822043896
 30
0.0
 40
0.1115626171787395
 50
102.4869038774973973
 51
136.8909041366659096
  0
ARC
  5
16C9A
  8
0
 10
3460.6699344084318
 20
190.2427933338591117
 30
0.0
 40
0.029171141471741
 50
131.8530034892224876
 51
231.5572467250892998
  0
LINE
  5
16C9B
  8
0
 10
3460.6552818968530119
 20
190.1983821822261973
 30
0.0
 11
3460.6455252238779394
 21
190.258766661758699
 31
0.0
  0
ARC
  5
16C9C
  8
0
 10
3460.2423739523369477
 20
190.6039912817442996
 30
0.0
 40
0.0113036953450083
 50
304.3503722456371179
 51
62.3415048175832922
  0
ARC
  5
16C9D
  8
0
 10
3460.2280014632910934
 20
190.6251323730178058
 30
0.0
 40
0.0368675950273493
 50
237.9876541344362124
 51
304.2525547296605168
  0
ARC
  5
16C9E
  8
0
 10
3460.2154359584278609
 20
190.6039790784014087
 30
0.0
 40
0.0122827131730105
 50
143.2316535427258088
 51
235.3806242122464027
  0
ARC
  5
16C9F
  8
0
 10
3460.228455977880003
 20
190.5836178995591013
 30
0.0
 40
0.0359245888304625
 50
57.7589120259430118
 51
129.5173394683752974
  0
ARC
  5
16CA0
  8
0
 10
3460.2626834593361309
 20
190.6114092073939901
 30
0.0
 40
0.0300641750593029
 50
306.2936092308124216
 51
63.0137581316367417
  0
ARC
  5
16CA1
  8
0
 10
3460.2278244131562133
 20
190.6543535062062062
 30
0.0
 40
0.0853528906382074
 50
234.9345549343680943
 51
308.0905624695639062
  0
ARC
  5
16CA2
  8
0
 10
3460.1972137506081708
 20
190.6123233953292981
 30
0.0
 40
0.0333775644744905
 50
147.0717334675630923
 51
236.4932858824481059
  0
ARC
  5
16CA3
  8
0
 10
3460.2281442054818399
 20
190.5597709344461919
 30
0.0
 40
0.0920465632786838
 50
58.4361183997907432
 51
129.8211296133839028
  0
LINE
  5
16CA4
  8
0
 10
3460.2926649175187777
 20
190.613637836394787
 30
0.0
 11
3460.2993716976388896
 21
190.6718653349774968
 31
0.0
  0
ARC
  5
16CA5
  8
0
 10
3460.278950740106211
 20
190.6553780190839973
 30
0.0
 40
0.0262458966692475
 50
307.9425382489703225
 51
38.9164463474492308
  0
ARC
  5
16CA6
  8
0
 10
3460.2301874285399208
 20
190.6100839089048122
 30
0.0
 40
0.0927545562137989
 50
41.7647956037361325
 51
91.3217571120050735
  0
ARC
  5
16CA7
  8
0
 10
3460.2293800236420793
 20
190.597086221488496
 30
0.0
 40
0.1057359559402799
 50
90.7218854384836249
 51
131.7569966823222956
  0
ARC
  5
16CA8
  8
0
 10
3460.1784263785320945
 20
190.6542343231623988
 30
0.0
 40
0.029171141471741
 50
131.8530034892224876
 51
231.5572467250892998
  0
LINE
  5
16CA9
  8
0
 10
3460.1637738669519422
 20
190.6098231715295128
 30
0.0
 11
3460.1540171939777792
 21
190.6702076510619861
 31
0.0
  0
ARC
  5
16CAA
  8
0
 10
3460.2423739523369477
 20
190.2819573992441917
 30
0.0
 40
0.0113036953450083
 50
304.3503722456371179
 51
62.3415048175832922
  0
ARC
  5
16CAB
  8
0
 10
3460.2280014632910934
 20
190.3030984905178116
 30
0.0
 40
0.0368675950273493
 50
237.9876541344362124
 51
304.2525547296605168
  0
ARC
  5
16CAC
  8
0
 10
3460.2154359584278609
 20
190.2819451959013861
 30
0.0
 40
0.0122827131730105
 50
143.2316535427258088
 51
235.3806242122464027
  0
ARC
  5
16CAD
  8
0
 10
3460.228455977880003
 20
190.2615840170591071
 30
0.0
 40
0.0359245888304625
 50
57.7589120259430118
 51
129.5173394683752974
  0
ARC
  5
16CAE
  8
0
 10
3460.2626834593361309
 20
190.2893753248939959
 30
0.0
 40
0.0300641750593029
 50
306.2936092308124216
 51
63.0137581316367417
  0
ARC
  5
16CAF
  8
0
 10
3460.2278244131562133
 20
190.3323196237060984
 30
0.0
 40
0.0853528906382074
 50
234.9345549343680943
 51
308.0905624695639062
  0
ARC
  5
16CB0
  8
0
 10
3460.1972137506081708
 20
190.2902895128291902
 30
0.0
 40
0.0333775644744905
 50
147.0717334675630923
 51
236.4932858824481059
  0
ARC
  5
16CB1
  8
0
 10
3460.2281442054818399
 20
190.2377370519461977
 30
0.0
 40
0.0920465632786838
 50
58.4361183997907432
 51
129.8211296133839028
  0
LINE
  5
16CB2
  8
0
 10
3460.2926649175187777
 20
190.2916039538949065
 30
0.0
 11
3460.2993716976388896
 21
190.3498314524775026
 31
0.0
  0
ARC
  5
16CB3
  8
0
 10
3460.278950740106211
 20
190.3333441365840883
 30
0.0
 40
0.0262458966692475
 50
307.9425382489703225
 51
38.9164463474492308
  0
ARC
  5
16CB4
  8
0
 10
3460.2301874285399208
 20
190.2880500264047896
 30
0.0
 40
0.0927545562137989
 50
41.7647956037361325
 51
91.3217571120050735
  0
ARC
  5
16CB5
  8
0
 10
3460.2293800236420793
 20
190.2750523389885018
 30
0.0
 40
0.1057359559402799
 50
90.7218854384836249
 51
131.7569966823222956
  0
ARC
  5
16CB6
  8
0
 10
3460.1784263785320945
 20
190.3322004406624046
 30
0.0
 40
0.029171141471741
 50
131.8530034892224876
 51
231.5572467250892998
  0
LINE
  5
16CB7
  8
0
 10
3460.1637738669519422
 20
190.2877892890294902
 30
0.0
 11
3460.1540171939777792
 21
190.3481737685619919
 31
0.0
  0
ARC
  5
16CB8
  8
0
 10
3460.2423739517971626
 20
191.569820316444293
 30
0.0
 40
0.0113036953450083
 50
304.3503722456371179
 51
62.3415048175832922
  0
ARC
  5
16CB9
  8
0
 10
3460.2280014627508535
 20
191.5909614077177991
 30
0.0
 40
0.0368675950273493
 50
237.9876541344362124
 51
304.2525547296605168
  0
ARC
  5
16CBA
  8
0
 10
3460.2154359578880758
 20
191.5698081131014021
 30
0.0
 40
0.0122827131730105
 50
143.2316535427258088
 51
235.3806242122464027
  0
ARC
  5
16CBB
  8
0
 10
3460.2284559773388537
 20
191.5494469342590946
 30
0.0
 40
0.0359245888304625
 50
57.7589120259430118
 51
129.5173394683752974
  0
ARC
  5
16CBC
  8
0
 10
3460.2626834587958911
 20
191.5772382420940119
 30
0.0
 40
0.0300641750593029
 50
306.2936092308124216
 51
63.0137581316367417
  0
ARC
  5
16CBD
  8
0
 10
3460.2278244126159734
 20
191.6201825409061996
 30
0.0
 40
0.0853528906382074
 50
234.9345549343680943
 51
308.0905624695639062
  0
ARC
  5
16CBE
  8
0
 10
3460.1972137500688405
 20
191.5781524300292062
 30
0.0
 40
0.0333775644744905
 50
147.0717334675630923
 51
236.4932858824481059
  0
ARC
  5
16CBF
  8
0
 10
3460.2281442049420548
 20
191.5255999691462137
 30
0.0
 40
0.0920465632786838
 50
58.4361183997907432
 51
129.8211296133839028
  0
LINE
  5
16CC0
  8
0
 10
3460.2926649169789926
 20
191.5794668710948088
 30
0.0
 11
3460.299371697100014
 21
191.6376943696774902
 31
0.0
  0
ARC
  5
16CC1
  8
0
 10
3460.2789507395659712
 20
191.6212070537841043
 30
0.0
 40
0.0262458966692475
 50
307.9425382489703225
 51
38.9164463474492308
  0
ARC
  5
16CC2
  8
0
 10
3460.2301874279992262
 20
191.5759129436048056
 30
0.0
 40
0.0927545562137989
 50
41.7647956037361325
 51
91.3217571120050735
  0
ARC
  5
16CC3
  8
0
 10
3460.2293800231018395
 20
191.5629152561884894
 30
0.0
 40
0.1057359559402799
 50
90.7218854384836249
 51
131.7569966823222956
  0
ARC
  5
16CC4
  8
0
 10
3460.1784263779918547
 20
191.6200633578623922
 30
0.0
 40
0.029171141471741
 50
131.8530034892224876
 51
231.5572467250892998
  0
LINE
  5
16CC5
  8
0
 10
3460.1637738664121571
 20
191.5756522062295062
 30
0.0
 11
3460.1540171934370846
 21
191.6360366857620079
 31
0.0
  0
ARC
  5
16CC6
  8
0
 10
3460.2423739523369477
 20
192.5036120115443055
 30
0.0
 40
0.0113036953450083
 50
304.3503722456371179
 51
62.3415048175832922
  0
ARC
  5
16CC7
  8
0
 10
3460.2280014632910934
 20
192.5247531028178116
 30
0.0
 40
0.0368675950273493
 50
237.9876541344362124
 51
304.2525547296605168
  0
ARC
  5
16CC8
  8
0
 10
3460.2154359584278609
 20
192.5035998082013862
 30
0.0
 40
0.0122827131730105
 50
143.2316535427258088
 51
235.3806242122464027
  0
ARC
  5
16CC9
  8
0
 10
3460.228455977880003
 20
192.4832386293591071
 30
0.0
 40
0.0359245888304625
 50
57.7589120259430118
 51
129.5173394683752974
  0
ARC
  5
16CCA
  8
0
 10
3460.2626834593361309
 20
192.5110299371939959
 30
0.0
 40
0.0300641750593029
 50
306.2936092308124216
 51
63.0137581316367417
  0
ARC
  5
16CCB
  8
0
 10
3460.2278244131562133
 20
192.5539742360060984
 30
0.0
 40
0.0853528906382074
 50
234.9345549343680943
 51
308.0905624695639062
  0
ARC
  5
16CCC
  8
0
 10
3460.1972137506081708
 20
192.511944125129304
 30
0.0
 40
0.0333775644744905
 50
147.0717334675630923
 51
236.4932858824481059
  0
ARC
  5
16CCD
  8
0
 10
3460.2281442054818399
 20
192.4593916642461977
 30
0.0
 40
0.0920465632786838
 50
58.4361183997907432
 51
129.8211296133839028
  0
LINE
  5
16CCE
  8
0
 10
3460.2926649175187777
 20
192.5132585661947928
 30
0.0
 11
3460.2993716976388896
 21
192.5714860647775026
 31
0.0
  0
ARC
  5
16CCF
  8
0
 10
3460.278950740106211
 20
192.5549987488840884
 30
0.0
 40
0.0262458966692475
 50
307.9425382489703225
 51
38.9164463474492308
  0
ARC
  5
16CD0
  8
0
 10
3460.2301874285399208
 20
192.5097046387047897
 30
0.0
 40
0.0927545562137989
 50
41.7647956037361325
 51
91.3217571120050735
  0
ARC
  5
16CD1
  8
0
 10
3460.2293800236420793
 20
192.4967069512885018
 30
0.0
 40
0.1057359559402799
 50
90.7218854384836249
 51
131.7569966823222956
  0
ARC
  5
16CD2
  8
0
 10
3460.1784263785320945
 20
192.5538550529624047
 30
0.0
 40
0.029171141471741
 50
131.8530034892224876
 51
231.5572467250892998
  0
LINE
  5
16CD3
  8
0
 10
3460.1637738669519422
 20
192.509443901329405
 30
0.0
 11
3460.1540171939777792
 21
192.5698283808619919
 31
0.0
  0
ARC
  5
16CD4
  8
0
 10
3460.5810187711072103
 20
190.4892042595384964
 30
0.0
 40
0.0158605807137526
 50
324.2394184961652854
 51
67.0033838462698981
  0
ARC
  5
16CD5
  8
0
 10
3460.5521214309628704
 20
190.5182731491665891
 30
0.0
 40
0.0566950177214783
 50
246.4731974511296073
 51
317.4517227797161922
  0
ARC
  5
16CD6
  8
0
 10
3460.5339479825452145
 20
190.4816429894613918
 30
0.0
 40
0.0159861554976066
 50
152.4446030863057047
 51
253.8076090149442905
  0
ARC
  5
16CD7
  8
0
 10
3460.5625799681338322
 20
190.4549291479613942
 30
0.0
 40
0.0547327900958636
 50
63.2499767706408633
 51
141.4502634687277975
  0
ARC
  5
16CD8
  8
0
 10
3460.6237243264090466
 20
190.5027532041362974
 30
0.0
 40
0.0486730783452054
 50
319.1578359819349089
 51
61.2885480124258066
  0
ARC
  5
16CD9
  8
0
 10
3460.5446372187398083
 20
190.577545477026888
 30
0.0
 40
0.1574910575545338
 50
242.5655543709669928
 51
317.3893934999989028
  0
ARC
  5
16CDA
  8
0
 10
3460.4957080751241847
 20
190.4848014506007985
 30
0.0
 40
0.0526384696859408
 50
150.5540833620383978
 51
243.3234032705927916
  0
ARC
  5
16CDB
  8
0
 10
3460.5700435193111844
 20
190.4057609842903105
 30
0.0
 40
0.1595290558649843
 50
61.1140649164381173
 51
138.8775098927004024
  0
LINE
  5
16CDC
  8
0
 10
3460.6723970989278314
 20
190.5029257465808996
 30
0.0
 11
3460.6765283619301954
 21
190.5460441235171061
 31
0.0
  0
ARC
  5
16CDD
  8
0
 10
3460.6375503016688526
 20
190.5310545369607098
 30
0.0
 40
0.0417609493044361
 50
328.0191707770679272
 51
29.0545641892025905
  0
ARC
  5
16CDE
  8
0
 10
3460.5815877697327778
 20
190.4659159137661106
 30
0.0
 40
0.1258843011852876
 50
42.7308816232725732
 51
91.8063237887285766
  0
ARC
  5
16CDF
  8
0
 10
3460.566210747022069
 20
190.4286578935686123
 30
0.0
 40
0.1634783664592842
 50
85.9981239425629553
 51
136.4914950191663934
  0
ARC
  5
16CE0
  8
0
 10
3460.4830726355380648
 20
190.5092490425753056
 30
0.0
 40
0.0477120670867652
 50
137.9483835643085001
 51
213.0788411731743963
  0
LINE
  5
16CE1
  8
0
 10
3460.4430873006931506
 20
190.4834366835212052
 30
0.0
 11
3460.4395034805038449
 21
190.5286956380431036
 31
0.0
  0
ARC
  5
16CE2
  8
0
 10
3461.3964454598990415
 20
191.1310272636561081
 30
0.0
 40
0.0158605807137526
 50
324.2394184961652854
 51
67.0033838462698981
  0
ARC
  5
16CE3
  8
0
 10
3461.3675481197528825
 20
191.1600961532842007
 30
0.0
 40
0.0566950177214783
 50
246.4731974511296073
 51
317.4517227797161922
  0
ARC
  5
16CE4
  8
0
 10
3461.3493746713361361
 20
191.1234659935788898
 30
0.0
 40
0.0159861554976066
 50
152.4446030863057047
 51
253.8076090149442905
  0
ARC
  5
16CE5
  8
0
 10
3461.3780066569252085
 20
191.0967521520790058
 30
0.0
 40
0.0547327900958636
 50
63.2499767706408633
 51
141.4502634687277975
  0
ARC
  5
16CE6
  8
0
 10
3461.4391510151999682
 20
191.144576208253909
 30
0.0
 40
0.0486730783452054
 50
319.1578359819349089
 51
61.2885480124258066
  0
ARC
  5
16CE7
  8
0
 10
3461.3600639075298204
 20
191.2193684811444996
 30
0.0
 40
0.1574910575545338
 50
242.5655543709669928
 51
317.3893934999989028
  0
ARC
  5
16CE8
  8
0
 10
3461.3111347639151063
 20
191.1266244547184101
 30
0.0
 40
0.0526384696859408
 50
150.5540833620383978
 51
243.3234032705927916
  0
ARC
  5
16CE9
  8
0
 10
3461.385470208102106
 20
191.0475839884078937
 30
0.0
 40
0.1595290558649843
 50
61.1140649164381173
 51
138.8775098927004024
  0
LINE
  5
16CEA
  8
0
 10
3461.4878237877192078
 20
191.1447487506985112
 30
0.0
 11
3461.491955050721117
 21
191.187867127634803
 31
0.0
  0
ARC
  5
16CEB
  8
0
 10
3461.4529769904611385
 20
191.172877541078293
 30
0.0
 40
0.0417609493044361
 50
328.0191707770679272
 51
29.0545641892025905
  0
ARC
  5
16CEC
  8
0
 10
3461.3970144585241542
 20
191.1077389178836938
 30
0.0
 40
0.1258843011852876
 50
42.7308816232725732
 51
91.8063237887285766
  0
ARC
  5
16CED
  8
0
 10
3461.3816374358129906
 20
191.0704808976861955
 30
0.0
 40
0.1634783664592842
 50
85.9981239425629553
 51
136.4914950191663934
  0
ARC
  5
16CEE
  8
0
 10
3461.2984993243289864
 20
191.1510720466928035
 30
0.0
 40
0.0477120670867652
 50
137.9483835643085001
 51
213.0788411731743963
  0
LINE
  5
16CEF
  8
0
 10
3461.2585139894840722
 20
191.1252596876387884
 30
0.0
 11
3461.2549301692952213
 21
191.1705186421606868
 31
0.0
  0
ARC
  5
16CF0
  8
0
 10
3461.3013616652688142
 20
191.5641305410536006
 30
0.0
 40
0.0158605807137526
 50
324.2394184961652854
 51
67.0033838462698981
  0
ARC
  5
16CF1
  8
0
 10
3461.27246432512311
 20
191.5931994306816932
 30
0.0
 40
0.0566950177214783
 50
246.4731974511296073
 51
317.4517227797161922
  0
ARC
  5
16CF2
  8
0
 10
3461.2542908767059089
 20
191.556569270976496
 30
0.0
 40
0.0159861554976066
 50
152.4446030863057047
 51
253.8076090149442905
  0
ARC
  5
16CF3
  8
0
 10
3461.2829228622949813
 20
191.5298554294764983
 30
0.0
 40
0.0547327900958636
 50
63.2499767706408633
 51
141.4502634687277975
  0
ARC
  5
16CF4
  8
0
 10
3461.3440672205688315
 20
191.5776794856514016
 30
0.0
 40
0.0486730783452054
 50
319.1578359819349089
 51
61.2885480124258066
  0
ARC
  5
16CF5
  8
0
 10
3461.264980112900048
 20
191.6524717585421058
 30
0.0
 40
0.1574910575545338
 50
242.5655543709669928
 51
317.3893934999989028
  0
ARC
  5
16CF6
  8
0
 10
3461.2160509692848791
 20
191.5597277321159027
 30
0.0
 40
0.0526384696859408
 50
150.5540833620383978
 51
243.3234032705927916
  0
ARC
  5
16CF7
  8
0
 10
3461.2903864134718788
 20
191.4806872658054999
 30
0.0
 40
0.1595290558649843
 50
61.1140649164381173
 51
138.8775098927004024
  0
LINE
  5
16CF8
  8
0
 10
3461.3927399930889806
 20
191.5778520280960038
 30
0.0
 11
3461.3968712560908898
 21
191.6209704050322955
 31
0.0
  0
ARC
  5
16CF9
  8
0
 10
3461.3578931958309113
 20
191.6059808184758992
 30
0.0
 40
0.0417609493044361
 50
328.0191707770679272
 51
29.0545641892025905
  0
ARC
  5
16CFA
  8
0
 10
3461.301930663893927
 20
191.5408421952811864
 30
0.0
 40
0.1258843011852876
 50
42.7308816232725732
 51
91.8063237887285766
  0
ARC
  5
16CFB
  8
0
 10
3461.2865536411832181
 20
191.5035841750838017
 30
0.0
 40
0.1634783664592842
 50
85.9981239425629553
 51
136.4914950191663934
  0
ARC
  5
16CFC
  8
0
 10
3461.2034155296992139
 20
191.5841753240904097
 30
0.0
 40
0.0477120670867652
 50
137.9483835643085001
 51
213.0788411731743963
  0
LINE
  5
16CFD
  8
0
 10
3461.163430194853845
 20
191.5583629650363946
 30
0.0
 11
3461.1598463746649941
 21
191.603621919558293
 31
0.0
  0
ARC
  5
16CFE
  8
0
 10
3460.878715583245139
 20
191.9116542569178137
 30
0.0
 40
0.0158605807137526
 50
324.2394184961652854
 51
67.0033838462698981
  0
ARC
  5
16CFF
  8
0
 10
3460.849818243100799
 20
191.9407231465459063
 30
0.0
 40
0.0566950177214783
 50
246.4731974511296073
 51
317.4517227797161922
  0
ARC
  5
16D00
  8
0
 10
3460.8316447946831431
 20
191.9040929868405954
 30
0.0
 40
0.0159861554976066
 50
152.4446030863057047
 51
253.8076090149442905
  0
ARC
  5
16D01
  8
0
 10
3460.8602767802722155
 20
191.8773791453407114
 30
0.0
 40
0.0547327900958636
 50
63.2499767706408633
 51
141.4502634687277975
  0
ARC
  5
16D02
  8
0
 10
3460.9214211385469753
 20
191.9252032015155862
 30
0.0
 40
0.0486730783452054
 50
319.1578359819349089
 51
61.2885480124258066
  0
ARC
  5
16D03
  8
0
 10
3460.8423340308781917
 20
191.9999954744062052
 30
0.0
 40
0.1574910575545338
 50
242.5655543709669928
 51
317.3893934999989028
  0
ARC
  5
16D04
  8
0
 10
3460.7934048872621133
 20
191.9072514479800873
 30
0.0
 40
0.0526384696859408
 50
150.5540833620383978
 51
243.3234032705927916
  0
ARC
  5
16D05
  8
0
 10
3460.8677403314482035
 20
191.8282109816695993
 30
0.0
 40
0.1595290558649843
 50
61.1140649164381173
 51
138.8775098927004024
  0
LINE
  5
16D06
  8
0
 10
3460.9700939110662148
 20
191.9253757439601884
 30
0.0
 11
3460.974225174068124
 21
191.9684941208965085
 31
0.0
  0
ARC
  5
16D07
  8
0
 10
3460.9352471138081455
 20
191.9535045343399986
 30
0.0
 40
0.0417609493044361
 50
328.0191707770679272
 51
29.0545641892025905
  0
ARC
  5
16D08
  8
0
 10
3460.8792845818711612
 20
191.8883659111453994
 30
0.0
 40
0.1258843011852876
 50
42.7308816232725732
 51
91.8063237887285766
  0
ARC
  5
16D09
  8
0
 10
3460.8639075591599976
 20
191.8511078909479863
 30
0.0
 40
0.1634783664592842
 50
85.9981239425629553
 51
136.4914950191663934
  0
ARC
  5
16D0A
  8
0
 10
3460.7807694476759934
 20
191.9316990399545091
 30
0.0
 40
0.0477120670867652
 50
137.9483835643085001
 51
213.0788411731743963
  0
LINE
  5
16D0B
  8
0
 10
3460.7407841128310793
 20
191.905886680900494
 30
0.0
 11
3460.7372002926417736
 21
191.9511456354223924
 31
0.0
  0
CIRCLE
  5
16D0C
  8
0
 10
3460.2281005152449325
 20
192.0250375328787129
 30
0.0
 40
0.0393694873635434
  0
ARC
  5
16D0D
  8
0
 10
3460.2655360244339136
 20
192.0329102075492074
 30
0.0
 40
0.077794259667181
 50
308.21116727888068
 51
40.0708270746321134
  0
LINE
  5
16D0E
  8
0
 10
3460.3433274252060983
 20
192.0335771432482943
 30
0.0
 11
3460.3476081691519539
 21
192.0790116764584923
 31
0.0
  0
ARC
  5
16D0F
  8
0
 10
3460.2723097884731942
 20
192.059353735522194
 30
0.0
 40
0.0778221098071829
 50
335.4717711513292215
 51
22.4785460509927013
  0
ARC
  5
16D10
  8
0
 10
3460.2467141409670148
 20
192.0454322881207077
 30
0.0
 40
0.1068400957795151
 50
24.1291955448291091
 51
68.0704029506988348
  0
ARC
  5
16D11
  8
0
 10
3460.1906650060559514
 20
192.0329102075492074
 30
0.0
 40
0.077794259667181
 50
139.929172925367908
 51
231.7888327211192916
  0
LINE
  5
16D12
  8
0
 10
3460.1128736052851309
 20
192.0335771432482943
 30
0.0
 11
3460.108592861337911
 21
192.0790116764584923
 31
0.0
  0
ARC
  5
16D13
  8
0
 10
3460.183891242018035
 20
192.059353735522194
 30
0.0
 40
0.0778221098071829
 50
157.5214539490073093
 51
204.5282288486708069
  0
ARC
  5
16D14
  8
0
 10
3460.2094868895242143
 20
192.0454322881207077
 30
0.0
 40
0.1068400957795151
 50
111.9295970493010941
 51
155.8708044551709122
  0
ARC
  5
16D15
  8
0
 10
3460.2281005152449325
 20
192.0075378806587878
 30
0.0
 40
0.1489767295642207
 50
66.8724942961681421
 51
113.1275057038319005
  0
ARC
  5
16D16
  8
0
 10
3460.2281005152449325
 20
191.9934502844598114
 30
0.0
 40
0.1319844067916377
 50
42.7190452839445101
 51
137.2809547160555042
  0
ARC
  5
16D17
  8
0
 10
3460.2281005152449325
 20
192.0733644735601047
 30
0.0
 40
0.1328094214456965
 50
229.894156427006692
 51
310.105843572993308
  0
ARC
  5
16D18
  8
0
 10
3460.6782986119092129
 20
191.2696716184298964
 30
0.0
 40
1.8072864979527421
 50
23.6584605916977004
 51
74.6619885063942377
  0
ARC
  5
16D19
  8
0
 10
3461.3115304364910116
 20
191.6727822755161981
 30
0.0
 40
1.0717150252438989
 50
323.1349175957524267
 51
17.4917735032801183
  0
ARC
  5
16D1A
  8
0
 10
3460.5593756664288776
 20
192.1886403134585919
 30
0.0
 40
1.9833311972417671
 50
289.7413308795735816
 51
324.2480633178495282
  0
ARC
  5
16D1B
  8
0
 10
3460.2505353274200388
 20
192.8960286746670931
 30
0.0
 40
2.7539489380800619
 50
274.4744313549322783
 51
278.8045971073257192
  0
ARC
  5
16D1C
  8
0
 10
3460.2505353274200388
 20
192.8960286746670931
 30
0.0
 40
2.7539489380800619
 50
280.8242653154708819
 51
290.8180774655626806
  0
ARC
  5
16D1D
  8
0
 10
3460.4599504895249993
 20
189.9704863015778926
 30
0.0
 40
0.1800687396478911
 50
88.2713451304092871
 51
149.6069965555278998
  0
ARC
  5
16D1E
  8
0
 10
3460.6536238305679944
 20
189.8950091768791992
 30
0.0
 40
0.3867129802064605
 50
154.4844388278482938
 51
177.8227260154687031
  0
ARC
  5
16D1F
  8
0
 10
3462.9284070089838679
 20
188.3800610884046023
 30
0.0
 40
2.512569001340212
 50
125.3843363294426041
 51
133.5411958889685877
  0
ARC
  5
16D20
  8
0
 10
3461.9506149171779725
 20
189.4089563596648986
 30
0.0
 40
1.0931667137478001
 50
133.5411958889685877
 51
173.5561286048856005
  0
ARC
  5
16D21
  8
0
 10
3469.2108334723548069
 20
188.3143940508151957
 30
0.0
 40
8.4347734992697934
 50
171.7024962589781012
 51
180.4689228313415015
  0
ARC
  5
16D22
  8
0
 10
5941.9818077148465818
 20
188.2712762276350986
 30
0.0
 40
2481.2054653900640915
 50
180.0005983964028928
 51
180.0682029414437011
  0
ARC
  5
16D23
  8
0
 10
3460.6515727018982034
 20
185.3421935469488915
 30
0.0
 40
0.1288699135816685
 50
285.4096322964151113
 51
349.0591324569492144
  0
LINE
  5
16D24
  8
0
 10
3460.5430611446049625
 20
183.4746341793500051
 30
0.0
 11
3460.5151272674052052
 21
182.4300320308749122
 31
0.0
  0
ARC
  5
16D25
  8
0
 10
3353.7037266503380124
 20
185.6680782041055124
 30
0.0
 40
106.8604709179192014
 50
355.5969160165186054
 51
358.2635788415817046
  0
ARC
  5
16D26
  8
0
 10
3518.9602033708652016
 20
173.4803563022493904
 30
0.0
 40
58.8463915818950696
 50
176.1182482143038044
 51
182.1061669984619869
  0
ARC
  5
16D27
  8
0
 10
3489.7800168883550214
 20
173.6665169621468863
 30
0.0
 40
29.7194154247110482
 50
184.5330345453527059
 51
201.5820925711028053
  0
LINE
  5
16D28
  8
0
 10
3459.9131398848048775
 20
183.4688837874739136
 30
0.0
 11
3459.9189901241547886
 21
182.3498816977268859
 31
0.0
  0
ARC
  5
16D29
  8
0
 10
3367.6057848433019899
 20
184.7010123940499113
 30
0.0
 40
92.343140973090172
 50
355.5057774780307227
 51
358.541045678680689
  0
ARC
  5
16D2A
  8
0
 10
3496.6271495939849956
 20
173.8197497569900918
 30
0.0
 40
37.1414845204159718
 50
174.3674291915498031
 51
184.1943738129901078
  0
ARC
  5
16D2B
  8
0
 10
3489.8671175366448551
 20
173.686015697371289
 30
0.0
 40
30.3919214874662416
 50
184.8750611100768992
 51
201.6707387688987012
  0
ARC
  5
16D2C
  8
0
 10
3460.3133033282160795
 20
191.3556166934307043
 30
0.0
 40
0.0587901969203079
 50
26.1489056361147512
 51
146.164855110667304
  0
ARC
  5
16D2D
  8
0
 10
3460.3275348603151542
 20
191.3810975499145002
 30
0.0
 40
0.0385439698075967
 50
322.7466421065511781
 51
0.6366957605886107
  0
ARC
  5
16D2E
  8
0
 10
3460.227953828119098
 20
191.4715560368977094
 30
0.0
 40
0.1729629684701101
 50
293.3730908459978082
 51
318.8608011690207036
  0
ARC
  5
16D2F
  8
0
 10
3460.2906093726160179
 20
191.3245597918302963
 30
0.0
 40
0.0131969520655039
 50
222.1080074109875113
 51
296.8562673039588731
  0
ARC
  5
16D30
  8
0
 10
3460.3997110186419377
 20
191.3921115231185013
 30
0.0
 40
0.1413238380243132
 50
197.5495073303866036
 51
212.7249847181334985
  0
ARC
  5
16D31
  8
0
 10
3460.3194342981250884
 20
191.3696221605007111
 30
0.0
 40
0.058068024409382
 50
161.1834370067167015
 51
200.2769752584102037
  0
ARC
  5
16D32
  8
0
 10
3460.3256185218087921
 20
191.368901396856387
 30
0.0
 40
0.014826381039225
 50
311.6368447773555204
 51
54.6173699448497771
  0
ARC
  5
16D33
  8
0
 10
3460.3126866225397862
 20
191.3834480933697932
 30
0.0
 40
0.0342902038435752
 50
233.5488103317130992
 51
311.6368447773543835
  0
ARC
  5
16D34
  8
0
 10
3460.3002613846738313
 20
191.3684588131202986
 30
0.0
 40
0.0148909261053359
 50
139.1718378071944926
 51
237.741569871942886
  0
ARC
  5
16D35
  8
0
 10
3460.3132474525059479
 20
191.3529223233830123
 30
0.0
 40
0.0350273678129937
 50
53.2534447115190801
 51
133.8219598275921101
  0
LINE
  5
16D36
  8
0
 10
3460.3660713081649192
 20
191.3815363297323131
 30
0.0
 11
3460.3702719898979012
 21
191.4401255502451988
 31
0.0
  0
ARC
  5
16D37
  8
0
 10
3460.343929158444098
 20
191.4225957457321954
 30
0.0
 40
0.032684784325279
 50
315.8548220700322986
 51
22.8726428973692499
  0
ARC
  5
16D38
  8
0
 10
3460.3144164907530467
 20
191.3925797938755977
 30
0.0
 40
0.0733514535201244
 50
35.6196390002046428
 51
86.4558582210648154
  0
ARC
  5
16D39
  8
0
 10
3460.316954654240817
 20
191.3839482743628082
 30
0.0
 40
0.0818670278359325
 50
88.6027649681488327
 51
137.3837861631585895
  0
ARC
  5
16D3A
  8
0
 10
3460.3064216092811876
 20
191.4130089027538872
 30
0.0
 40
0.056274392710454
 50
152.0564660275182973
 51
215.4495455289898018
  0
LINE
  5
16D3B
  8
0
 10
3460.2613662737157938
 20
191.3696221605007111
 30
0.0
 11
3460.2563125008091447
 21
191.4386191452944956
 31
0.0
  0
ARC
  5
16D3C
  8
0
 10
3460.4563165657477839
 20
191.293523270511912
 30
0.0
 40
0.0587901969203079
 50
26.1489056361147512
 51
146.164855110667304
  0
ARC
  5
16D3D
  8
0
 10
3460.4674498414378832
 20
191.3194857458699119
 30
0.0
 40
0.0416398805415142
 50
307.8859061154735173
 51
359.9266459817641817
  0
ARC
  5
16D3E
  8
0
 10
3460.4022301502382106
 20
191.4689172513951121
 30
0.0
 40
0.2036526896537585
 50
268.301530248035192
 51
296.4751629177018231
  0
ARC
  5
16D3F
  8
0
 10
3460.3953554843837992
 20
191.2777080030973025
 30
0.0
 40
0.012382389473852
 50
189.2572784212979968
 51
273.8828415247093062
  0
ARC
  5
16D40
  8
0
 10
3460.4727294529261599
 20
191.2597587875013119
 30
0.0
 40
0.0910050270853747
 50
157.2610802965955088
 51
169.9012582821106889
  0
ARC
  5
16D41
  8
0
 10
3460.4757995896411558
 20
191.2642699827403021
 30
0.0
 40
0.0922479269459926
 50
137.7805916391102983
 51
160.5841691876711934
  0
ARC
  5
16D42
  8
0
 10
3460.4686317593400418
 20
191.3068079739375946
 30
0.0
 40
0.014826381039225
 50
311.6368447773555204
 51
54.6173699448497771
  0
ARC
  5
16D43
  8
0
 10
3460.4556998600719453
 20
191.3213546704510861
 30
0.0
 40
0.0342902038435752
 50
233.5488103317130992
 51
311.6368447773543835
  0
ARC
  5
16D44
  8
0
 10
3460.443274622205081
 20
191.3063653902015915
 30
0.0
 40
0.0148909261053359
 50
139.1718378071944926
 51
237.741569871942886
  0
ARC
  5
16D45
  8
0
 10
3460.4562606900371975
 20
191.2908289004643052
 30
0.0
 40
0.0350273678129937
 50
53.2534447115190801
 51
133.8219598275921101
  0
LINE
  5
16D46
  8
0
 10
3460.5090845456970783
 20
191.3194429068134923
 30
0.0
 11
3460.5132276123190422
 21
191.3784967391817986
 31
0.0
  0
ARC
  5
16D47
  8
0
 10
3460.4869423959748929
 20
191.3605023228134883
 30
0.0
 40
0.032684784325279
 50
315.8548220700322986
 51
22.8726428973692499
  0
ARC
  5
16D48
  8
0
 10
3460.4664081258338229
 20
191.3405736697916097
 30
0.0
 40
0.060251336140618
 50
32.7932852411529225
 51
94.0466531230039351
  0
ARC
  5
16D49
  8
0
 10
3460.4614427542110207
 20
191.3109488976188004
 30
0.0
 40
0.0897287338576285
 50
89.5443860546249226
 51
171.1553657135542892
  0
ARC
  5
16D4A
  8
0
 10
3460.3847871805019167
 20
191.3209304918867133
 30
0.0
 40
0.0125976385274147
 50
162.3734801413168043
 51
243.2664870858926065
  0
LINE
  5
16D4B
  8
0
 10
3460.3833159928658461
 20
191.2767042327531897
 30
0.0
 11
3460.3785998301527798
 21
191.3444604028732101
 31
0.0
  0
ARC
  5
16D4C
  8
0
 10
3461.36131121561084
 20
191.7295657708270085
 30
0.0
 40
1.029494221221946
 50
351.0287171837496203
 51
15.7160344402014793
  0
ARC
  5
16D4D
  8
0
 10
3460.9874280646749867
 20
191.5695428951052008
 30
0.0
 40
1.4337168419186761
 50
17.8252402637828489
 51
57.5949045098494565
  0
ARC
  5
16D4E
  8
0
 10
3460.4053907330689981
 20
190.7567845856320901
 30
0.0
 40
2.432468656604688
 50
56.2794086247450309
 51
75.76355806289763
  0
ARC
  5
16D4F
  8
0
 10
3460.5343492811612123
 20
191.1954361984930983
 30
0.0
 40
0.0492909516848765
 50
16.0604496516268007
 51
103.7421518760287995
  0
ARC
  5
16D50
  8
0
 10
3460.5368582459800564
 20
191.2161424075762
 30
0.0
 40
0.0454118731894695
 50
270.259332039360288
 51
351.043662944144728
  0
ARC
  5
16D51
  8
0
 10
3460.5294046482740669
 20
191.3863966936247891
 30
0.0
 40
0.2158016543683905
 50
246.6169977116032896
 51
272.0339444936199129
  0
ARC
  5
16D52
  8
0
 10
3460.4454651245359855
 20
191.1981192136778986
 30
0.0
 40
0.0099484261085901
 50
135.1230907593416077
 51
260.120667427019896
  0
ARC
  5
16D53
  8
0
 10
3460.6116085496009873
 20
190.9688962256498996
 30
0.0
 40
0.292927220429008
 50
119.8855994438375063
 51
126.2457384891376933
  0
ARC
  5
16D54
  8
0
 10
3460.5446201769477739
 20
191.0924057400218032
 30
0.0
 40
0.1525027380102788
 50
98.2868577593084751
 51
121.185897097507393
  0
ARC
  5
16D55
  8
0
 10
3460.5381286098640885
 20
191.2017061735799075
 30
0.0
 40
0.014826381039225
 50
311.6368447773555204
 51
54.6173699448497771
  0
ARC
  5
16D56
  8
0
 10
3460.5251967105941731
 20
191.216252870093399
 30
0.0
 40
0.0342902038435752
 50
233.5488103317130992
 51
311.6368447773543835
  0
ARC
  5
16D57
  8
0
 10
3460.512771472726854
 20
191.2012635898439044
 30
0.0
 40
0.0148909261053359
 50
139.1718378071944926
 51
237.741569871942886
  0
ARC
  5
16D58
  8
0
 10
3460.52575754055988
 20
191.1857271001065044
 30
0.0
 40
0.0350273678129937
 50
53.2534447115190801
 51
133.8219598275921101
  0
LINE
  5
16D59
  8
0
 10
3460.5817164243048865
 20
191.2090726081503931
 30
0.0
 11
3460.5862268483169828
 21
191.2710909174267897
 31
0.0
  0
ARC
  5
16D5A
  8
0
 10
3460.5629756556040775
 20
191.2533852644939998
 30
0.0
 40
0.0297097751640462
 50
313.3440918669990083
 51
29.635813770592101
  0
ARC
  5
16D5B
  8
0
 10
3460.535468647567086
 20
191.2251783136302095
 30
0.0
 40
0.0684424000954968
 50
38.812599057292438
 51
93.7465443276876158
  0
ARC
  5
16D5C
  8
0
 10
3460.5445470180611665
 20
191.1152606506510949
 30
0.0
 40
0.1787282142160488
 50
94.3481542398587578
 51
107.1486636119930012
  0
ARC
  5
16D5D
  8
0
 10
3460.5445470180611665
 20
191.1152606506510949
 30
0.0
 40
0.1787282142160488
 50
116.6925652309380013
 51
129.7493641550173038
  0
ARC
  5
16D5E
  8
0
 10
3460.4353947133040492
 20
191.242407951325589
 30
0.0
 40
0.0114787887864739
 50
116.5566291973728994
 51
256.9568480260087995
  0
LINE
  5
16D5F
  8
0
 10
3460.4355188624958828
 20
191.1983267069246892
 30
0.0
 11
3460.4309847904842172
 21
191.2532729509165961
 31
0.0
  0
ARC
  5
16D60
  8
0
 10
3460.5225346193888072
 20
191.0925893518129897
 30
0.0
 40
0.0322095800667334
 50
4.8155099019262648
 51
82.049623202985515
  0
ARC
  5
16D61
  8
0
 10
3460.5097723268290792
 20
191.1023630678519964
 30
0.0
 40
0.0454118731894695
 50
270.259332039360288
 51
351.043662944144728
  0
ARC
  5
16D62
  8
0
 10
3460.5095854570408846
 20
191.1611096847971112
 30
0.0
 40
0.1041587641688583
 50
211.429784502235492
 51
270.2158590976138157
  0
ARC
  5
16D63
  8
0
 10
3460.4263256724862003
 20
191.1140639310411871
 30
0.0
 40
0.0091855690901679
 50
87.2469912316543343
 51
232.3034264500500115
  0
ARC
  5
16D64
  8
0
 10
3460.511684275747939
 20
190.6382440883390927
 30
0.0
 40
0.4923727586935648
 50
97.6273004867014436
 51
99.9312114186995615
  0
ARC
  5
16D65
  8
0
 10
3460.4821451563238952
 20
190.91973060057731
 30
0.0
 40
0.2096119625470421
 50
77.6466082431600171
 51
99.8374265156523819
  0
ARC
  5
16D66
  8
0
 10
3460.5110426907131114
 20
191.0879268338555903
 30
0.0
 40
0.014826381039225
 50
311.6368447773555204
 51
54.6173699448497771
  0
ARC
  5
16D67
  8
0
 10
3460.4981107914431959
 20
191.1024735303691102
 30
0.0
 40
0.0342902038435752
 50
233.5488103317130992
 51
311.6368447773543835
  0
ARC
  5
16D68
  8
0
 10
3460.4986716214089029
 20
191.0719477603823009
 30
0.0
 40
0.0350273678129937
 50
53.2534447115190801
 51
133.8219598275921101
  0
LINE
  5
16D69
  8
0
 10
3460.5546305051539093
 20
191.0952932684261896
 30
0.0
 11
3460.5591409291660057
 21
191.1573115777025009
 31
0.0
  0
ARC
  5
16D6A
  8
0
 10
3460.5358897364531003
 20
191.1396059247697963
 30
0.0
 40
0.0297097751640462
 50
313.3440918669990083
 51
29.635813770592101
  0
ARC
  5
16D6B
  8
0
 10
3460.5083827284151994
 20
191.1113989739058923
 30
0.0
 40
0.0684424000954968
 50
38.812599057292438
 51
60.5907799955241231
  0
ARC
  5
16D6C
  8
0
 10
3460.4823976553479952
 20
190.9217269108727919
 30
0.0
 40
0.256719513537696
 50
92.2258387679286642
 51
105.628348467977105
  0
ARC
  5
16D6D
  8
0
 10
3460.4189043445589959
 20
191.1574236286091093
 30
0.0
 40
0.0128485000995475
 50
116.1666932997113975
 51
252.0398445204718882
  0
LINE
  5
16D6E
  8
0
 10
3460.4171483152272231
 20
191.1144522521190083
 30
0.0
 11
3460.4132383591309008
 21
191.1689553485124122
 31
0.0
  0
ARC
  5
16D6F
  8
0
 10
3460.4910101521450088
 20
191.0882759037129119
 30
0.0
 40
0.018849242633271
 50
151.6733444297653932
 51
225.2400632493965986
  0
ARC
  5
16D70
  8
0
 10
3460.4039438061458895
 20
191.000695975027412
 30
0.0
 40
0.014826381039225
 50
311.6368447773555204
 51
54.6173699448497771
  0
ARC
  5
16D71
  8
0
 10
3460.3910119068768836
 20
191.0152426715407898
 30
0.0
 40
0.0342902038435752
 50
233.5488103317130992
 51
311.6368447773543835
  0
ARC
  5
16D72
  8
0
 10
3460.3915727368421358
 20
190.9847169015540089
 30
0.0
 40
0.0350273678129937
 50
53.2534447115190801
 51
133.8219598275921101
  0
ARC
  5
16D73
  8
0
 10
3460.3839112675791512
 20
191.0010450448845916
 30
0.0
 40
0.018849242633271
 50
151.6733444297653932
 51
225.2400632493965986
  0
LINE
  5
16D74
  8
0
 10
3460.4491786701560159
 20
191.0662064942366101
 30
0.0
 11
3460.4446611161051806
 21
191.0041999922503919
 31
0.0
  0
ARC
  5
16D75
  8
0
 10
3460.4067488977370886
 20
191.0069621299327878
 30
0.0
 40
0.0380127045358143
 50
279.9643887028943254
 51
355.8330133826606243
  0
ARC
  5
16D76
  8
0
 10
3460.3928304329210732
 20
191.0305480852495918
 30
0.0
 40
0.0643752231149358
 50
229.0463020779835119
 51
288.565216764610625
  0
ARC
  5
16D77
  8
0
 10
3460.4136475910368063
 20
191.0318066831617898
 30
0.0
 40
0.0803631542048185
 50
166.5451743399815996
 51
218.3635421382440995
  0
ARC
  5
16D78
  8
0
 10
3460.3476792376750382
 20
191.046604409757407
 30
0.0
 40
0.012798168684792
 50
70.0621935435017633
 51
162.2530191432464051
  0
ARC
  5
16D79
  8
0
 10
3460.3217212356021264
 20
190.8694592059434001
 30
0.0
 40
0.1915909814008259
 50
53.2168307197519681
 51
80.8937859899805858
  0
ARC
  5
16D7A
  8
0
 10
3460.4208029312749204
 20
191.0048770066532882
 30
0.0
 40
0.0238677885821644
 50
358.3745761108228862
 51
49.0569903614908824
  0
ARC
  5
16D7B
  8
0
 10
3460.4277172658898962
 20
191.0483842874895117
 30
0.0
 40
0.0278966472256242
 50
311.9587487574190732
 51
39.7373821792996011
  0
ARC
  5
16D7C
  8
0
 10
3460.3280958556138103
 20
190.9190342857986877
 30
0.0
 40
0.1905826778830072
 50
50.5592127064014392
 51
81.4324395329505961
  0
ARC
  5
16D7D
  8
0
 10
3460.3477190398061794
 20
191.082274866124294
 30
0.0
 40
0.0266966168938123
 50
70.8242233070727565
 51
151.764550379180605
  0
ARC
  5
16D7E
  8
0
 10
3460.4208414877871292
 20
191.0771370349623908
 30
0.0
 40
0.0982622146684042
 50
169.5824034587980123
 51
206.9980448714476893
  0
LINE
  5
16D7F
  8
0
 10
3460.3333175269481217
 20
191.0341126226896051
 30
0.0
 11
3460.3285305128069922
 21
191.1008358409148968
 31
0.0
  0
ARC
  5
16D80
  8
0
 10
3460.1731653511042168
 20
190.9420042899199927
 30
0.0
 40
0.1107693844241199
 50
15.8471702401497296
 51
54.1947588751882066
  0
ARC
  5
16D81
  8
0
 10
3460.2455183319411844
 20
190.9725493809056047
 30
0.0
 40
0.0342077372722265
 50
298.6136036670812928
 51
359.5024747525969246
  0
ARC
  5
16D82
  8
0
 10
3460.2281147640260315
 20
191.0011828322645044
 30
0.0
 40
0.0676968423788849
 50
238.3930315735412933
 51
299.9386865992332218
  0
ARC
  5
16D83
  8
0
 10
3460.2103548304839933
 20
190.9726300898340128
 30
0.0
 40
0.0340721096312157
 50
182.9915905420770059
 51
238.6642577188912071
  0
ARC
  5
16D84
  8
0
 10
3460.2778913306788127
 20
190.9460422115897131
 30
0.0
 40
0.1045485328387707
 50
124.8480112630484058
 51
166.2725869047229139
  0
ARC
  5
16D85
  8
0
 10
3460.2280589880010666
 20
191.0204200850099028
 30
0.0
 40
0.0151198070009394
 50
49.0476994819709375
 51
130.9365390509975953
  0
LINE
  5
16D86
  8
0
 10
3460.2797247795488147
 20
190.9722523433364074
 30
0.0
 11
3460.2845390538632273
 21
191.0362926520124063
 31
0.0
  0
ARC
  5
16D87
  8
0
 10
3460.2590477658418422
 20
191.0167399317961952
 30
0.0
 40
0.0319280226926079
 50
314.3123569334708236
 51
30.4037093304220711
  0
ARC
  5
16D88
  8
0
 10
3460.1419884635670314
 20
190.9480514596685055
 30
0.0
 40
0.1676519573997928
 50
30.4037093304220711
 51
51.1851332778211727
  0
ARC
  5
16D89
  8
0
 10
3460.228053031105901
 20
191.0550373354770954
 30
0.0
 40
0.0303454120045781
 50
51.1851332778211727
 51
129.0731419704775078
  0
ARC
  5
16D8A
  8
0
 10
3460.3242608533441853
 20
190.9365401878860951
 30
0.0
 40
0.1829806603809687
 50
129.0731419704775078
 51
145.8065487179628974
  0
ARC
  5
16D8B
  8
0
 10
3460.2047501764968729
 20
191.0177395930855937
 30
0.0
 40
0.0384948642447931
 50
145.8065487179628974
 51
218.4158382399567984
  0
LINE
  5
16D8C
  8
0
 10
3460.1763291541360559
 20
190.9708518874172967
 30
0.0
 11
3460.1715703591357851
 21
191.0372576435285907
 31
0.0
  0
ARC
  5
16D8D
  8
0
 10
3460.2280052935361709
 20
190.9498867335229022
 30
0.0
 40
0.0353255574171601
 50
46.3880658967633579
 51
132.8885625773563959
  0
ARC
  5
16D8E
  8
0
 10
3460.2416454392209744
 20
190.9666378492375998
 30
0.0
 40
0.0138905039560022
 50
300.5022370801495981
 51
39.4472970682906023
  0
ARC
  5
16D8F
  8
0
 10
3460.2283153103080622
 20
190.9849077422481116
 30
0.0
 40
0.0364651719087676
 50
229.1292810361549925
 51
303.9800916016311021
  0
ARC
  5
16D90
  8
0
 10
3460.2137807113990675
 20
190.9668058095157903
 30
0.0
 40
0.0132934007563444
 50
137.6032799690565014
 51
225.4450997916869994
  0
ARC
  5
16D91
  8
0
 10
3459.3326466874659673
 20
190.7271379149275106
 30
0.0
 40
0.0158605807137526
 50
112.9966161537301019
 51
215.760581503819509
  0
ARC
  5
16D92
  8
0
 10
3459.3615440276112167
 20
190.7562068045556032
 30
0.0
 40
0.0566950177214783
 50
222.5482772202661863
 51
293.5268025488704211
  0
ARC
  5
16D93
  8
0
 10
3459.3797174760288726
 20
190.719576644850406
 30
0.0
 40
0.0159861554976066
 50
286.1923909850556811
 51
27.5553969136943095
  0
ARC
  5
16D94
  8
0
 10
3459.3510854904398002
 20
190.6928628033504083
 30
0.0
 40
0.0547327900958636
 50
38.5497365312722096
 51
116.7500232293591012
  0
ARC
  5
16D95
  8
0
 10
3459.28994113216595
 20
190.7406868595253115
 30
0.0
 40
0.0486730783452054
 50
118.7114519875741934
 51
220.8421640180652048
  0
ARC
  5
16D96
  8
0
 10
3459.369028239833824
 20
190.8154791324159874
 30
0.0
 40
0.1574910575545338
 50
222.6106065000012109
 51
297.4344456290330072
  0
ARC
  5
16D97
  8
0
 10
3459.4179573834499024
 20
190.7227351059898126
 30
0.0
 40
0.0526384696859408
 50
296.6765967294072084
 51
29.4459166379615489
  0
ARC
  5
16D98
  8
0
 10
3459.3436219392638122
 20
190.6436946396794099
 30
0.0
 40
0.1595290558649843
 50
41.1224901072995621
 51
118.885935083561904
  0
LINE
  5
16D99
  8
0
 10
3459.241268359645801
 20
190.7408594019699137
 30
0.0
 11
3459.2371370966429822
 21
190.7839777789062055
 31
0.0
  0
ARC
  5
16D9A
  8
0
 10
3459.2761151569038702
 20
190.7689881923496955
 30
0.0
 40
0.0417609493044361
 50
150.9454358107973917
 51
211.9808292229307085
  0
ARC
  5
16D9B
  8
0
 10
3459.3320776888408545
 20
190.7038495691550963
 30
0.0
 40
0.1258843011852876
 50
88.1936762112714234
 51
137.2691183767273913
  0
ARC
  5
16D9C
  8
0
 10
3459.3474547115520181
 20
190.6665915489577117
 30
0.0
 40
0.1634783664592842
 50
43.5085049808335782
 51
94.0018760574370731
  0
ARC
  5
16D9D
  8
0
 10
3459.4305928230360223
 20
190.7471826979642913
 30
0.0
 40
0.0477120670867652
 50
326.9211588268256037
 51
42.051616435691507
  0
LINE
  5
16D9E
  8
0
 10
3459.470578157880027
 20
190.7213703389103046
 30
0.0
 11
3459.4741619780697874
 21
190.7666292934320893
 31
0.0
  0
ARC
  5
16D9F
  8
0
 10
3458.9002864217391107
 20
190.8581931137385084
 30
0.0
 40
0.0102232792820635
 50
110.9236118895567955
 51
219.8338652021872122
  0
ARC
  5
16DA0
  8
0
 10
3458.921668652255903
 20
190.8760295383250991
 30
0.0
 40
0.0380681679321529
 50
219.8338652021884911
 51
286.3774697316845277
  0
ARC
  5
16DA1
  8
0
 10
3458.9291654485959953
 20
190.8505205797517874
 30
0.0
 40
0.0114804090412692
 50
286.3774697316845277
 51
32.3804105243224214
  0
ARC
  5
16DA2
  8
0
 10
3458.9097735818118053
 20
190.8317970226306102
 30
0.0
 40
0.0382709979693845
 50
40.5329435584729296
 51
110.0775685415546974
  0
ARC
  5
16DA3
  8
0
 10
3458.8792404510709275
 20
190.8700249670698099
 30
0.0
 40
0.0278277611967817
 50
123.4959626459029067
 51
221.9568112345355928
  0
ARC
  5
16DA4
  8
0
 10
3458.9269973873037998
 20
190.9072460892892877
 30
0.0
 40
0.0883293699154341
 50
219.1993180164608077
 51
293.846475108684217
  0
ARC
  5
16DA5
  8
0
 10
3458.9491344745720198
 20
190.8532828318415966
 30
0.0
 40
0.0300640914076377
 50
296.8387251171225785
 51
35.5147475015145773
  0
ARC
  5
16DA6
  8
0
 10
3458.904229455803943
 20
190.8111558604593085
 30
0.0
 40
0.0914560481217059
 50
40.6613664384212186
 51
116.1777705275666932
  0
LINE
  5
16DA7
  8
0
 10
3458.8514800521252255
 20
190.871960049388008
 30
0.0
 11
3458.8461968746400998
 21
190.9383728332306021
 31
0.0
  0
ARC
  5
16DA8
  8
0
 10
3458.8678288248611352
 20
190.9210276688725116
 30
0.0
 40
0.0277271707354273
 50
138.0625865478235141
 51
227.820385373451586
  0
ARC
  5
16DA9
  8
0
 10
3458.8969589916027871
 20
190.8587354282391004
 30
0.0
 40
0.0949102752243234
 50
71.8551023363055776
 51
121.6170672381314972
  0
ARC
  5
16DAA
  8
0
 10
3458.9023943868419337
 20
190.8400023503077136
 30
0.0
 40
0.1115626171787395
 50
43.109095863334133
 51
77.5130961225025601
  0
ARC
  5
16DAB
  8
0
 10
3458.9643774770588607
 20
190.8945147019624073
 30
0.0
 40
0.029171141471741
 50
308.4427532749106717
 51
48.1469965107775124
  0
LINE
  5
16DAC
  8
0
 10
3458.9790299886381035
 20
190.8501035503294929
 30
0.0
 11
3458.9887866616118117
 21
190.9104880298619946
 31
0.0
  0
ARC
  5
16DAD
  8
0
 10
3459.4267339307389193
 20
190.960714024438488
 30
0.0
 40
0.0102232792820635
 50
110.9236118895567955
 51
219.8338652021872122
  0
ARC
  5
16DAE
  8
0
 10
3459.4481161612570759
 20
190.9785504490251071
 30
0.0
 40
0.0380681679321529
 50
219.8338652021884911
 51
286.3774697316845277
  0
ARC
  5
16DAF
  8
0
 10
3459.4556129575948944
 20
190.9530414904517954
 30
0.0
 40
0.0114804090412692
 50
286.3774697316845277
 51
32.3804105243224214
  0
ARC
  5
16DB0
  8
0
 10
3459.4362210908120687
 20
190.9343179333305898
 30
0.0
 40
0.0382709979693845
 50
40.5329435584729296
 51
110.0775685415546974
  0
ARC
  5
16DB1
  8
0
 10
3459.4056879600711909
 20
190.9725458777697895
 30
0.0
 40
0.0278277611967817
 50
123.4959626459029067
 51
221.9568112345355928
  0
ARC
  5
16DB2
  8
0
 10
3459.4534448963040631
 20
191.0097669999892105
 30
0.0
 40
0.0883293699154341
 50
219.1993180164608077
 51
293.846475108684217
  0
ARC
  5
16DB3
  8
0
 10
3459.4755819835718285
 20
190.9558037425416046
 30
0.0
 40
0.0300640914076377
 50
296.8387251171466801
 51
35.5147475015145773
  0
ARC
  5
16DB4
  8
0
 10
3459.4306769648042064
 20
190.9136767711594018
 30
0.0
 40
0.0914560481217059
 50
40.6613664384212186
 51
116.1777705275666932
  0
LINE
  5
16DB5
  8
0
 10
3459.3779275611250341
 20
190.9744809600879876
 30
0.0
 11
3459.3726443836399085
 21
191.0408937439304964
 31
0.0
  0
ARC
  5
16DB6
  8
0
 10
3459.3942763338618533
 20
191.0235485795724912
 30
0.0
 40
0.0277271707354273
 50
138.0625865478235141
 51
227.820385373451586
  0
ARC
  5
16DB7
  8
0
 10
3459.4234065006030505
 20
190.9612563389391084
 30
0.0
 40
0.0949102752243234
 50
71.8551023363055776
 51
121.6170672381314972
  0
ARC
  5
16DB8
  8
0
 10
3459.4288418958421971
 20
190.9425232610076932
 30
0.0
 40
0.1115626171787395
 50
43.109095863334133
 51
77.5130961225025601
  0
ARC
  5
16DB9
  8
0
 10
3459.4908249860582146
 20
190.9970356126623869
 30
0.0
 40
0.029171141471741
 50
308.4427532749106717
 51
48.1469965107775124
  0
LINE
  5
16DBA
  8
0
 10
3459.5054774976379122
 20
190.9526244610295009
 30
0.0
 11
3459.5152341706120751
 21
191.0130089405620026
 31
0.0
  0
ARC
  5
16DBB
  8
0
 10
3458.497996808238895
 20
191.1609252284384866
 30
0.0
 40
0.0102232792820635
 50
110.9236118895567955
 51
219.8338652021872122
  0
ARC
  5
16DBC
  8
0
 10
3458.5193790387570516
 20
191.1787616530251057
 30
0.0
 40
0.0380681679321529
 50
219.8338652021884911
 51
286.3774697316845277
  0
ARC
  5
16DBD
  8
0
 10
3458.5268758350948701
 20
191.153252694451794
 30
0.0
 40
0.0114804090412692
 50
286.3774697316845277
 51
32.3804105243224214
  0
ARC
  5
16DBE
  8
0
 10
3458.5074839683120445
 20
191.1345291373305884
 30
0.0
 40
0.0382709979693845
 50
40.5329435584729296
 51
110.0775685415546974
  0
ARC
  5
16DBF
  8
0
 10
3458.4769508375698024
 20
191.1727570817699018
 30
0.0
 40
0.0278277611967817
 50
123.4959626459029067
 51
221.9568112345355928
  0
ARC
  5
16DC0
  8
0
 10
3458.5247077738040389
 20
191.2099782039892943
 30
0.0
 40
0.0883293699154341
 50
219.1993180164608077
 51
293.846475108684217
  0
ARC
  5
16DC1
  8
0
 10
3458.5468448610718042
 20
191.1560149465416032
 30
0.0
 40
0.0300640914076377
 50
296.8387251171466801
 51
35.5147475015145773
  0
ARC
  5
16DC2
  8
0
 10
3458.5019398423041821
 20
191.1138879751592867
 30
0.0
 40
0.0914560481217059
 50
40.6613664384212186
 51
116.1777705275666932
  0
LINE
  5
16DC3
  8
0
 10
3458.4491904386250098
 20
191.1746921640879862
 30
0.0
 11
3458.4439072611398842
 21
191.241104947930495
 31
0.0
  0
ARC
  5
16DC4
  8
0
 10
3458.4655392113618291
 20
191.2237597835724898
 30
0.0
 40
0.0277271707354273
 50
138.0625865478235141
 51
227.820385373451586
  0
ARC
  5
16DC5
  8
0
 10
3458.4946693781030262
 20
191.161467542939107
 30
0.0
 40
0.0949102752243234
 50
71.8551023363055776
 51
121.6170672381314972
  0
ARC
  5
16DC6
  8
0
 10
3458.5001047733421728
 20
191.1427344650076918
 30
0.0
 40
0.1115626171787395
 50
43.109095863334133
 51
77.5130961225025601
  0
ARC
  5
16DC7
  8
0
 10
3458.5620878635581903
 20
191.1972468166624139
 30
0.0
 40
0.029171141471741
 50
308.4427532749106717
 51
48.1469965107775124
  0
LINE
  5
16DC8
  8
0
 10
3458.5767403751378879
 20
191.1528356650294995
 30
0.0
 11
3458.5864970481120508
 21
191.2132201445620012
 31
0.0
  0
ARC
  5
16DC9
  8
0
 10
3458.7862011653887748
 20
191.4054005730384915
 30
0.0
 40
0.0102232792820635
 50
110.9236118895567955
 51
219.8338652021872122
  0
ARC
  5
16DCA
  8
0
 10
3458.8075833959069314
 20
191.4232369976251107
 30
0.0
 40
0.0380681679321529
 50
219.8338652021884911
 51
286.3774697316845277
  0
ARC
  5
16DCB
  8
0
 10
3458.8150801922452047
 20
191.397728039051799
 30
0.0
 40
0.0114804090412692
 50
286.3774697316845277
 51
32.3804105243224214
  0
ARC
  5
16DCC
  8
0
 10
3458.7956883254610148
 20
191.3790044819305933
 30
0.0
 40
0.0382709979693845
 50
40.5329435584729296
 51
110.0775685415546974
  0
ARC
  5
16DCD
  8
0
 10
3458.7651551947210464
 20
191.4172324263699068
 30
0.0
 40
0.0278277611967817
 50
123.4959626459029067
 51
221.9568112345355928
  0
ARC
  5
16DCE
  8
0
 10
3458.8129121309539187
 20
191.4544535485892993
 30
0.0
 40
0.0883293699154341
 50
219.1993180164608077
 51
293.846475108684217
  0
ARC
  5
16DCF
  8
0
 10
3458.8350492182221387
 20
191.4004902911416082
 30
0.0
 40
0.0300640914076377
 50
296.8387251171466801
 51
35.5147475015145773
  0
ARC
  5
16DD0
  8
0
 10
3458.7901441994540619
 20
191.3583633197592917
 30
0.0
 40
0.0914560481217059
 50
40.6613664384212186
 51
116.1777705275666932
  0
LINE
  5
16DD1
  8
0
 10
3458.7373947957739801
 20
191.4191675086879911
 30
0.0
 11
3458.7321116182902188
 21
191.4855802925304999
 31
0.0
  0
ARC
  5
16DD2
  8
0
 10
3458.7537435685107994
 20
191.4682351281724948
 30
0.0
 40
0.0277271707354273
 50
138.0625865478235141
 51
227.820385373451586
  0
ARC
  5
16DD3
  8
0
 10
3458.7828737352519965
 20
191.405942887539112
 30
0.0
 40
0.0949102752243234
 50
71.8551023363055776
 51
121.6170672381314972
  0
ARC
  5
16DD4
  8
0
 10
3458.7883091304920526
 20
191.3872098096076968
 30
0.0
 40
0.1115626171787395
 50
43.109095863334133
 51
77.5130961225025601
  0
ARC
  5
16DD5
  8
0
 10
3458.8502922207080701
 20
191.4417221612623905
 30
0.0
 40
0.029171141471741
 50
308.4427532749106717
 51
48.1469965107775124
  0
LINE
  5
16DD6
  8
0
 10
3458.8649447322868582
 20
191.3973110096295045
 30
0.0
 11
3458.8747014052619306
 21
191.4576954891620062
 31
0.0
  0
ARC
  5
16DD7
  8
0
 10
3458.6375805719308119
 20
191.8249020936837042
 30
0.0
 40
0.0102232792820635
 50
110.9236118895567955
 51
219.8338652021872122
  0
ARC
  5
16DD8
  8
0
 10
3458.6589628024489684
 20
191.8427385182702949
 30
0.0
 40
0.0380681679321529
 50
219.8338652021884911
 51
286.3774697316845277
  0
ARC
  5
16DD9
  8
0
 10
3458.666459598786787
 20
191.8172295596970116
 30
0.0
 40
0.0114804090412692
 50
286.3774697316845277
 51
32.3804105243224214
  0
ARC
  5
16DDA
  8
0
 10
3458.6470677320030518
 20
191.798506002575806
 30
0.0
 40
0.0382709979693845
 50
40.5329435584729296
 51
110.0775685415546974
  0
ARC
  5
16DDB
  8
0
 10
3458.616534601262174
 20
191.836733947015091
 30
0.0
 40
0.0278277611967817
 50
123.4959626459029067
 51
221.9568112345355928
  0
ARC
  5
16DDC
  8
0
 10
3458.6642915374959557
 20
191.8739550692345119
 30
0.0
 40
0.0883293699154341
 50
219.1993180164608077
 51
293.846475108684217
  0
ARC
  5
16DDD
  8
0
 10
3458.6864286247641758
 20
191.8199918117867924
 30
0.0
 40
0.0300640914076377
 50
296.8387251171466801
 51
35.5147475015145773
  0
ARC
  5
16DDE
  8
0
 10
3458.6415236059960989
 20
191.7778648404045043
 30
0.0
 40
0.0914560481217059
 50
40.6613664384212186
 51
116.1777705275666932
  0
LINE
  5
16DDF
  8
0
 10
3458.5887742023160172
 20
191.8386690293332038
 30
0.0
 11
3458.583491024831801
 21
191.9050818131757978
 31
0.0
  0
ARC
  5
16DE0
  8
0
 10
3458.6051229750528364
 20
191.8877366488177074
 30
0.0
 40
0.0277271707354273
 50
138.0625865478235141
 51
227.820385373451586
  0
ARC
  5
16DE1
  8
0
 10
3458.6342531417940336
 20
191.8254444081844099
 30
0.0
 40
0.0949102752243234
 50
71.8551023363055776
 51
121.6170672381314972
  0
ARC
  5
16DE2
  8
0
 10
3458.6396885370331802
 20
191.8067113302529094
 30
0.0
 40
0.1115626171787395
 50
43.109095863334133
 51
77.5130961225025601
  0
ARC
  5
16DE3
  8
0
 10
3458.7016716272501071
 20
191.8612236819076031
 30
0.0
 40
0.029171141471741
 50
308.4427532749106717
 51
48.1469965107775124
  0
LINE
  5
16DE4
  8
0
 10
3458.7163241388288952
 20
191.8168125302746887
 30
0.0
 11
3458.7260808118039677
 21
191.8771970098071904
 31
0.0
  0
ARC
  5
16DE5
  8
0
 10
3459.1227901209849733
 20
191.9149824402377931
 30
0.0
 40
0.0102232792820635
 50
110.9236118895567955
 51
219.8338652021872122
  0
ARC
  5
16DE6
  8
0
 10
3459.1441723515031299
 20
191.9328188648244122
 30
0.0
 40
0.0380681679321529
 50
219.8338652021884911
 51
286.3774697316845277
  0
ARC
  5
16DE7
  8
0
 10
3459.1516691478418579
 20
191.9073099062511005
 30
0.0
 40
0.0114804090412692
 50
286.3774697316845277
 51
32.3804105243224214
  0
ARC
  5
16DE8
  8
0
 10
3459.1322772810581228
 20
191.8885863491298096
 30
0.0
 40
0.0382709979693845
 50
40.5329435584729296
 51
110.0775685415546974
  0
ARC
  5
16DE9
  8
0
 10
3459.1017441503167902
 20
191.9268142935690946
 30
0.0
 40
0.0278277611967817
 50
123.4959626459029067
 51
221.9568112345355928
  0
ARC
  5
16DEA
  8
0
 10
3459.1495010865501172
 20
191.9640354157884872
 30
0.0
 40
0.0883293699154341
 50
219.1993180164608077
 51
293.846475108684217
  0
ARC
  5
16DEB
  8
0
 10
3459.1716381738178825
 20
191.9100721583409097
 30
0.0
 40
0.0300640914076377
 50
296.8387251171466801
 51
35.5147475015145773
  0
ARC
  5
16DEC
  8
0
 10
3459.1267331550511699
 20
191.8679451869585932
 30
0.0
 40
0.0914560481217059
 50
40.6613664384212186
 51
116.1777705275666932
  0
LINE
  5
16DED
  8
0
 10
3459.0739837513710881
 20
191.9287493758872074
 30
0.0
 11
3459.0687005738859625
 21
191.9951621597298015
 31
0.0
  0
ARC
  5
16DEE
  8
0
 10
3459.0903325241079074
 20
191.9778169953717963
 30
0.0
 40
0.0277271707354273
 50
138.0625865478235141
 51
227.820385373451586
  0
ARC
  5
16DEF
  8
0
 10
3459.1194626908491045
 20
191.9155247547384135
 30
0.0
 40
0.0949102752243234
 50
71.8551023363055776
 51
121.6170672381314972
  0
ARC
  5
16DF0
  8
0
 10
3459.1248980860877964
 20
191.8967916768069131
 30
0.0
 40
0.1115626171787395
 50
43.109095863334133
 51
77.5130961225025601
  0
ARC
  5
16DF1
  8
0
 10
3459.1868811763038138
 20
191.951304028461692
 30
0.0
 40
0.029171141471741
 50
308.4427532749106717
 51
48.1469965107775124
  0
LINE
  5
16DF2
  8
0
 10
3459.2015336878839662
 20
191.9068928768286924
 30
0.0
 11
3459.2112903608581291
 21
191.9672773563613077
 31
0.0
  0
ARC
  5
16DF3
  8
0
 10
3459.2770175259888674
 20
192.3385426970885135
 30
0.0
 40
0.0102232792820635
 50
110.9236118895567955
 51
219.8338652021872122
  0
ARC
  5
16DF4
  8
0
 10
3459.2983997565061145
 20
192.3563791216751042
 30
0.0
 40
0.0380681679321529
 50
219.8338652021884911
 51
286.3774697316845277
  0
ARC
  5
16DF5
  8
0
 10
3459.3058965528462068
 20
192.3308701631017925
 30
0.0
 40
0.0114804090412692
 50
286.3774697316845277
 51
32.3804105243224214
  0
ARC
  5
16DF6
  8
0
 10
3459.2865046860620168
 20
192.3121466059805869
 30
0.0
 40
0.0382709979693845
 50
40.5329435584729296
 51
110.0775685415546974
  0
ARC
  5
16DF7
  8
0
 10
3459.255971555321139
 20
192.3503745504199003
 30
0.0
 40
0.0278277611967817
 50
123.4959626459029067
 51
221.9568112345355928
  0
ARC
  5
16DF8
  8
0
 10
3459.3037284915540113
 20
192.3875956726392928
 30
0.0
 40
0.0883293699154341
 50
219.1993180164608077
 51
293.846475108684217
  0
ARC
  5
16DF9
  8
0
 10
3459.3258655788217766
 20
192.3336324151916017
 30
0.0
 40
0.0300640914076377
 50
296.8387251171466801
 51
35.5147475015145773
  0
ARC
  5
16DFA
  8
0
 10
3459.2809605600541545
 20
192.2915054438093136
 30
0.0
 40
0.0914560481217059
 50
40.6613664384212186
 51
116.1777705275666932
  0
LINE
  5
16DFB
  8
0
 10
3459.2282111563749822
 20
192.3523096327380131
 30
0.0
 11
3459.2229279788912208
 21
192.4187224165804935
 31
0.0
  0
ARC
  5
16DFC
  8
0
 10
3459.2445599291118015
 20
192.4013772522224883
 30
0.0
 40
0.0277271707354273
 50
138.0625865478235141
 51
227.820385373451586
  0
ARC
  5
16DFD
  8
0
 10
3459.2736900958529986
 20
192.3390850115891055
 30
0.0
 40
0.0949102752243234
 50
71.8551023363055776
 51
121.6170672381314972
  0
ARC
  5
16DFE
  8
0
 10
3459.2791254910921452
 20
192.3203519336576903
 30
0.0
 40
0.1115626171787395
 50
43.109095863334133
 51
77.5130961225025601
  0
ARC
  5
16DFF
  8
0
 10
3459.3411085813081627
 20
192.3748642853124124
 30
0.0
 40
0.029171141471741
 50
308.4427532749106717
 51
48.1469965107775124
  0
LINE
  5
16E00
  8
0
 10
3459.3557610928878603
 20
192.330453133679498
 30
0.0
 11
3459.3655177658620232
 21
192.3908376132119997
 31
0.0
  0
ARC
  5
16E01
  8
0
 10
3459.8055923609890669
 20
192.2280838431885002
 30
0.0
 40
0.0102232792820635
 50
110.9236118895567955
 51
219.8338652021872122
  0
ARC
  5
16E02
  8
0
 10
3459.8269745915058593
 20
192.2459202677750909
 30
0.0
 40
0.0380681679321529
 50
219.8338652021884911
 51
286.3774697316845277
  0
ARC
  5
16E03
  8
0
 10
3459.834471387845042
 20
192.2204113092018076
 30
0.0
 40
0.0114804090412692
 50
286.3774697316845277
 51
32.3804105243224214
  0
ARC
  5
16E04
  8
0
 10
3459.8150795210622164
 20
192.201687752080602
 30
0.0
 40
0.0382709979693845
 50
40.5329435584729296
 51
110.0775685415546974
  0
ARC
  5
16E05
  8
0
 10
3459.7845463903199743
 20
192.2399156965198017
 30
0.0
 40
0.0278277611967817
 50
123.4959626459029067
 51
221.9568112345355928
  0
ARC
  5
16E06
  8
0
 10
3459.8323033265542108
 20
192.2771368187391943
 30
0.0
 40
0.0883293699154341
 50
219.1993180164608077
 51
293.846475108684217
  0
ARC
  5
16E07
  8
0
 10
3459.8544404138228856
 20
192.2231735612915884
 30
0.0
 40
0.0300640914076377
 50
296.8387251171466801
 51
35.5147475015145773
  0
ARC
  5
16E08
  8
0
 10
3459.8095353950538993
 20
192.181046589909414
 30
0.0
 40
0.0914560481217059
 50
40.6613664384212186
 51
116.1777705275666932
  0
LINE
  5
16E09
  8
0
 10
3459.7567859913751818
 20
192.2418507788379998
 30
0.0
 11
3459.7515028138891466
 21
192.3082635626805086
 31
0.0
  0
ARC
  5
16E0A
  8
0
 10
3459.7731347641110915
 20
192.2909183983225034
 30
0.0
 40
0.0277271707354273
 50
138.0625865478235141
 51
227.820385373451586
  0
ARC
  5
16E0B
  8
0
 10
3459.8022649308531982
 20
192.2286261576892059
 30
0.0
 40
0.0949102752243234
 50
71.8551023363055776
 51
121.6170672381314972
  0
ARC
  5
16E0C
  8
0
 10
3459.80770032609189
 20
192.2098930797577054
 30
0.0
 40
0.1115626171787395
 50
43.109095863334133
 51
77.5130961225025601
  0
ARC
  5
16E0D
  8
0
 10
3459.869683416308817
 20
192.2644054314123991
 30
0.0
 40
0.029171141471741
 50
308.4427532749106717
 51
48.1469965107775124
  0
LINE
  5
16E0E
  8
0
 10
3459.8843359278871503
 20
192.2199942797795131
 30
0.0
 11
3459.8940926008622228
 21
192.2803787593119864
 31
0.0
  0
ARC
  5
16E0F
  8
0
 10
3459.9704139304390083
 20
191.773999202438489
 30
0.0
 40
0.0102232792820635
 50
110.9236118895567955
 51
219.8338652021872122
  0
ARC
  5
16E10
  8
0
 10
3459.9917961609558006
 20
191.7918356270251081
 30
0.0
 40
0.0380681679321529
 50
219.8338652021884911
 51
286.3774697316845277
  0
ARC
  5
16E11
  8
0
 10
3459.9992929572949834
 20
191.7663266684517964
 30
0.0
 40
0.0114804090412692
 50
286.3774697316845277
 51
32.3804105243224214
  0
ARC
  5
16E12
  8
0
 10
3459.9799010905121577
 20
191.7476031113305908
 30
0.0
 40
0.0382709979693845
 50
40.5329435584729296
 51
110.0775685415546974
  0
ARC
  5
16E13
  8
0
 10
3459.9493679597708251
 20
191.7858310557697905
 30
0.0
 40
0.0278277611967817
 50
123.4959626459029067
 51
221.9568112345355928
  0
ARC
  5
16E14
  8
0
 10
3459.9971248960041521
 20
191.8230521779892968
 30
0.0
 40
0.0883293699154341
 50
219.1993180164608077
 51
293.846475108684217
  0
ARC
  5
16E15
  8
0
 10
3460.0192619832719174
 20
191.7690889205416056
 30
0.0
 40
0.0300640914076377
 50
296.8387251171466801
 51
35.5147475015145773
  0
ARC
  5
16E16
  8
0
 10
3459.9743569645038406
 20
191.7269619491592891
 30
0.0
 40
0.0914560481217059
 50
40.6613664384212186
 51
116.1777705275666932
  0
LINE
  5
16E17
  8
0
 10
3459.9216075608242136
 20
191.7877661380879886
 30
0.0
 11
3459.9163243833390879
 21
191.8541789219304974
 31
0.0
  0
ARC
  5
16E18
  8
0
 10
3459.9379563335610328
 20
191.8368337575724922
 30
0.0
 40
0.0277271707354273
 50
138.0625865478235141
 51
227.820385373451586
  0
ARC
  5
16E19
  8
0
 10
3459.9670865003031395
 20
191.7745415169391947
 30
0.0
 40
0.0949102752243234
 50
71.8551023363055776
 51
121.6170672381314972
  0
ARC
  5
16E1A
  8
0
 10
3459.9725218955418313
 20
191.7558084390076942
 30
0.0
 40
0.1115626171787395
 50
43.109095863334133
 51
77.5130961225025601
  0
ARC
  5
16E1B
  8
0
 10
3460.034504985759213
 20
191.8103207906623879
 30
0.0
 40
0.029171141471741
 50
308.4427532749106717
 51
48.1469965107775124
  0
LINE
  5
16E1C
  8
0
 10
3460.0491574973370916
 20
191.7659096390295019
 30
0.0
 11
3460.0589141703130736
 21
191.8262941185620036
 31
0.0
  0
ARC
  5
16E1D
  8
0
 10
3459.5591966831398167
 20
191.5951747404384946
 30
0.0
 40
0.0102232792820635
 50
110.9236118895567955
 51
219.8338652021872122
  0
ARC
  5
16E1E
  8
0
 10
3459.5805789136561543
 20
191.6130111650251138
 30
0.0
 40
0.0380681679321529
 50
219.8338652021884911
 51
286.3774697316845277
  0
ARC
  5
16E1F
  8
0
 10
3459.5880757099948823
 20
191.5875022064518021
 30
0.0
 40
0.0114804090412692
 50
286.3774697316845277
 51
32.3804105243224214
  0
ARC
  5
16E20
  8
0
 10
3459.5686838432120567
 20
191.5687786493305964
 30
0.0
 40
0.0382709979693845
 50
40.5329435584729296
 51
110.0775685415546974
  0
ARC
  5
16E21
  8
0
 10
3459.5381507124711788
 20
191.6070065937699098
 30
0.0
 40
0.0278277611967817
 50
123.4959626459029067
 51
221.9568112345355928
  0
ARC
  5
16E22
  8
0
 10
3459.5859076487040511
 20
191.6442277159893024
 30
0.0
 40
0.0883293699154341
 50
219.1993180164608077
 51
293.846475108684217
  0
ARC
  5
16E23
  8
0
 10
3459.6080447359718164
 20
191.5902644585416112
 30
0.0
 40
0.0300640914076377
 50
296.8387251171466801
 51
35.5147475015145773
  0
ARC
  5
16E24
  8
0
 10
3459.5631397172041943
 20
191.5481374871592948
 30
0.0
 40
0.0914560481217059
 50
40.6613664384212186
 51
116.1777705275666932
  0
LINE
  5
16E25
  8
0
 10
3459.5103903135250221
 20
191.6089416760879942
 30
0.0
 11
3459.5051071360398964
 21
191.675354459930503
 31
0.0
  0
ARC
  5
16E26
  8
0
 10
3459.5267390862618413
 20
191.6580092955724979
 30
0.0
 40
0.0277271707354273
 50
138.0625865478235141
 51
227.820385373451586
  0
ARC
  5
16E27
  8
0
 10
3459.5558692530030385
 20
191.5957170549390867
 30
0.0
 40
0.0949102752243234
 50
71.8551023363055776
 51
121.6170672381314972
  0
ARC
  5
16E28
  8
0
 10
3459.5613046482421851
 20
191.5769839770076999
 30
0.0
 40
0.1115626171787395
 50
43.109095863334133
 51
77.5130961225025601
  0
ARC
  5
16E29
  8
0
 10
3459.6232877384582025
 20
191.6314963286623936
 30
0.0
 40
0.029171141471741
 50
308.4427532749106717
 51
48.1469965107775124
  0
LINE
  5
16E2A
  8
0
 10
3459.6379402500379001
 20
191.5870851770295076
 30
0.0
 11
3459.6476969230120631
 21
191.6474696565620945
 31
0.0
  0
ARC
  5
16E2B
  8
0
 10
3459.8956381067391703
 20
191.5299803161385057
 30
0.0
 40
0.0102232792820635
 50
110.9236118895567955
 51
219.8338652021872122
  0
ARC
  5
16E2C
  8
0
 10
3459.9170203372568722
 20
191.5478167407250965
 30
0.0
 40
0.0380681679321529
 50
219.8338652021884911
 51
286.3774697316845277
  0
ARC
  5
16E2D
  8
0
 10
3459.9245171335951454
 20
191.5223077821518132
 30
0.0
 40
0.0114804090412692
 50
286.3774697316845277
 51
32.3804105243224214
  0
ARC
  5
16E2E
  8
0
 10
3459.9051252668109555
 20
191.5035842250306075
 30
0.0
 40
0.0382709979693845
 50
40.5329435584729296
 51
110.0775685415546974
  0
ARC
  5
16E2F
  8
0
 10
3459.8745921360709872
 20
191.5418121694698073
 30
0.0
 40
0.0278277611967817
 50
123.4959626459029067
 51
221.9568112345355928
  0
ARC
  5
16E30
  8
0
 10
3459.9223490723038594
 20
191.5790332916893135
 30
0.0
 40
0.0883293699154341
 50
219.1993180164608077
 51
293.846475108684217
  0
ARC
  5
16E31
  8
0
 10
3459.9444861595720795
 20
191.5250700342415939
 30
0.0
 40
0.0300640914076377
 50
296.8387251171466801
 51
35.5147475015145773
  0
ARC
  5
16E32
  8
0
 10
3459.8995811408040026
 20
191.4829430628593059
 30
0.0
 40
0.0914560481217059
 50
40.6613664384212186
 51
116.1777705275666932
  0
LINE
  5
16E33
  8
0
 10
3459.8468317371239209
 20
191.5437472517880053
 30
0.0
 11
3459.8415485596401595
 21
191.6101600356305141
 31
0.0
  0
ARC
  5
16E34
  8
0
 10
3459.8631805098621044
 20
191.592814871272509
 30
0.0
 40
0.0277271707354273
 50
138.0625865478235141
 51
227.820385373451586
  0
ARC
  5
16E35
  8
0
 10
3459.8923106766028468
 20
191.5305226306390978
 30
0.0
 40
0.0949102752243234
 50
71.8551023363055776
 51
121.6170672381314972
  0
ARC
  5
16E36
  8
0
 10
3459.8977460718419934
 20
191.511789552707711
 30
0.0
 40
0.1115626171787395
 50
43.109095863334133
 51
77.5130961225025601
  0
ARC
  5
16E37
  8
0
 10
3459.9597291620580108
 20
191.5663019043624047
 30
0.0
 40
0.029171141471741
 50
308.4427532749106717
 51
48.1469965107775124
  0
LINE
  5
16E38
  8
0
 10
3459.974381673636799
 20
191.5218907527294903
 30
0.0
 11
3459.9841383466118714
 21
191.582275232261992
 31
0.0
  0
ARC
  5
16E39
  8
0
 10
3459.687364269138925
 20
191.35394990533851
 30
0.0
 40
0.0102232792820635
 50
110.9236118895567955
 51
219.8338652021872122
  0
ARC
  5
16E3A
  8
0
 10
3459.7087464996561721
 20
191.3717863299251007
 30
0.0
 40
0.0380681679321529
 50
219.8338652021884911
 51
286.3774697316845277
  0
ARC
  5
16E3B
  8
0
 10
3459.7162432959949001
 20
191.346277371351789
 30
0.0
 40
0.0114804090412692
 50
286.3774697316845277
 51
32.3804105243224214
  0
ARC
  5
16E3C
  8
0
 10
3459.6968514292120744
 20
191.3275538142306118
 30
0.0
 40
0.0382709979693845
 50
40.5329435584729296
 51
110.0775685415546974
  0
ARC
  5
16E3D
  8
0
 10
3459.6663182984711966
 20
191.3657817586698968
 30
0.0
 40
0.0278277611967817
 50
123.4959626459029067
 51
221.9568112345355928
  0
ARC
  5
16E3E
  8
0
 10
3459.7140752347049784
 20
191.4030028808892894
 30
0.0
 40
0.0883293699154341
 50
219.1993180164608077
 51
293.846475108684217
  0
ARC
  5
16E3F
  8
0
 10
3459.7362123219718342
 20
191.3490396234415982
 30
0.0
 40
0.0300640914076377
 50
296.8387251171466801
 51
35.5147475015145773
  0
ARC
  5
16E40
  8
0
 10
3459.6913073032042121
 20
191.3069126520593102
 30
0.0
 40
0.0914560481217059
 50
40.6613664384212186
 51
116.1777705275666932
  0
LINE
  5
16E41
  8
0
 10
3459.6385578995250398
 20
191.3677168409880096
 30
0.0
 11
3459.6332747220399142
 21
191.4341296248306037
 31
0.0
  0
ARC
  5
16E42
  8
0
 10
3459.6549066722618591
 20
191.4167844604725133
 30
0.0
 40
0.0277271707354273
 50
138.0625865478235141
 51
227.820385373451586
  0
ARC
  5
16E43
  8
0
 10
3459.6840368390030562
 20
191.3544922198391021
 30
0.0
 40
0.0949102752243234
 50
71.8551023363055776
 51
121.6170672381314972
  0
ARC
  5
16E44
  8
0
 10
3459.6894722342422028
 20
191.3357591419076869
 30
0.0
 40
0.1115626171787395
 50
43.109095863334133
 51
77.5130961225025601
  0
ARC
  5
16E45
  8
0
 10
3459.7514553244591298
 20
191.390271493562409
 30
0.0
 40
0.029171141471741
 50
308.4427532749106717
 51
48.1469965107775124
  0
LINE
  5
16E46
  8
0
 10
3459.7661078360370084
 20
191.3458603419294946
 30
0.0
 11
3459.7758645090120808
 21
191.4062448214619963
 31
0.0
  0
ARC
  5
16E47
  8
0
 10
3459.3556437606389409
 20
191.2931712663385042
 30
0.0
 40
0.0102232792820635
 50
110.9236118895567955
 51
219.8338652021872122
  0
ARC
  5
16E48
  8
0
 10
3459.3770259911570975
 20
191.3110076909250949
 30
0.0
 40
0.0380681679321529
 50
219.8338652021884911
 51
286.3774697316845277
  0
ARC
  5
16E49
  8
0
 10
3459.384522787494916
 20
191.2854987323518117
 30
0.0
 40
0.0114804090412692
 50
286.3774697316845277
 51
32.3804105243224214
  0
ARC
  5
16E4A
  8
0
 10
3459.3651309207120903
 20
191.2667751752304923
 30
0.0
 40
0.0382709979693845
 50
40.5329435584729296
 51
110.0775685415546974
  0
ARC
  5
16E4B
  8
0
 10
3459.3345977899698482
 20
191.3050031196698058
 30
0.0
 40
0.0278277611967817
 50
123.4959626459029067
 51
221.9568112345355928
  0
ARC
  5
16E4C
  8
0
 10
3459.3823547262040847
 20
191.342224241889312
 30
0.0
 40
0.0883293699154341
 50
219.1993180164608077
 51
293.846475108684217
  0
ARC
  5
16E4D
  8
0
 10
3459.40449181347185
 20
191.2882609844415924
 30
0.0
 40
0.0300640914076377
 50
296.8387251171466801
 51
35.5147475015145773
  0
ARC
  5
16E4E
  8
0
 10
3459.3595867947037732
 20
191.2461340130593044
 30
0.0
 40
0.0914560481217059
 50
40.6613664384212186
 51
116.1777705275666932
  0
LINE
  5
16E4F
  8
0
 10
3459.3068373910250557
 20
191.3069382019880038
 30
0.0
 11
3459.3015542135399301
 21
191.3733509858305126
 31
0.0
  0
ARC
  5
16E50
  8
0
 10
3459.3231861637609654
 20
191.3560058214725075
 30
0.0
 40
0.0277271707354273
 50
138.0625865478235141
 51
227.820385373451586
  0
ARC
  5
16E51
  8
0
 10
3459.3523163305030721
 20
191.2937135808390963
 30
0.0
 40
0.0949102752243234
 50
71.8551023363055776
 51
121.6170672381314972
  0
ARC
  5
16E52
  8
0
 10
3459.3577517257422187
 20
191.2749805029077095
 30
0.0
 40
0.1115626171787395
 50
43.109095863334133
 51
77.5130961225025601
  0
ARC
  5
16E53
  8
0
 10
3459.4197348159577814
 20
191.3294928545624032
 30
0.0
 40
0.029171141471741
 50
308.4427532749106717
 51
48.1469965107775124
  0
LINE
  5
16E54
  8
0
 10
3459.4343873275379337
 20
191.2850817029294035
 30
0.0
 11
3459.4441440005120967
 21
191.3454661824619905
 31
0.0
  0
ARC
  5
16E55
  8
0
 10
3459.6391986820890452
 20
191.1378742752384881
 30
0.0
 40
0.0102232792820635
 50
110.9236118895567955
 51
219.8338652021872122
  0
ARC
  5
16E56
  8
0
 10
3459.6605809126058375
 20
191.1557106998251072
 30
0.0
 40
0.0380681679321529
 50
219.8338652021884911
 51
286.3774697316845277
  0
ARC
  5
16E57
  8
0
 10
3459.6680777089459298
 20
191.1302017412517955
 30
0.0
 40
0.0114804090412692
 50
286.3774697316845277
 51
32.3804105243224214
  0
ARC
  5
16E58
  8
0
 10
3459.6486858421608304
 20
191.1114781841305899
 30
0.0
 40
0.0382709979693845
 50
40.5329435584729296
 51
110.0775685415546974
  0
ARC
  5
16E59
  8
0
 10
3459.618152711420862
 20
191.1497061285697896
 30
0.0
 40
0.0278277611967817
 50
123.4959626459029067
 51
221.9568112345355928
  0
ARC
  5
16E5A
  8
0
 10
3459.665909647654189
 20
191.1869272507892106
 30
0.0
 40
0.0883293699154341
 50
219.1993180164608077
 51
293.846475108684217
  0
ARC
  5
16E5B
  8
0
 10
3459.6880467349219543
 20
191.1329639933416047
 30
0.0
 40
0.0300640914076377
 50
296.8387251171466801
 51
35.5147475015145773
  0
ARC
  5
16E5C
  8
0
 10
3459.6431417161538775
 20
191.0908370219592882
 30
0.0
 40
0.0914560481217059
 50
40.6613664384212186
 51
116.1777705275666932
  0
LINE
  5
16E5D
  8
0
 10
3459.5903923124737958
 20
191.1516412108879877
 30
0.0
 11
3459.5851091349900344
 21
191.2180539947304965
 31
0.0
  0
ARC
  5
16E5E
  8
0
 10
3459.6067410852119792
 20
191.2007088303724913
 30
0.0
 40
0.0277271707354273
 50
138.0625865478235141
 51
227.820385373451586
  0
ARC
  5
16E5F
  8
0
 10
3459.6358712519531764
 20
191.1384165897391085
 30
0.0
 40
0.0949102752243234
 50
71.8551023363055776
 51
121.6170672381314972
  0
ARC
  5
16E60
  8
0
 10
3459.6413066471918683
 20
191.1196835118076933
 30
0.0
 40
0.1115626171787395
 50
43.109095863334133
 51
77.5130961225025601
  0
ARC
  5
16E61
  8
0
 10
3459.7032897374078857
 20
191.174195863462387
 30
0.0
 40
0.029171141471741
 50
308.4427532749106717
 51
48.1469965107775124
  0
LINE
  5
16E62
  8
0
 10
3459.717942248988038
 20
191.129784711829501
 30
0.0
 11
3459.727698921962201
 21
191.1901691913620027
 31
0.0
  0
ARC
  5
16E63
  8
0
 10
3459.7740266088389944
 20
190.9366451846385075
 30
0.0
 40
0.0102232792820635
 50
110.9236118895567955
 51
219.8338652021872122
  0
ARC
  5
16E64
  8
0
 10
3459.795408839357151
 20
190.9544816092250983
 30
0.0
 40
0.0380681679321529
 50
219.8338652021884911
 51
286.3774697316845277
  0
ARC
  5
16E65
  8
0
 10
3459.8029056356949695
 20
190.9289726506517866
 30
0.0
 40
0.0114804090412692
 50
286.3774697316845277
 51
32.3804105243224214
  0
ARC
  5
16E66
  8
0
 10
3459.7835137689107796
 20
190.9102490935304957
 30
0.0
 40
0.0382709979693845
 50
40.5329435584729296
 51
110.0775685415546974
  0
ARC
  5
16E67
  8
0
 10
3459.7529806381708113
 20
190.9484770379698091
 30
0.0
 40
0.0278277611967817
 50
123.4959626459029067
 51
221.9568112345355928
  0
ARC
  5
16E68
  8
0
 10
3459.8007375744041383
 20
190.9856981601892869
 30
0.0
 40
0.0883293699154341
 50
219.1993180164608077
 51
293.846475108684217
  0
ARC
  5
16E69
  8
0
 10
3459.8228746616719036
 20
190.9317349027415958
 30
0.0
 40
0.0300640914076377
 50
296.8387251171466801
 51
35.5147475015145773
  0
ARC
  5
16E6A
  8
0
 10
3459.7779696429038268
 20
190.8896079313593077
 30
0.0
 40
0.0914560481217059
 50
40.6613664384212186
 51
116.1777705275666932
  0
LINE
  5
16E6B
  8
0
 10
3459.7252202392241998
 20
190.9504121202880071
 30
0.0
 11
3459.7199370617399836
 21
191.0168249041304875
 31
0.0
  0
ARC
  5
16E6C
  8
0
 10
3459.741569011961019
 20
190.9994797397725108
 30
0.0
 40
0.0277271707354273
 50
138.0625865478235141
 51
227.820385373451586
  0
ARC
  5
16E6D
  8
0
 10
3459.7706991787031257
 20
190.9371874991390996
 30
0.0
 40
0.0949102752243234
 50
71.8551023363055776
 51
121.6170672381314972
  0
ARC
  5
16E6E
  8
0
 10
3459.7761345739418175
 20
190.9184544212077128
 30
0.0
 40
0.1115626171787395
 50
43.109095863334133
 51
77.5130961225025601
  0
ARC
  5
16E6F
  8
0
 10
3459.838117664157835
 20
190.9729667728624065
 30
0.0
 40
0.029171141471741
 50
308.4427532749106717
 51
48.1469965107775124
  0
LINE
  5
16E70
  8
0
 10
3459.8527701757379873
 20
190.9285556212294068
 30
0.0
 11
3459.8625268487121502
 21
190.9889401007619938
 31
0.0
  0
ARC
  5
16E71
  8
0
 10
3459.7446703667428665
 20
190.7121936333664962
 30
0.0
 40
0.0102232792820635
 50
110.9236118895567955
 51
219.8338652021872122
  0
ARC
  5
16E72
  8
0
 10
3459.7660525972601135
 20
190.7300300579532006
 30
0.0
 40
0.0380681679321529
 50
219.8338652021884911
 51
286.3774697316845277
  0
ARC
  5
16E73
  8
0
 10
3459.7735493935988416
 20
190.7045210993798889
 30
0.0
 40
0.0114804090412692
 50
286.3774697316845277
 51
32.3804105243224214
  0
ARC
  5
16E74
  8
0
 10
3459.7541575268160159
 20
190.685797542258598
 30
0.0
 40
0.0382709979693845
 50
40.5329435584729296
 51
110.0775685415546974
  0
ARC
  5
16E75
  8
0
 10
3459.7236243960751381
 20
190.7240254866979114
 30
0.0
 40
0.0278277611967817
 50
123.4959626459029067
 51
221.9568112345355928
  0
ARC
  5
16E76
  8
0
 10
3459.7713813323080103
 20
190.761246608917304
 30
0.0
 40
0.0883293699154341
 50
219.1993180164608077
 51
293.846475108684217
  0
ARC
  5
16E77
  8
0
 10
3459.7935184195757756
 20
190.7072833514696981
 30
0.0
 40
0.0300640914076377
 50
296.8387251171466801
 51
35.5147475015145773
  0
ARC
  5
16E78
  8
0
 10
3459.7486134008081535
 20
190.6651563800874101
 30
0.0
 40
0.0914560481217059
 50
40.6613664384212186
 51
116.1777705275666932
  0
LINE
  5
16E79
  8
0
 10
3459.6958639971280718
 20
190.7259605690161095
 30
0.0
 11
3459.6905808196438556
 21
190.7923733528585899
 31
0.0
  0
ARC
  5
16E7A
  8
0
 10
3459.712212769864891
 20
190.7750281885006132
 30
0.0
 40
0.0277271707354273
 50
138.0625865478235141
 51
227.820385373451586
  0
ARC
  5
16E7B
  8
0
 10
3459.7413429366060882
 20
190.712735947867202
 30
0.0
 40
0.0949102752243234
 50
71.8551023363055776
 51
121.6170672381314972
  0
ARC
  5
16E7C
  8
0
 10
3459.7467783318461443
 20
190.6940028699357867
 30
0.0
 40
0.1115626171787395
 50
43.109095863334133
 51
77.5130961225025601
  0
ARC
  5
16E7D
  8
0
 10
3459.8087614220621617
 20
190.7485152215905089
 30
0.0
 40
0.029171141471741
 50
308.4427532749106717
 51
48.1469965107775124
  0
LINE
  5
16E7E
  8
0
 10
3459.8234139336409498
 20
190.7041040699575092
 30
0.0
 11
3459.8331706066160223
 21
190.7644885494900961
 31
0.0
  0
ARC
  5
16E7F
  8
0
 10
3460.0495458246377893
 20
190.813198175038508
 30
0.0
 40
0.0102232792820635
 50
110.9236118895567955
 51
219.8338652021872122
  0
ARC
  5
16E80
  8
0
 10
3460.0709280551559459
 20
190.8310345996250987
 30
0.0
 40
0.0380681679321529
 50
219.8338652021884911
 51
286.3774697316845277
  0
ARC
  5
16E81
  8
0
 10
3460.0784248514951287
 20
190.805525641051787
 30
0.0
 40
0.0114804090412692
 50
286.3774697316845277
 51
32.3804105243224214
  0
ARC
  5
16E82
  8
0
 10
3460.0590329847118483
 20
190.7868020839306098
 30
0.0
 40
0.0382709979693845
 50
40.5329435584729296
 51
110.0775685415546974
  0
ARC
  5
16E83
  8
0
 10
3460.0284998539709704
 20
190.8250300283698948
 30
0.0
 40
0.0278277611967817
 50
123.4959626459029067
 51
221.9568112345355928
  0
ARC
  5
16E84
  8
0
 10
3460.0762567902038427
 20
190.8622511505892874
 30
0.0
 40
0.0883293699154341
 50
219.1993180164608077
 51
293.846475108684217
  0
ARC
  5
16E85
  8
0
 10
3460.0983938774729722
 20
190.8082878931415962
 30
0.0
 40
0.0300640914076377
 50
296.8387251171466801
 51
35.5147475015145773
  0
ARC
  5
16E86
  8
0
 10
3460.0534888587039859
 20
190.7661609217593082
 30
0.0
 40
0.0914560481217059
 50
40.6613664384212186
 51
116.1777705275666932
  0
LINE
  5
16E87
  8
0
 10
3460.0007394550248137
 20
190.8269651106880076
 30
0.0
 11
3459.9954562775387785
 21
190.893377894530488
 31
0.0
  0
ARC
  5
16E88
  8
0
 10
3460.0170882277611781
 20
190.8760327301725113
 30
0.0
 40
0.0277271707354273
 50
138.0625865478235141
 51
227.820385373451586
  0
ARC
  5
16E89
  8
0
 10
3460.0462183945028301
 20
190.8137404895391001
 30
0.0
 40
0.0949102752243234
 50
71.8551023363055776
 51
121.6170672381314972
  0
ARC
  5
16E8A
  8
0
 10
3460.0516537897419767
 20
190.7950074116077133
 30
0.0
 40
0.1115626171787395
 50
43.109095863334133
 51
77.5130961225025601
  0
ARC
  5
16E8B
  8
0
 10
3460.1136368799589036
 20
190.849519763262407
 30
0.0
 40
0.029171141471741
 50
308.4427532749106717
 51
48.1469965107775124
  0
LINE
  5
16E8C
  8
0
 10
3460.1282893915367822
 20
190.8051086116294073
 30
0.0
 11
3460.1380460645118546
 21
190.8654930911619942
 31
0.0
  0
ARC
  5
16E8D
  8
0
 10
3459.4302091361391831
 20
190.4449450824884877
 30
0.0
 40
0.0102232792820635
 50
110.9236118895567955
 51
219.8338652021872122
  0
ARC
  5
16E8E
  8
0
 10
3459.4515913666568849
 20
190.4627815070751069
 30
0.0
 40
0.0380681679321529
 50
219.8338652021884911
 51
286.3774697316845277
  0
ARC
  5
16E8F
  8
0
 10
3459.4590881629960677
 20
190.4372725485017952
 30
0.0
 40
0.0114804090412692
 50
286.3774697316845277
 51
32.3804105243224214
  0
ARC
  5
16E90
  8
0
 10
3459.4396962962109683
 20
190.4185489913805895
 30
0.0
 40
0.0382709979693845
 50
40.5329435584729296
 51
110.0775685415546974
  0
ARC
  5
16E91
  8
0
 10
3459.409163165471
 20
190.4567769358197893
 30
0.0
 40
0.0278277611967817
 50
123.4959626459029067
 51
221.9568112345355928
  0
ARC
  5
16E92
  8
0
 10
3459.4569201017038722
 20
190.4939980580392103
 30
0.0
 40
0.0883293699154341
 50
219.1993180164608077
 51
293.846475108684217
  0
ARC
  5
16E93
  8
0
 10
3459.4790571889730018
 20
190.4400348005916044
 30
0.0
 40
0.0300640914076377
 50
296.8387251171466801
 51
35.5147475015145773
  0
ARC
  5
16E94
  8
0
 10
3459.4341521702040154
 20
190.3979078292094016
 30
0.0
 40
0.0914560481217059
 50
40.6613664384212186
 51
116.1777705275666932
  0
LINE
  5
16E95
  8
0
 10
3459.3814027665248432
 20
190.4587120181379873
 30
0.0
 11
3459.3761195890401723
 21
190.5251248019804962
 31
0.0
  0
ARC
  5
16E96
  8
0
 10
3459.3977515392621171
 20
190.507779637622491
 30
0.0
 40
0.0277271707354273
 50
138.0625865478235141
 51
227.820385373451586
  0
ARC
  5
16E97
  8
0
 10
3459.4268817060028596
 20
190.4454873969891082
 30
0.0
 40
0.0949102752243234
 50
71.8551023363055776
 51
121.6170672381314972
  0
ARC
  5
16E98
  8
0
 10
3459.4323171012420062
 20
190.426754319057693
 30
0.0
 40
0.1115626171787395
 50
43.109095863334133
 51
77.5130961225025601
  0
ARC
  5
16E99
  8
0
 10
3459.4943001914589331
 20
190.4812666707123867
 30
0.0
 40
0.029171141471741
 50
308.4427532749106717
 51
48.1469965107775124
  0
LINE
  5
16E9A
  8
0
 10
3459.508952703038176
 20
190.436855519079387
 30
0.0
 11
3459.5187093760118842
 21
190.4972399986120024
 31
0.0
  0
ARC
  5
16E9B
  8
0
 10
3458.9039391877890921
 20
190.5554801699385052
 30
0.0
 40
0.0102232792820635
 50
110.9236118895567955
 51
219.8338652021872122
  0
ARC
  5
16E9C
  8
0
 10
3458.9253214183067939
 20
190.573316594525096
 30
0.0
 40
0.0380681679321529
 50
219.8338652021884911
 51
286.3774697316845277
  0
ARC
  5
16E9D
  8
0
 10
3458.9328182146450672
 20
190.5478076359518127
 30
0.0
 40
0.0114804090412692
 50
286.3774697316845277
 51
32.3804105243224214
  0
ARC
  5
16E9E
  8
0
 10
3458.9134263478608773
 20
190.5290840788304934
 30
0.0
 40
0.0382709979693845
 50
40.5329435584729296
 51
110.0775685415546974
  0
ARC
  5
16E9F
  8
0
 10
3458.882893217120909
 20
190.5673120232698068
 30
0.0
 40
0.0278277611967817
 50
123.4959626459029067
 51
221.9568112345355928
  0
ARC
  5
16EA0
  8
0
 10
3458.9306501533537812
 20
190.6045331454891993
 30
0.0
 40
0.0883293699154341
 50
219.1993180164608077
 51
293.846475108684217
  0
ARC
  5
16EA1
  8
0
 10
3458.9527872406220013
 20
190.5505698880415935
 30
0.0
 40
0.0300640914076377
 50
296.8387251171466801
 51
35.5147475015145773
  0
ARC
  5
16EA2
  8
0
 10
3458.9078822218539244
 20
190.5084429166593054
 30
0.0
 40
0.0914560481217059
 50
40.6613664384212186
 51
116.1777705275666932
  0
LINE
  5
16EA3
  8
0
 10
3458.8551328181738427
 20
190.5692471055880048
 30
0.0
 11
3458.8498496406900813
 21
190.6356598894305137
 31
0.0
  0
ARC
  5
16EA4
  8
0
 10
3458.8714815909111167
 20
190.6183147250725085
 30
0.0
 40
0.0277271707354273
 50
138.0625865478235141
 51
227.820385373451586
  0
ARC
  5
16EA5
  8
0
 10
3458.9006117576532233
 20
190.5560224844390973
 30
0.0
 40
0.0949102752243234
 50
71.8551023363055776
 51
121.6170672381314972
  0
ARC
  5
16EA6
  8
0
 10
3458.9060471528919152
 20
190.5372894065077105
 30
0.0
 40
0.1115626171787395
 50
43.109095863334133
 51
77.5130961225025601
  0
ARC
  5
16EA7
  8
0
 10
3458.9680302431079326
 20
190.5918017581624042
 30
0.0
 40
0.029171141471741
 50
308.4427532749106717
 51
48.1469965107775124
  0
LINE
  5
16EA8
  8
0
 10
3458.9826827546871755
 20
190.5473906065294898
 30
0.0
 11
3458.9924394276617932
 21
190.6077750860619915
 31
0.0
  0
ARC
  5
16EA9
  8
0
 10
3459.7221755667392245
 20
190.2064717456352128
 30
0.0
 40
0.0102232792820635
 50
110.9236118895567955
 51
219.8338652021872122
  0
ARC
  5
16EAA
  8
0
 10
3459.7435577972560168
 20
190.2243081702218035
 30
0.0
 40
0.0380681679321529
 50
219.8338652021884911
 51
286.3774697316845277
  0
ARC
  5
16EAB
  8
0
 10
3459.7510545935951995
 20
190.1987992116484918
 30
0.0
 40
0.0114804090412692
 50
286.3774697316845277
 51
32.3804105243224214
  0
ARC
  5
16EAC
  8
0
 10
3459.7316627268119191
 20
190.1800756545272861
 30
0.0
 40
0.0382709979693845
 50
40.5329435584729296
 51
110.0775685415546974
  0
ARC
  5
16EAD
  8
0
 10
3459.7011295960710413
 20
190.2183035989664859
 30
0.0
 40
0.0278277611967817
 50
123.4959626459029067
 51
221.9568112345355928
  0
ARC
  5
16EAE
  8
0
 10
3459.7488865323039136
 20
190.2555247211859069
 30
0.0
 40
0.0883293699154341
 50
219.1993180164608077
 51
293.846475108684217
  0
ARC
  5
16EAF
  8
0
 10
3459.7710236195721336
 20
190.201561463738301
 30
0.0
 40
0.0300640914076377
 50
296.8387251171466801
 51
35.5147475015145773
  0
ARC
  5
16EB0
  8
0
 10
3459.7261186008040568
 20
190.1594344923560129
 30
0.0
 40
0.0914560481217059
 50
40.6613664384212186
 51
116.1777705275666932
  0
LINE
  5
16EB1
  8
0
 10
3459.673369197123975
 20
190.2202386812847124
 30
0.0
 11
3459.6680860196402136
 21
190.2866514651271928
 31
0.0
  0
ARC
  5
16EB2
  8
0
 10
3459.6897179698607943
 20
190.2693063007691876
 30
0.0
 40
0.0277271707354273
 50
138.0625865478235141
 51
227.820385373451586
  0
ARC
  5
16EB3
  8
0
 10
3459.7188481366019914
 20
190.2070140601358048
 30
0.0
 40
0.0949102752243234
 50
71.8551023363055776
 51
121.6170672381314972
  0
ARC
  5
16EB4
  8
0
 10
3459.7242835318420475
 20
190.1882809822043896
 30
0.0
 40
0.1115626171787395
 50
43.109095863334133
 51
77.5130961225025601
  0
ARC
  5
16EB5
  8
0
 10
3459.786266622058065
 20
190.2427933338591117
 30
0.0
 40
0.029171141471741
 50
308.4427532749106717
 51
48.1469965107775124
  0
LINE
  5
16EB6
  8
0
 10
3459.8009191336368531
 20
190.1983821822261973
 30
0.0
 11
3459.8106758066119255
 21
190.258766661758699
 31
0.0
  0
ARC
  5
16EB7
  8
0
 10
3459.8751822593831093
 20
190.4892042595384964
 30
0.0
 40
0.0158605807137526
 50
112.9966161537301019
 51
215.760581503819509
  0
ARC
  5
16EB8
  8
0
 10
3459.9040795995269946
 20
190.5182731491665891
 30
0.0
 40
0.0566950177214783
 50
222.5482772202661863
 51
293.5268025488704211
  0
ARC
  5
16EB9
  8
0
 10
3459.9222530479451052
 20
190.4816429894613918
 30
0.0
 40
0.0159861554976066
 50
286.1923909850556811
 51
27.5553969136943095
  0
ARC
  5
16EBA
  8
0
 10
3459.8936210623560328
 20
190.4549291479613942
 30
0.0
 40
0.0547327900958636
 50
38.5497365312722096
 51
116.7500232293591012
  0
ARC
  5
16EBB
  8
0
 10
3459.8324767040821826
 20
190.5027532041362974
 30
0.0
 40
0.0486730783452054
 50
118.7114519875741934
 51
220.8421640180652048
  0
ARC
  5
16EBC
  8
0
 10
3459.9115638117509661
 20
190.577545477026888
 30
0.0
 40
0.1574910575545338
 50
222.6106065000012109
 51
297.4344456290330072
  0
ARC
  5
16EBD
  8
0
 10
3459.8861575111800448
 20
190.4057609842903105
 30
0.0
 40
0.1595290558649843
 50
41.1224901072995621
 51
118.885935083561904
  0
LINE
  5
16EBE
  8
0
 10
3459.7838039315620335
 20
190.5029257465808996
 30
0.0
 11
3459.7796726685601243
 21
190.5460441235171061
 31
0.0
  0
ARC
  5
16EBF
  8
0
 10
3459.8186507288201028
 20
190.5310545369607098
 30
0.0
 40
0.0417609493044361
 50
150.9454358107973917
 51
211.9808292229307085
  0
ARC
  5
16EC0
  8
0
 10
3459.8746132607570871
 20
190.4659159137661106
 30
0.0
 40
0.1258843011852876
 50
88.1936762112714234
 51
137.2691183767273913
  0
ARC
  5
16EC1
  8
0
 10
3459.889990283467796
 20
190.4286578935686123
 30
0.0
 40
0.1634783664592842
 50
43.5085049808335782
 51
94.0018760574370731
  0
ARC
  5
16EC2
  8
0
 10
3459.0597555705921877
 20
191.1310272636561081
 30
0.0
 40
0.0158605807137526
 50
112.9966161537301019
 51
215.760581503819509
  0
ARC
  5
16EC3
  8
0
 10
3459.088652910736073
 20
191.1600961532842007
 30
0.0
 40
0.0566950177214783
 50
222.5482772202661863
 51
293.5268025488704211
  0
ARC
  5
16EC4
  8
0
 10
3459.1068263591541836
 20
191.1234659935788898
 30
0.0
 40
0.0159861554976066
 50
286.1923909850556811
 51
27.5553969136943095
  0
ARC
  5
16EC5
  8
0
 10
3459.0781943735651112
 20
191.0967521520790058
 30
0.0
 40
0.0547327900958636
 50
38.5497365312722096
 51
116.7500232293591012
  0
ARC
  5
16EC6
  8
0
 10
3459.0170500152898967
 20
191.144576208253909
 30
0.0
 40
0.0486730783452054
 50
118.7114519875741934
 51
220.8421640180652048
  0
ARC
  5
16EC7
  8
0
 10
3459.096137122959135
 20
191.2193684811444996
 30
0.0
 40
0.1574910575545338
 50
222.6106065000012109
 51
297.4344456290330072
  0
ARC
  5
16EC8
  8
0
 10
3459.1450662665752134
 20
191.1266244547184101
 30
0.0
 40
0.0526384696859408
 50
296.6765967294072084
 51
29.4459166379615489
  0
ARC
  5
16EC9
  8
0
 10
3459.0707308223882137
 20
191.0475839884078937
 30
0.0
 40
0.1595290558649843
 50
41.1224901072995621
 51
118.885935083561904
  0
LINE
  5
16ECA
  8
0
 10
3458.9683772427711119
 20
191.1447487506985112
 30
0.0
 11
3458.9642459797692027
 21
191.187867127634803
 31
0.0
  0
ARC
  5
16ECB
  8
0
 10
3459.0032240400291812
 20
191.172877541078293
 30
0.0
 40
0.0417609493044361
 50
150.9454358107973917
 51
211.9808292229307085
  0
ARC
  5
16ECC
  8
0
 10
3459.0591865719661655
 20
191.1077389178836938
 30
0.0
 40
0.1258843011852876
 50
88.1936762112714234
 51
137.2691183767273913
  0
ARC
  5
16ECD
  8
0
 10
3459.0745635946768743
 20
191.0704808976861955
 30
0.0
 40
0.1634783664592842
 50
43.5085049808335782
 51
94.0018760574370731
  0
ARC
  5
16ECE
  8
0
 10
3459.1577017061608785
 20
191.1510720466928035
 30
0.0
 40
0.0477120670867652
 50
326.9211588268256037
 51
42.051616435691507
  0
LINE
  5
16ECF
  8
0
 10
3459.1976870410057927
 20
191.1252596876387884
 30
0.0
 11
3459.2012708611950984
 21
191.1705186421606868
 31
0.0
  0
ARC
  5
16ED0
  8
0
 10
3459.1548393652219602
 20
191.5641305410536006
 30
0.0
 40
0.0158605807137526
 50
112.9966161537301019
 51
215.760581503819509
  0
ARC
  5
16ED1
  8
0
 10
3459.1837367053672097
 20
191.5931994306816932
 30
0.0
 40
0.0566950177214783
 50
222.5482772202661863
 51
293.5268025488704211
  0
ARC
  5
16ED2
  8
0
 10
3459.201910153783956
 20
191.556569270976496
 30
0.0
 40
0.0159861554976066
 50
286.1923909850556811
 51
27.5553969136943095
  0
ARC
  5
16ED3
  8
0
 10
3459.1732781681948836
 20
191.5298554294764983
 30
0.0
 40
0.0547327900958636
 50
38.5497365312722096
 51
116.7500232293591012
  0
ARC
  5
16ED4
  8
0
 10
3459.1121338099201239
 20
191.5776794856514016
 30
0.0
 40
0.0486730783452054
 50
118.7114519875741934
 51
220.8421640180652048
  0
ARC
  5
16ED5
  8
0
 10
3459.191220917589817
 20
191.6524717585421058
 30
0.0
 40
0.1574910575545338
 50
222.6106065000012109
 51
297.4344456290330072
  0
ARC
  5
16ED6
  8
0
 10
3459.2401500612049858
 20
191.5597277321159027
 30
0.0
 40
0.0526384696859408
 50
296.6765967294072084
 51
29.4459166379615489
  0
ARC
  5
16ED7
  8
0
 10
3459.1658146170179862
 20
191.4806872658054999
 30
0.0
 40
0.1595290558649843
 50
41.1224901072995621
 51
118.885935083561904
  0
LINE
  5
16ED8
  8
0
 10
3459.0634610374017939
 20
191.5778520280960038
 30
0.0
 11
3459.0593297743998846
 21
191.6209704050322955
 31
0.0
  0
ARC
  5
16ED9
  8
0
 10
3459.0983078346598631
 20
191.6059808184758992
 30
0.0
 40
0.0417609493044361
 50
150.9454358107973917
 51
211.9808292229307085
  0
ARC
  5
16EDA
  8
0
 10
3459.154270366595938
 20
191.5408421952811864
 30
0.0
 40
0.1258843011852876
 50
88.1936762112714234
 51
137.2691183767273913
  0
ARC
  5
16EDB
  8
0
 10
3459.1696473893071015
 20
191.5035841750838017
 30
0.0
 40
0.1634783664592842
 50
43.5085049808335782
 51
94.0018760574370731
  0
ARC
  5
16EDC
  8
0
 10
3459.2527855007911057
 20
191.5841753240904097
 30
0.0
 40
0.0477120670867652
 50
326.9211588268256037
 51
42.051616435691507
  0
LINE
  5
16EDD
  8
0
 10
3459.2927708356369294
 20
191.5583629650363946
 30
0.0
 11
3459.2963546558248709
 21
191.603621919558293
 31
0.0
  0
ARC
  5
16EDE
  8
0
 10
3459.5774854472438165
 20
191.9116542569178137
 30
0.0
 40
0.0158605807137526
 50
112.9966161537301019
 51
215.760581503819509
  0
ARC
  5
16EDF
  8
0
 10
3459.6063827873899754
 20
191.9407231465459063
 30
0.0
 40
0.0566950177214783
 50
222.5482772202661863
 51
293.5268025488704211
  0
ARC
  5
16EE0
  8
0
 10
3459.6245562358071766
 20
191.9040929868405954
 30
0.0
 40
0.0159861554976066
 50
286.1923909850556811
 51
27.5553969136943095
  0
ARC
  5
16EE1
  8
0
 10
3459.5959242502181041
 20
191.8773791453407114
 30
0.0
 40
0.0547327900958636
 50
38.5497365312722096
 51
116.7500232293591012
  0
ARC
  5
16EE2
  8
0
 10
3459.5347798919437992
 20
191.9252032015155862
 30
0.0
 40
0.0486730783452054
 50
118.7114519875741934
 51
220.8421640180652048
  0
ARC
  5
16EE3
  8
0
 10
3459.6138669996130375
 20
191.9999954744062052
 30
0.0
 40
0.1574910575545338
 50
222.6106065000012109
 51
297.4344456290330072
  0
ARC
  5
16EE4
  8
0
 10
3459.6627961432282063
 20
191.9072514479800873
 30
0.0
 40
0.0526384696859408
 50
296.6765967294072084
 51
29.4459166379615489
  0
ARC
  5
16EE5
  8
0
 10
3459.5884606990421162
 20
191.8282109816695993
 30
0.0
 40
0.1595290558649843
 50
41.1224901072995621
 51
118.885935083561904
  0
LINE
  5
16EE6
  8
0
 10
3459.4861071194241049
 20
191.9253757439601884
 30
0.0
 11
3459.4819758564221956
 21
191.9684941208965085
 31
0.0
  0
ARC
  5
16EE7
  8
0
 10
3459.5209539166821742
 20
191.9535045343399986
 30
0.0
 40
0.0417609493044361
 50
150.9454358107973917
 51
211.9808292229307085
  0
ARC
  5
16EE8
  8
0
 10
3459.5769164486191585
 20
191.8883659111453994
 30
0.0
 40
0.1258843011852876
 50
88.1936762112714234
 51
137.2691183767273913
  0
ARC
  5
16EE9
  8
0
 10
3459.5922934713298673
 20
191.8511078909479863
 30
0.0
 40
0.1634783664592842
 50
43.5085049808335782
 51
94.0018760574370731
  0
ARC
  5
16EEA
  8
0
 10
3459.675431582814781
 20
191.9316990399545091
 30
0.0
 40
0.0477120670867652
 50
326.9211588268256037
 51
42.051616435691507
  0
LINE
  5
16EEB
  8
0
 10
3459.7154169176587857
 20
191.905886680900494
 30
0.0
 11
3459.7190007378480914
 21
191.9511456354223924
 31
0.0
  0
ARC
  5
16EEC
  8
0
 10
3459.7779024185820163
 20
191.2696716184298964
 30
0.0
 40
1.8072864979527421
 50
105.3380114936057055
 51
156.3415394083023102
  0
ARC
  5
16EED
  8
0
 10
3459.1446705939988533
 20
191.6727822755161981
 30
0.0
 40
1.0717150252438989
 50
162.5082264967199137
 51
216.8650824042476017
  0
ARC
  5
16EEE
  8
0
 10
3459.8968253640618968
 20
192.1886403134585919
 30
0.0
 40
1.9833311972417671
 50
215.7519366821491928
 51
250.25866912042639
  0
ARC
  5
16EEF
  8
0
 10
3460.2056657030689166
 20
192.8960286746670931
 30
0.0
 40
2.7539489380800619
 50
261.1954028926485876
 51
265.5255686450677217
  0
ARC
  5
16EF0
  8
0
 10
3460.2056657030689166
 20
192.8960286746670931
 30
0.0
 40
2.7539489380800619
 50
249.1819225344372057
 51
259.1757346845291181
  0
ARC
  5
16EF1
  8
0
 10
3459.9962505409639562
 20
189.9704863015778926
 30
0.0
 40
0.1800687396478911
 50
30.3930034444721002
 51
91.7286548695906987
  0
ARC
  5
16EF2
  8
0
 10
3459.80257719992278
 20
189.8950091768791992
 30
0.0
 40
0.3867129802064605
 50
2.1772739845313152
 51
25.5155611721517204
  0
ARC
  5
16EF3
  8
0
 10
3457.5277940215050876
 20
188.3800610884046023
 30
0.0
 40
2.512569001340212
 50
46.4588041110303109
 51
54.6156636705573888
  0
ARC
  5
16EF4
  8
0
 10
3458.5055861133118924
 20
189.4089563596648986
 30
0.0
 40
1.0931667137478001
 50
6.4438713951144306
 51
46.4588041110303109
  0
ARC
  5
16EF5
  8
0
 10
3451.2453675581359676
 20
188.3143940508151957
 30
0.0
 40
8.4347734992697934
 50
359.5310771686584985
 51
8.2975037410218242
  0
ARC
  5
16EF6
  8
0
 10
978.4743933156408957
 20
188.2712762276350986
 30
0.0
 40
2481.2054653900640915
 50
359.9317970585547073
 51
359.9994016035969935
  0
ARC
  5
16EF7
  8
0
 10
3460.1428977022737854
 20
191.3556166934307043
 30
0.0
 40
0.0587901969203079
 50
33.8351448893327174
 51
153.8510943638852098
  0
ARC
  5
16EF8
  8
0
 10
3460.1286661701738012
 20
191.3810975499145002
 30
0.0
 40
0.0385439698075967
 50
179.3633042394114057
 51
217.2533578934487082
  0
ARC
  5
16EF9
  8
0
 10
3460.2282472023712216
 20
191.4715560368977094
 30
0.0
 40
0.1729629684701101
 50
221.1391988309792112
 51
246.6269091540023055
  0
ARC
  5
16EFA
  8
0
 10
3460.1655916578752112
 20
191.3245597918302963
 30
0.0
 40
0.0131969520655039
 50
243.1437326960410985
 51
317.8919925889949809
  0
ARC
  5
16EFB
  8
0
 10
3460.0564900118479272
 20
191.3921115231185013
 30
0.0
 40
0.1413238380243132
 50
327.2750152818650804
 51
342.4504926696134248
  0
ARC
  5
16EFC
  8
0
 10
3460.1367667323647765
 20
191.3696221605007111
 30
0.0
 40
0.058068024409382
 50
339.7230247415898248
 51
18.8165629932833092
  0
ARC
  5
16EFD
  8
0
 10
3460.1305825086810728
 20
191.368901396856387
 30
0.0
 40
0.014826381039225
 50
125.3826300551502015
 51
228.3631552226445081
  0
ARC
  5
16EFE
  8
0
 10
3460.1435144079491693
 20
191.3834480933697932
 30
0.0
 40
0.0342902038435752
 50
228.3631552226455881
 51
306.4511896682868723
  0
ARC
  5
16EFF
  8
0
 10
3460.1559396458169431
 20
191.3684588131202986
 30
0.0
 40
0.0148909261053359
 50
302.2584301280572276
 51
40.8281621928055287
  0
ARC
  5
16F00
  8
0
 10
3460.1429535779839171
 20
191.3529223233830123
 30
0.0
 40
0.0350273678129937
 50
46.1780401724078331
 51
126.7465552884809057
  0
LINE
  5
16F01
  8
0
 10
3460.0901297223240363
 20
191.3815363297323131
 30
0.0
 11
3460.0859290405910542
 21
191.4401255502451988
 31
0.0
  0
ARC
  5
16F02
  8
0
 10
3460.1122718720462217
 20
191.4225957457321954
 30
0.0
 40
0.032684784325279
 50
157.1273571026306968
 51
224.1451779299675877
  0
ARC
  5
16F03
  8
0
 10
3460.1417845397368183
 20
191.3925797938755977
 30
0.0
 40
0.0733514535201244
 50
93.5441417789351988
 51
144.380360999795414
  0
ARC
  5
16F04
  8
0
 10
3460.1392463762490479
 20
191.3839482743628082
 30
0.0
 40
0.0818670278359325
 50
42.6162138368413466
 51
91.3972350318511531
  0
ARC
  5
16F05
  8
0
 10
3460.1497794212091321
 20
191.4130089027538872
 30
0.0
 40
0.056274392710454
 50
324.5504544710101982
 51
27.94353397248166
  0
LINE
  5
16F06
  8
0
 10
3460.1948347567749806
 20
191.3696221605007111
 30
0.0
 11
3460.1998885296820845
 21
191.4386191452944956
 31
0.0
  0
ARC
  5
16F07
  8
0
 10
3459.9998844647429905
 20
191.293523270511912
 30
0.0
 40
0.0587901969203079
 50
33.8351448893327174
 51
153.8510943638852098
  0
ARC
  5
16F08
  8
0
 10
3459.9887511890519818
 20
191.3194857458699119
 30
0.0
 40
0.0416398805415142
 50
180.073354018234113
 51
232.1140938845265111
  0
ARC
  5
16F09
  8
0
 10
3460.0539708802521091
 20
191.4689172513951121
 30
0.0
 40
0.2036526896537585
 50
243.5248370822748996
 51
271.6984697519646943
  0
ARC
  5
16F0A
  8
0
 10
3460.0608455461060657
 20
191.2777080030973025
 30
0.0
 40
0.012382389473852
 50
266.1171584752906938
 51
350.7427215787002979
  0
ARC
  5
16F0B
  8
0
 10
3459.9834715775641598
 20
191.2597587875013119
 30
0.0
 40
0.0910050270853747
 50
10.0987417178893306
 51
22.7389197034044983
  0
ARC
  5
16F0C
  8
0
 10
3459.9804014408500734
 20
191.2642699827403021
 30
0.0
 40
0.0922479269459926
 50
19.4158308123287711
 51
42.2194083608896378
  0
ARC
  5
16F0D
  8
0
 10
3459.9875692711489137
 20
191.3068079739375946
 30
0.0
 40
0.014826381039225
 50
125.3826300551502015
 51
228.3631552226445081
  0
ARC
  5
16F0E
  8
0
 10
3460.0005011704179196
 20
191.3213546704510861
 30
0.0
 40
0.0342902038435752
 50
228.3631552226455881
 51
306.4511896682868723
  0
ARC
  5
16F0F
  8
0
 10
3460.012926408284784
 20
191.3063653902015915
 30
0.0
 40
0.0148909261053359
 50
302.2584301280572276
 51
40.8281621928055287
  0
ARC
  5
16F10
  8
0
 10
3459.9999403404531222
 20
191.2908289004643052
 30
0.0
 40
0.0350273678129937
 50
46.1780401724078331
 51
126.7465552884809057
  0
LINE
  5
16F11
  8
0
 10
3459.9471164847927867
 20
191.3194429068134923
 30
0.0
 11
3459.9429734181708227
 21
191.3784967391817986
 31
0.0
  0
ARC
  5
16F12
  8
0
 10
3459.9692586345158816
 20
191.3605023228134883
 30
0.0
 40
0.032684784325279
 50
157.1273571026306968
 51
224.1451779299675877
  0
ARC
  5
16F13
  8
0
 10
3459.9897929046560421
 20
191.3405736697916097
 30
0.0
 40
0.060251336140618
 50
85.9533468769960649
 51
147.206714758847113
  0
ARC
  5
16F14
  8
0
 10
3459.9947582762788443
 20
191.3109488976188004
 30
0.0
 40
0.0897287338576285
 50
8.8446342864457037
 51
90.4556139453750916
  0
ARC
  5
16F15
  8
0
 10
3460.0714138499879482
 20
191.3209304918867133
 30
0.0
 40
0.0125976385274147
 50
296.7335129141072798
 51
17.6265198586831602
  0
LINE
  5
16F16
  8
0
 10
3460.0728850376240189
 20
191.2767042327531897
 30
0.0
 11
3460.0776012003379947
 21
191.3444604028732101
 31
0.0
  0
ARC
  5
16F17
  8
0
 10
3459.0948898148790249
 20
191.7295657708270085
 30
0.0
 40
1.029494221221946
 50
164.2839655597985029
 51
188.9712828162504934
  0
ARC
  5
16F18
  8
0
 10
3459.4687729658148783
 20
191.5695428951052008
 30
0.0
 40
1.4337168419186761
 50
122.4050954901505008
 51
162.1747597362171973
  0
ARC
  5
16F19
  8
0
 10
3460.0508102974208668
 20
190.7567845856320901
 30
0.0
 40
2.432468656604688
 50
104.236441937102299
 51
123.7205913752549975
  0
ARC
  5
16F1A
  8
0
 10
3459.9218517493291074
 20
191.1954361984930983
 30
0.0
 40
0.0492909516848765
 50
76.2578481239711579
 51
163.9395503483731886
  0
ARC
  5
16F1B
  8
0
 10
3459.9193427845098086
 20
191.2161424075762
 30
0.0
 40
0.0454118731894695
 50
188.9563370558553004
 51
269.7406679606398257
  0
ARC
  5
16F1C
  8
0
 10
3459.9267963822157981
 20
191.3863966936247891
 30
0.0
 40
0.2158016543683905
 50
267.9660555063800871
 51
293.3830022883967104
  0
ARC
  5
16F1D
  8
0
 10
3460.0107359059529699
 20
191.1981192136778986
 30
0.0
 40
0.0099484261085901
 50
279.879332572980104
 51
44.876909240658307
  0
ARC
  5
16F1E
  8
0
 10
3459.8445924808888776
 20
190.9688962256498996
 30
0.0
 40
0.292927220429008
 50
53.7542615108622499
 51
60.1144005561625008
  0
ARC
  5
16F1F
  8
0
 10
3459.9115808535430006
 20
191.0924057400218032
 30
0.0
 40
0.1525027380102788
 50
58.8141029024925288
 51
81.7131422406915249
  0
ARC
  5
16F20
  8
0
 10
3459.9180724206271407
 20
191.2017061735799075
 30
0.0
 40
0.014826381039225
 50
125.3826300551502015
 51
228.3631552226445081
  0
ARC
  5
16F21
  8
0
 10
3459.9310043198961466
 20
191.216252870093399
 30
0.0
 40
0.0342902038435752
 50
228.3631552226455881
 51
306.4511896682868723
  0
ARC
  5
16F22
  8
0
 10
3459.943429557763011
 20
191.2012635898439044
 30
0.0
 40
0.0148909261053359
 50
302.2584301280572276
 51
40.8281621928055287
  0
ARC
  5
16F23
  8
0
 10
3459.9304434899299849
 20
191.1857271001065044
 30
0.0
 40
0.0350273678129937
 50
46.1780401724078331
 51
126.7465552884809057
  0
LINE
  5
16F24
  8
0
 10
3459.8744846061849785
 20
191.2090726081503931
 30
0.0
 11
3459.8699741821728821
 21
191.2710909174267897
 31
0.0
  0
ARC
  5
16F25
  8
0
 10
3459.8932253748857875
 20
191.2533852644939998
 30
0.0
 40
0.0297097751640462
 50
150.3641862294078919
 51
226.6559081330009917
  0
ARC
  5
16F26
  8
0
 10
3459.9207323829227789
 20
191.2251783136302095
 30
0.0
 40
0.0684424000954968
 50
86.2534556723123842
 51
141.1874009427075123
  0
ARC
  5
16F27
  8
0
 10
3459.9116540124291532
 20
191.1152606506510949
 30
0.0
 40
0.1787282142160488
 50
72.8513363880070131
 51
85.6518457601412564
  0
ARC
  5
16F28
  8
0
 10
3459.9116540124291532
 20
191.1152606506510949
 30
0.0
 40
0.1787282142160488
 50
50.2506358449826607
 51
63.3074347690620129
  0
ARC
  5
16F29
  8
0
 10
3460.0208063171858157
 20
191.242407951325589
 30
0.0
 40
0.0114787887864739
 50
283.0431519739657915
 51
63.4433708026271219
  0
LINE
  5
16F2A
  8
0
 10
3460.0206821679948916
 20
191.1983267069246892
 30
0.0
 11
3460.0252162400061025
 21
191.2532729509165961
 31
0.0
  0
ARC
  5
16F2B
  8
0
 10
3459.9336664111010577
 20
191.0925893518129897
 30
0.0
 40
0.0322095800667334
 50
97.9503767970145134
 51
175.1844900980736952
  0
ARC
  5
16F2C
  8
0
 10
3459.9464287036607857
 20
191.1023630678519964
 30
0.0
 40
0.0454118731894695
 50
188.9563370558553004
 51
269.7406679606398257
  0
ARC
  5
16F2D
  8
0
 10
3459.9466155734489803
 20
191.1611096847971112
 30
0.0
 40
0.1041587641688583
 50
269.7841409023861843
 51
328.5702154977644796
  0
ARC
  5
16F2E
  8
0
 10
3460.0298753580041193
 20
191.1140639310411871
 30
0.0
 40
0.0091855690901679
 50
307.696573549950017
 51
92.7530087683456941
  0
ARC
  5
16F2F
  8
0
 10
3459.944516754741926
 20
190.6382440883390927
 30
0.0
 40
0.4923727586935648
 50
80.0687885813004527
 51
82.3726995132985707
  0
ARC
  5
16F30
  8
0
 10
3459.9740558741659697
 20
190.91973060057731
 30
0.0
 40
0.2096119625470421
 50
80.1625734843476039
 51
102.3533917568399971
  0
ARC
  5
16F31
  8
0
 10
3459.9451583397781178
 20
191.0879268338555903
 30
0.0
 40
0.014826381039225
 50
125.3826300551502015
 51
228.3631552226445081
  0
ARC
  5
16F32
  8
0
 10
3459.9580902390471238
 20
191.1024735303691102
 30
0.0
 40
0.0342902038435752
 50
228.3631552226455881
 51
306.4511896682868723
  0
ARC
  5
16F33
  8
0
 10
3459.9575294090809621
 20
191.0719477603823009
 30
0.0
 40
0.0350273678129937
 50
46.1780401724078331
 51
126.7465552884809057
  0
LINE
  5
16F34
  8
0
 10
3459.9015705253359556
 20
191.0952932684261896
 30
0.0
 11
3459.8970601013252235
 21
191.1573115777025009
 31
0.0
  0
ARC
  5
16F35
  8
0
 10
3459.9203112940372193
 20
191.1396059247697963
 30
0.0
 40
0.0297097751640462
 50
150.3641862294078919
 51
226.6559081330009917
  0
ARC
  5
16F36
  8
0
 10
3459.9478183020751203
 20
191.1113989739058923
 30
0.0
 40
0.0684424000954968
 50
119.4092200044758982
 51
141.1874009427075123
  0
ARC
  5
16F37
  8
0
 10
3459.9738033751418698
 20
190.9217269108727919
 30
0.0
 40
0.256719513537696
 50
74.3716515320228808
 51
87.7741612320713216
  0
ARC
  5
16F38
  8
0
 10
3460.037296685930869
 20
191.1574236286091093
 30
0.0
 40
0.0128485000995475
 50
287.9601554795281118
 51
63.8333067002885315
  0
LINE
  5
16F39
  8
0
 10
3460.0390527152630966
 20
191.1144522521190083
 30
0.0
 11
3460.0429626713589641
 21
191.1689553485124122
 31
0.0
  0
ARC
  5
16F3A
  8
0
 10
3459.9651908783448562
 20
191.0882759037129119
 30
0.0
 40
0.018849242633271
 50
314.7599367506034014
 51
28.326655570234621
  0
ARC
  5
16F3B
  8
0
 10
3460.0522572243439754
 20
191.000695975027412
 30
0.0
 40
0.014826381039225
 50
125.3826300551502015
 51
228.3631552226445081
  0
ARC
  5
16F3C
  8
0
 10
3460.0651891236129813
 20
191.0152426715407898
 30
0.0
 40
0.0342902038435752
 50
228.3631552226455881
 51
306.4511896682868723
  0
ARC
  5
16F3D
  8
0
 10
3460.0646282936481839
 20
190.9847169015540089
 30
0.0
 40
0.0350273678129937
 50
46.1780401724078331
 51
126.7465552884809057
  0
ARC
  5
16F3E
  8
0
 10
3460.0722897629111685
 20
191.0010450448845916
 30
0.0
 40
0.018849242633271
 50
314.7599367506034014
 51
28.326655570234621
  0
LINE
  5
16F3F
  8
0
 10
3460.0070223603329396
 20
191.0662064942366101
 30
0.0
 11
3460.0115399143851391
 21
191.0041999922503919
 31
0.0
  0
ARC
  5
16F40
  8
0
 10
3460.0494521327527764
 20
191.0069621299327878
 30
0.0
 40
0.0380127045358143
 50
184.1669866173394041
 51
260.0356112971056177
  0
ARC
  5
16F41
  8
0
 10
3460.0633705975687917
 20
191.0305480852495918
 30
0.0
 40
0.0643752231149358
 50
251.4347832353888919
 51
310.9536979220166018
  0
ARC
  5
16F42
  8
0
 10
3460.0425534394530587
 20
191.0318066831617898
 30
0.0
 40
0.0803631542048185
 50
321.6364578617559005
 51
13.4548256600184093
  0
ARC
  5
16F43
  8
0
 10
3460.1085217928148268
 20
191.046604409757407
 30
0.0
 40
0.012798168684792
 50
17.7469808567535807
 51
109.9378064564981941
  0
ARC
  5
16F44
  8
0
 10
3460.1344797948881933
 20
190.8694592059434001
 30
0.0
 40
0.1915909814008259
 50
99.1062140100194284
 51
126.7831692802480035
  0
ARC
  5
16F45
  8
0
 10
3460.0353980992149445
 20
191.0048770066532882
 30
0.0
 40
0.0238677885821644
 50
130.9430096385090962
 51
181.6254238891754085
  0
ARC
  5
16F46
  8
0
 10
3460.0284837645999687
 20
191.0483842874895117
 30
0.0
 40
0.0278966472256242
 50
140.2626178207003989
 51
228.0412512425808984
  0
ARC
  5
16F47
  8
0
 10
3460.1281051748760547
 20
190.9190342857986877
 30
0.0
 40
0.1905826778830072
 50
98.5675604670494039
 51
129.440787293598504
  0
ARC
  5
16F48
  8
0
 10
3460.1084819906841403
 20
191.082274866124294
 30
0.0
 40
0.0266966168938123
 50
28.2354496208193595
 51
109.1757766929272009
  0
ARC
  5
16F49
  8
0
 10
3460.0353595427031905
 20
191.0771370349623908
 30
0.0
 40
0.0982622146684042
 50
333.0019551285508896
 51
10.41759654120197
  0
LINE
  5
16F4A
  8
0
 10
3460.1228835035431075
 20
191.0341126226896051
 30
0.0
 11
3460.1276705176828727
 21
191.1008358409148968
 31
0.0
  0
ARC
  5
16F4B
  8
0
 10
3460.2281005152449325
 20
190.1186003023213118
 30
0.0
 40
3.0946895266120888
 50
75.4876822385218702
 51
104.5123177614781014
  0
ARC
  5
16F4C
  8
0
 10
3460.2281005152449325
 20
190.0815529572105049
 30
0.0
 40
3.0745085749971639
 50
72.4271761806255512
 51
107.5728238193744062
  0
LINE
  5
16F4D
  8
0
 10
3460.1890109981418391
 20
189.9097009655262127
 30
0.0
 11
3460.2671900323480259
 21
189.9097009655262127
 31
0.0
  0
LINE
  5
16F4F
  8
0
 10
3457.5017957876048058
 20
205.3647048251758918
 30
0.0
 11
3457.5017957876048058
 21
205.9710040378749909
 31
0.0
  0
LINE
  5
16F50
  8
0
 10
3457.5017957876048058
 20
205.9710040378749909
 30
0.0
 11
3457.5313233466049496
 21
205.9710040378749909
 31
0.0
  0
LINE
  5
16F51
  8
0
 10
3457.5313233466049496
 20
205.9710040378749909
 30
0.0
 11
3457.5313233466049496
 21
206.4434449827749916
 31
0.0
  0
LINE
  5
16F52
  8
0
 10
3457.5313233466049496
 20
206.4434449827749916
 30
0.0
 11
3458.9092761025049185
 21
206.4434449827749916
 31
0.0
  0
LINE
  5
16F53
  8
0
 10
3458.9092761025049185
 20
206.4434449827749916
 30
0.0
 11
3458.9092761025049185
 21
205.9710040378749909
 31
0.0
  0
LINE
  5
16F54
  8
0
 10
3458.9092761025049185
 20
205.9710040378749909
 30
0.0
 11
3458.9388036616051068
 21
205.9710040378749909
 31
0.0
  0
LINE
  5
16F55
  8
0
 10
3458.9388036616051068
 20
205.9710040378749909
 30
0.0
 11
3458.9388036616051068
 21
205.3647048252560126
 31
0.0
  0
LINE
  5
16F56
  8
0
 10
3458.6963618043050701
 20
207.4198229355748992
 30
0.0
 11
3457.7442376449048425
 21
207.4198229355748992
 31
0.0
  0
ARC
  5
16F57
  8
0
 10
3457.7442367325411396
 20
207.399822935560195
 30
0.0
 40
0.0200000000355216
 50
89.9973862683589232
 51
179.9999999578541861
  0
LINE
  5
16F58
  8
0
 10
3457.724236732504778
 20
207.399822935574889
 30
0.0
 11
3457.724236732125064
 21
206.8829712476749876
 31
0.0
  0
ARC
  5
16F59
  8
0
 10
3457.9525831882801867
 20
206.8829712475069869
 30
0.0
 40
0.2283464561550161
 50
179.9999999578541861
 51
248.0877879227707012
  0
ARC
  5
16F5A
  8
0
 10
3457.841244606770033
 20
206.6061783139120109
 30
0.0
 40
0.0699999998668475
 50
309.370989367234813
 51
68.087787922770687
  0
ARC
  5
16F5B
  8
0
 10
3458.2202997165600209
 20
206.1442323917713111
 30
0.0
 40
0.5275590442791874
 50
129.370989367235893
 51
145.4379931282578013
  0
ARC
  5
16F5C
  8
0
 10
3458.6963627166701372
 20
207.399822935560195
 30
0.0
 40
0.020000000035518
 50
0.0000000421359884
 51
90.0026137316671253
  0
LINE
  5
16F5D
  8
0
 10
3458.7163627167051345
 20
207.399822935574889
 30
0.0
 11
3458.7163627170862128
 21
206.8829712476749876
 31
0.0
  0
ARC
  5
16F5E
  8
0
 10
3458.4880162608601495
 20
206.8829712475069869
 30
0.0
 40
0.2283464562251538
 50
291.9122120837143939
 51
0.0000000421359884
  0
ARC
  5
16F5F
  8
0
 10
3458.5993548424148685
 20
206.6061783138900125
 30
0.0
 40
0.0699999998339842
 50
111.9122120837144934
 51
230.6290106379589133
  0
ARC
  5
16F60
  8
0
 10
3458.2202997329068239
 20
206.1442323920078081
 30
0.0
 40
0.5275590439331026
 50
34.5624404249444979
 51
50.6290106379588494
  0
LINE
  5
16F61
  8
0
 10
3458.0220468466841339
 20
207.2505315969002879
 30
0.0
 11
3458.0220468466841339
 21
206.8829712476749876
 31
0.0
  0
ARC
  5
16F62
  8
0
 10
3458.1165952837009172
 20
206.8829712476749876
 30
0.0
 40
0.0945484370168188
 50
179.9999999999967031
 51
211.9663705363016106
  0
ARC
  5
16F63
  8
0
 10
3458.1565142531699166
 20
206.9078828213528993
 30
0.0
 40
0.1416027739747707
 50
211.9663705363028896
 51
243.7007213763401126
  0
ARC
  5
16F64
  8
0
 10
3458.2174915649279683
 20
207.0312649470048996
 30
0.0
 40
0.2792304655185481
 50
243.7007213763401126
 51
264.7367334732456925
  0
ARC
  5
16F65
  8
0
 10
3458.2203858200268769
 20
207.0626830578086128
 30
0.0
 40
0.3107816049440198
 50
264.7367334732456925
 51
278.4608522432673112
  0
ARC
  5
16F66
  8
0
 10
3458.2270230748090398
 20
207.0180636237996055
 30
0.0
 40
0.2656712176443498
 50
278.4608522432673112
 51
296.8037324040693079
  0
ARC
  5
16F67
  8
0
 10
3458.2803982330660801
 20
206.9124158716354884
 30
0.0
 40
0.1473058719712019
 50
296.8037324040693079
 51
324.6382987007384031
  0
ARC
  5
16F68
  8
0
 10
3458.3208398037590996
 20
206.8837162093371944
 30
0.0
 40
0.0977156384954912
 50
324.6382987007384031
 51
359.5631858596768211
  0
LINE
  5
16F69
  8
0
 10
3458.4185526025048603
 20
206.8829712476749876
 30
0.0
 11
3458.4185526025080435
 21
207.2505315969083881
 31
0.0
  0
LINE
  5
16F6A
  8
0
 10
3458.4185526025080435
 20
207.2505315969083881
 30
0.0
 11
3458.0220468466632155
 21
207.2505315969004016
 31
0.0
  0
ARC
  5
16F6B
  8
0
 10
3458.2202997246049563
 20
206.7958082449142978
 30
0.0
 40
0.4960620227807786
 50
66.4434868815552591
 51
113.5565131207766996
  0
LINE
  5
16F6C
  8
0
 10
3456.7175021298980937
 20
205.0143111242475129
 30
0.0
 11
3456.8997273094428238
 21
205.0143111242475129
 31
0.0
  0
LINE
  5
16F6D
  8
0
 10
3457.0488663684650419
 20
205.0143111242475129
 30
0.0
 11
3457.1414308506141424
 21
205.0143111242475129
 31
0.0
  0
LINE
  5
16F6E
  8
0
 10
3457.4355216619887869
 20
205.0143111242475129
 30
0.0
 11
3457.5537835650388843
 21
205.0143111242473992
 31
0.0
  0
LINE
  5
16F6F
  8
0
 10
3457.5689505858640587
 20
205.0733662423475039
 30
0.0
 11
3457.5616066827810755
 21
205.021111656749099
 31
0.0
  0
LINE
  5
16F70
  8
0
 10
3457.5520215663641466
 20
205.0733662423475039
 30
0.0
 11
3457.5446776633839363
 21
205.0211116567637077
 31
0.0
  0
LINE
  5
16F71
  8
0
 10
3457.5460349568638776
 20
205.0733662423475039
 30
0.0
 11
3457.5386910537818039
 21
205.021111656749099
 31
0.0
  0
LINE
  5
16F72
  8
0
 10
3457.5432531649639714
 20
205.0733662423475039
 30
0.0
 11
3457.5359092618818977
 21
205.021111656749099
 31
0.0
  0
LINE
  5
16F73
  8
0
 10
3457.4203546411640673
 20
205.0733662423475039
 30
0.0
 11
3457.427698544246141
 21
205.021111656749099
 31
0.0
  0
LINE
  5
16F74
  8
0
 10
3457.1492539683567884
 20
205.021111656749099
 30
0.0
 11
3457.1558694936002212
 21
205.0681835647278888
 31
0.0
  0
LINE
  5
16F75
  8
0
 10
3456.9075504271859245
 20
205.021111656749099
 30
0.0
 11
3456.9148943302679982
 21
205.0733662423475039
 31
0.0
  0
LINE
  5
16F76
  8
0
 10
3456.8178897297898402
 20
205.021111656749099
 30
0.0
 11
3456.8252336328728234
 21
205.0733662423475039
 31
0.0
  0
LINE
  5
16F77
  8
0
 10
3456.709679012154993
 20
205.021111656749099
 30
0.0
 11
3456.7023351090720098
 21
205.0733662423475039
 31
0.0
  0
ARC
  5
16F78
  8
0
 10
3457.1414308506141424
 20
205.0222111242474057
 30
0.0
 40
0.0079
 50
269.9999999999478746
 51
351.9999999942613726
  0
ARC
  5
16F79
  8
0
 10
3457.0488663684650419
 20
205.0222111242474057
 30
0.0
 40
0.0079
 50
239.7449195376549937
 51
269.9999999999739089
  0
ARC
  5
16F7A
  8
0
 10
3456.8997273094428238
 20
205.0222111242474057
 30
0.0
 40
0.0079
 50
269.9999999999739089
 51
351.999999994266318
  0
ARC
  5
16F7B
  8
0
 10
3456.81006661204583
 20
205.0222111242474057
 30
0.0
 40
0.0079
 50
270.0
 51
351.999999994243808
  0
ARC
  5
16F7C
  8
0
 10
3456.7175021298980937
 20
205.0222111242474057
 30
0.0
 40
0.0079
 50
188.0000000057839884
 51
270.0
  0
ARC
  5
16F7D
  8
0
 10
3457.528086144138797
 20
205.0222111242474057
 30
0.0
 40
0.0079
 50
269.9999999999739089
 51
351.9999999941869078
  0
ARC
  5
16F7E
  8
0
 10
3457.5308679360391579
 20
205.0222111242474057
 30
0.0
 40
0.0079
 50
270.0
 51
351.999999994243808
  0
ARC
  5
16F7F
  8
0
 10
3457.5368545456390166
 20
205.0222111242474057
 30
0.0
 40
0.0079
 50
270.0000000000782165
 51
352.0000001016401825
  0
ARC
  5
16F80
  8
0
 10
3457.5537835650388843
 20
205.0222111242474057
 30
0.0
 40
0.0079
 50
269.9999999999739089
 51
351.9999999942405111
  0
ARC
  5
16F81
  8
0
 10
3457.4355216619887869
 20
205.0222111242474057
 30
0.0
 40
0.0079
 50
188.000000005756192
 51
270.0
  0
LINE
  5
16F82
  8
0
 10
3458.1661943658209566
 20
205.021111656749099
 30
0.0
 11
3458.1588504627397924
 21
205.0733662423475039
 31
0.0
  0
LINE
  5
16F83
  8
0
 10
3458.2744050834571681
 20
205.021111656749099
 30
0.0
 11
3458.281748986538787
 21
205.0733662423475039
 31
0.0
  0
LINE
  5
16F84
  8
0
 10
3458.2665819657149768
 20
205.0143111242475129
 30
0.0
 11
3458.1740174835640573
 21
205.0143111242475129
 31
0.0
  0
ARC
  5
16F85
  8
0
 10
3458.2665819657149768
 20
205.0222111242474057
 30
0.0
 40
0.0079
 50
269.999999999895806
 51
351.9999999942551199
  0
ARC
  5
16F86
  8
0
 10
3458.1740174835640573
 20
205.0222111242474057
 30
0.0
 40
0.0079
 50
188.0000000057594889
 51
270.0000000000259774
  0
LINE
  5
16F87
  8
0
 10
3457.1703081365858452
 20
205.0143111242475129
 30
0.0
 11
3457.2921213864588026
 21
205.0143111242475129
 31
0.0
  0
LINE
  5
16F88
  8
0
 10
3457.270695736478956
 20
205.021111656749099
 30
0.0
 11
3457.2780396395610296
 21
205.0733662423475039
 31
0.0
  0
LINE
  5
16F89
  8
0
 10
3457.1624850188441087
 20
205.021111656749099
 30
0.0
 11
3457.1551411157611255
 21
205.0733662423475039
 31
0.0
  0
ARC
  5
16F8A
  8
0
 10
3457.2628726187349457
 20
205.0222111242474057
 30
0.0
 40
0.0079
 50
269.9999999999478746
 51
351.9999999942613726
  0
ARC
  5
16F8B
  8
0
 10
3457.1703081365858452
 20
205.0222111242474057
 30
0.0
 40
0.0079
 50
188.0000000057530087
 51
269.9999999999739089
  0
LINE
  5
16F8C
  8
0
 10
3457.2999445042019033
 20
205.021111656749099
 30
0.0
 11
3457.307288407283977
 21
205.0733662423475039
 31
0.0
  0
ARC
  5
16F8D
  8
0
 10
3457.2921213864588026
 20
205.0222111242474057
 30
0.0
 40
0.0079
 50
269.9999999999478746
 51
351.9999999942613726
  0
LINE
  5
16F8E
  8
0
 10
3456.9483410472771538
 20
205.0143111242475129
 30
0.0
 11
3457.0409055294271639
 21
205.0143111242475129
 31
0.0
  0
LINE
  5
16F8F
  8
0
 10
3457.0487286471689004
 20
205.021111656749099
 30
0.0
 11
3457.0560725502518835
 21
205.0733662423475039
 31
0.0
  0
LINE
  5
16F90
  8
0
 10
3456.9405179295340531
 20
205.021111656749099
 30
0.0
 11
3456.9331740264519794
 21
205.0733662423475039
 31
0.0
  0
ARC
  5
16F91
  8
0
 10
3457.0409055294271639
 20
205.0222111242474057
 30
0.0
 40
0.0079
 50
269.9999999999478746
 51
351.9999999942613726
  0
ARC
  5
16F92
  8
0
 10
3456.9483410472771538
 20
205.0222111242474057
 30
0.0
 40
0.0079
 50
188.0000000057530087
 51
269.9999999999739089
  0
LINE
  5
16F93
  8
0
 10
3456.4431143461729334
 20
205.021111656749099
 30
0.0
 11
3456.4504582492559166
 21
205.0733662423475039
 31
0.0
  0
LINE
  5
16F94
  8
0
 10
3456.3288302888381622
 20
205.021111656749099
 30
0.0
 11
3456.3214863857551791
 21
205.0733662423475039
 31
0.0
  0
LINE
  5
16F95
  8
0
 10
3456.4370410064730095
 20
205.021111656749099
 30
0.0
 11
3456.4443849095550831
 21
205.0733662423475039
 31
0.0
  0
LINE
  5
16F96
  8
0
 10
3455.5347255624051286
 20
205.021111656749099
 30
0.0
 11
3455.5420694654881117
 21
205.0733662423475039
 31
0.0
  0
LINE
  5
16F97
  8
0
 10
3455.0200402678879072
 20
205.021111656749099
 30
0.0
 11
3455.0273841709699809
 21
205.0733662423475039
 31
0.0
  0
LINE
  5
16F98
  8
0
 10
3454.9022135945870104
 20
205.021111656749099
 30
0.0
 11
3454.9095574976699936
 21
205.0733662423475039
 31
0.0
  0
LINE
  5
16F99
  8
0
 10
3454.2753293829628092
 20
205.021111656749099
 30
0.0
 11
3454.2826732860448828
 21
205.0733662423475039
 31
0.0
  0
LINE
  5
16F9A
  8
0
 10
3454.078905750192007
 20
205.021111656749099
 30
0.0
 11
3454.0862496532749901
 21
205.0733662423475039
 31
0.0
  0
LINE
  5
16F9B
  8
0
 10
3453.970022767788123
 20
205.021111656749099
 30
0.0
 11
3453.9626788647051399
 21
205.0733662423475039
 31
0.0
  0
LINE
  5
16F9C
  8
0
 10
3453.89904548668801
 20
205.021111656749099
 30
0.0
 11
3453.8917015836059363
 21
205.0733662423475039
 31
0.0
  0
LINE
  5
16F9D
  8
0
 10
3454.1671186653270524
 20
205.021111656749099
 30
0.0
 11
3454.1597747622449788
 21
205.0733662423475039
 31
0.0
  0
LINE
  5
16F9E
  8
0
 10
3454.7940028769530727
 20
205.021111656749099
 30
0.0
 11
3454.7866589738700895
 21
205.0733662423475039
 31
0.0
  0
LINE
  5
16F9F
  8
0
 10
3455.348897634100922
 20
205.021111656749099
 30
0.0
 11
3455.3415537310188483
 21
205.0733662423475039
 31
0.0
  0
LINE
  5
16FA0
  8
0
 10
3455.4258425800007899
 20
205.021111656749099
 30
0.0
 11
3455.418498676919171
 21
205.0733662423475039
 31
0.0
  0
LINE
  5
16FA1
  8
0
 10
3456.2173754683371953
 20
205.021111656749099
 30
0.0
 11
3456.2100315652551217
 21
205.0733662423475039
 31
0.0
  0
LINE
  5
16FA2
  8
0
 10
3456.3366534065808082
 20
205.0143111242475129
 30
0.0
 11
3456.4352912284289232
 21
205.0143111242475129
 31
0.0
  0
LINE
  5
16FA3
  8
0
 10
3456.3177630682298513
 20
205.0143111242475129
 30
0.0
 11
3456.2251985860812056
 21
205.0143111242475129
 31
0.0
  0
LINE
  5
16FA4
  8
0
 10
3455.5269024446620278
 20
205.0143111242475129
 30
0.0
 11
3455.3567207518440227
 21
205.0143111242475129
 31
0.0
  0
LINE
  5
16FA5
  8
0
 10
3455.012217150143897
 20
205.0143111242475129
 30
0.0
 11
3454.9196526679947965
 21
205.0143111242475129
 31
0.0
  0
LINE
  5
16FA6
  8
0
 10
3454.8943904768439097
 20
205.0143111242475129
 30
0.0
 11
3454.8018259946948092
 21
205.0143111242475129
 31
0.0
  0
LINE
  5
16FA7
  8
0
 10
3454.2675062652201632
 20
205.0143111242475129
 30
0.0
 11
3454.1749417830701532
 21
205.0143111242475129
 31
0.0
  0
LINE
  5
16FA8
  8
0
 10
3454.0710826324489062
 20
205.0143111242475129
 30
0.0
 11
3453.9068686044311107
 21
205.0143111242475129
 31
0.0
  0
ARC
  5
16FA9
  8
0
 10
3454.0710826324489062
 20
205.0222111242474057
 30
0.0
 40
0.0079
 50
269.9999999999739089
 51
351.9999999942111231
  0
ARC
  5
16FAA
  8
0
 10
3453.9778458855312238
 20
205.0222111242474057
 30
0.0
 40
0.0079
 50
188.0000000057337104
 51
270.0000000000259774
  0
ARC
  5
16FAB
  8
0
 10
3453.9068686044311107
 20
205.0222111242474057
 30
0.0
 40
0.0079
 50
188.000000005735302
 51
270.0000000000259774
  0
ARC
  5
16FAC
  8
0
 10
3454.1749417830701532
 20
205.0222111242474057
 30
0.0
 40
0.0079
 50
188.0000000057337104
 51
270.0000000000259774
  0
ARC
  5
16FAD
  8
0
 10
3454.2675062652201632
 20
205.0222111242474057
 30
0.0
 40
0.0079
 50
269.9999999999739089
 51
351.9999999942143063
  0
ARC
  5
16FAE
  8
0
 10
3454.8018259946948092
 20
205.0222111242474057
 30
0.0
 40
0.0079
 50
188.0000000057337104
 51
270.0000000000259774
  0
ARC
  5
16FAF
  8
0
 10
3454.8943904768439097
 20
205.0222111242474057
 30
0.0
 40
0.0079
 50
269.9999999999739089
 51
351.9999999942127147
  0
ARC
  5
16FB0
  8
0
 10
3455.012217150143897
 20
205.0222111242474057
 30
0.0
 40
0.0079
 50
269.9999999999739089
 51
351.9999999942421027
  0
ARC
  5
16FB1
  8
0
 10
3455.4336656977438906
 20
205.0222111242474057
 30
0.0
 40
0.0079
 50
188.0000000057337104
 51
270.0000000000259774
  0
ARC
  5
16FB2
  8
0
 10
3455.3567207518440227
 20
205.0222111242474057
 30
0.0
 40
0.0079
 50
188.0000000057094951
 51
270.0000000000259774
  0
ARC
  5
16FB3
  8
0
 10
3455.5269024446620278
 20
205.0222111242474057
 30
0.0
 40
0.0079
 50
269.9999999999739089
 51
351.9999999942127147
  0
ARC
  5
16FB4
  8
0
 10
3456.2251985860812056
 20
205.0222111242474057
 30
0.0
 40
0.0079
 50
188.0000000057110867
 51
270.0000000000259774
  0
ARC
  5
16FB5
  8
0
 10
3456.4292178887289992
 20
205.0222111242474057
 30
0.0
 40
0.0079
 50
269.9999999999739089
 51
351.9999999942647264
  0
ARC
  5
16FB6
  8
0
 10
3456.4352912284289232
 20
205.0222111242474057
 30
0.0
 40
0.0079
 50
269.9999999999739089
 51
351.999999994266318
  0
ARC
  5
16FB7
  8
0
 10
3456.3366534065808082
 20
205.0222111242474057
 30
0.0
 40
0.0079
 50
188.000000005735302
 51
270.0000000000259774
  0
LINE
  5
16FB8
  8
0
 10
3456.3255861859788638
 20
205.0211116567969043
 30
0.0
 11
3456.3272082373691774
 21
205.0326531526469864
 31
0.0
  0
ARC
  5
16FB9
  8
0
 10
3456.3177630682298513
 20
205.0222111242474057
 30
0.0
 40
0.0079
 50
270.0
 51
352.000000344207308
  0
LINE
  5
16FBA
  8
0
 10
3454.9070215723900219
 20
205.0553221964050863
 30
0.0
 11
3454.9118295502539695
 21
205.0211116567357124
 31
0.0
  0
ARC
  5
16FBB
  8
0
 10
3454.9196526679947965
 20
205.0222111242474057
 30
0.0
 40
0.0079
 50
188.0000001042145925
 51
269.9999999999739089
  0
LINE
  5
16FBC
  8
0
 10
3457.9496019339721897
 20
205.0211116567479905
 30
0.0
 11
3457.9569458370629036
 21
205.0733662423475039
 31
0.0
  0
LINE
  5
16FBD
  8
0
 10
3457.9359962333728618
 20
205.021111656749099
 30
0.0
 11
3457.9433401364549354
 21
205.0733662423475039
 31
0.0
  0
LINE
  5
16FBE
  8
0
 10
3457.9348933426731492
 20
205.021111656749099
 30
0.0
 11
3457.9422372457552228
 21
205.0733662423475039
 31
0.0
  0
LINE
  5
16FBF
  8
0
 10
3457.8266826250378472
 20
205.021111656749099
 30
0.0
 11
3457.819338721954864
 21
205.0733662423475039
 31
0.0
  0
LINE
  5
16FC0
  8
0
 10
3457.8345057427809479
 20
205.0143111242473992
 30
0.0
 11
3457.9417788162299985
 21
205.0143111242473992
 31
0.0
  0
ARC
  5
16FC1
  8
0
 10
3457.8345057427809479
 20
205.0222111242474057
 30
0.0
 40
0.0079
 50
188.0000000057368936
 51
270.0000000000521254
  0
ARC
  5
16FC2
  8
0
 10
3457.9270702249300484
 20
205.0222111242474057
 30
0.0
 40
0.0079
 50
269.9999999999739089
 51
351.9999999942888849
  0
ARC
  5
16FC3
  8
0
 10
3457.9281731156288515
 20
205.0222111242474057
 30
0.0
 40
0.0079
 50
269.9999999999478746
 51
351.9999999942647264
  0
ARC
  5
16FC4
  8
0
 10
3457.9417788162299985
 20
205.0222111242474057
 30
0.0
 40
0.0079
 50
269.9999999999478746
 51
351.9999999863230755
  0
LINE
  5
16FC5
  8
0
 10
3453.2261563303632101
 20
205.0733662423475039
 30
0.0
 11
3463.2144471794690617
 21
205.0733662423475039
 31
0.0
  0
LINE
  5
16FC6
  8
0
 10
3463.214564669966876
 20
205.1678544313475072
 30
0.0
 11
3453.2261563303632101
 21
205.1678544313475072
 31
0.0
  0
ARC
  5
16FC7
  8
0
 10
3453.226156561400785
 20
205.1619486885099093
 30
0.0
 40
0.0059057428420887
 50
90.0022414585822759
 51
179.9977585415267924
  0
LINE
  5
16FC8
  8
0
 10
3453.2202508185628176
 20
205.1619489195473989
 30
0.0
 11
3453.2202489233068263
 21
205.0792717541692127
 31
0.0
  0
ARC
  5
16FC9
  8
0
 10
3453.2261543001040991
 20
205.0792716187968097
 30
0.0
 40
0.0059053767983758
 50
179.9986865759113925
 51
270.019698200347591
  0
ARC
  5
16FCA
  8
0
 10
3453.484744056162981
 20
205.5536812030474039
 30
0.0
 40
0.3858267716999748
 50
270.0
 51
289.0402300408280212
  0
LINE
  5
16FCB
  8
0
 10
3453.6106130827652123
 20
205.188963112047503
 30
0.0
 11
3454.0511882251171301
 21
205.3410114082014104
 31
0.0
  0
ARC
  5
16FCC
  8
0
 10
3454.1924697840031513
 20
204.9316339637192925
 30
0.0
 40
0.4330708613282043
 50
89.999999806801398
 51
109.040230040828007
  0
LINE
  5
16FCD
  8
0
 10
3454.1924697854628903
 20
205.3647048250475109
 30
0.0
 11
3462.2507489234872082
 21
205.3647048252703939
 31
0.0
  0
ARC
  5
16FCE
  8
0
 10
3455.2675438191549802
 20
162.0784528568750034
 30
0.0
 40
1.190938089249999
 50
235.7358767983888868
 51
304.2641232016110848
  0
ARC
  5
16FCF
  8
0
 10
3455.2675438191549802
 20
162.0784528568750034
 30
0.0
 40
1.190938089249999
 50
55.7358768117538474
 51
124.2641231882461028
  0
LINE
  5
16FD0
  8
0
 10
3453.8228317793050337
 20
163.0611587098750022
 30
0.0
 11
3454.0785674412049957
 21
163.0627048254530962
 31
0.0
  0
LINE
  5
16FD1
  8
0
 10
3454.1258115357059069
 20
163.0627048254530962
 30
0.0
 11
3457.5508732617768146
 21
163.0627048254530962
 31
0.0
  0
LINE
  5
16FD2
  8
0
 10
3454.1258115357059069
 20
161.0942008884530878
 30
0.0
 11
3456.4809210461021394
 21
161.0942008884530878
 31
0.0
  0
LINE
  5
16FD3
  8
0
 10
3457.4442847601621907
 20
161.0942008884530878
 30
0.0
 11
3462.1549694918471687
 21
161.0942008884530878
 31
0.0
  0
ARC
  5
16FD4
  8
0
 10
3457.5507096520132109
 20
163.2401689664013986
 30
0.0
 40
0.177464216366733
 50
270.0528227632016183
 51
359.9472274856070158
  0
LINE
  5
16FD5
  8
0
 10
3457.7281737931061798
 20
163.2400055122749905
 30
0.0
 11
3457.7281725963471217
 21
183.423306784844101
 31
0.0
  0
ARC
  5
16FD6
  8
0
 10
3461.1730556301549768
 20
162.0784528568750034
 30
0.0
 40
1.190938089249999
 50
235.7358767983888868
 51
304.2641232016110848
  0
ARC
  5
16FD7
  8
0
 10
3461.1730556301549768
 20
162.0784528568750034
 30
0.0
 40
1.190938089249999
 50
82.9438107176199537
 51
124.2641231882461028
  0
LINE
  5
16FD8
  8
0
 10
3462.3147879136049596
 20
163.0627048254530962
 30
0.0
 11
3462.0166809692650531
 21
163.0627048254530962
 31
0.0
  0
LINE
  5
16FD9
  8
0
 10
3461.3923188925991781
 20
163.0627048254530962
 30
0.0
 11
3458.8897261875317781
 21
163.0627048254530962
 31
0.0
  0
ARC
  5
16FDA
  8
0
 10
3458.8898897972972009
 20
163.2401689664013986
 30
0.0
 40
0.177464216366733
 50
180.052772514392899
 51
269.9471772367983817
  0
LINE
  5
16FDB
  8
0
 10
3458.7124256562051414
 20
163.2400055122749905
 30
0.0
 11
3458.7124268529641995
 21
183.4232430868223958
 31
0.0
  0
ARC
  5
16FDC
  8
0
 10
3418.0241211427592134
 20
144.6912631588270131
 30
0.0
 40
47.6670319273486598
 50
13.6482511044185504
 51
22.2427124388292405
  0
ARC
  5
16FDD
  8
0
 10
3457.030766006777867
 20
154.2106470606424011
 30
0.0
 40
7.5157770391183014
 50
346.0185757991363857
 51
13.2933650558299696
  0
ARC
  5
16FDE
  8
0
 10
3417.4068951304411712
 20
144.5010663395385961
 30
0.0
 40
47.725488716328222
 50
13.6326376531974098
 51
22.1085143815835785
  0
ARC
  5
16FDF
  8
0
 10
3454.9954728250559128
 20
153.9929108932853126
 30
0.0
 40
8.9661414430902138
 50
358.7694945145876204
 51
11.2997970735033899
  0
ARC
  5
16FE0
  8
0
 10
3458.2405654121089356
 20
164.0604752880595072
 30
0.0
 40
1.077506235648745
 50
239.4045177215853926
 51
298.9225726965839272
  0
ARC
  5
16FE1
  8
0
 10
3460.1598511134311593
 20
153.8280830745626133
 30
0.0
 40
4.4038057544241536
 50
278.1478919054526955
 51
341.0060030092207057
  0
ARC
  5
16FE2
  8
0
 10
3459.2500786684008744
 20
154.9185920756553116
 30
0.0
 40
5.6616151947525379
 50
254.6730402578455994
 51
285.7197910789395792
  0
ARC
  5
16FE3
  8
0
 10
3458.2099342286151114
 20
151.3417207786989991
 30
0.0
 40
1.9378826005430621
 50
187.6993490144762973
 51
256.3788629340821785
  0
ARC
  5
16FE4
  8
0
 10
3463.7727685977229157
 20
151.9391518628027029
 30
0.0
 40
7.5321661355033642
 50
168.1087195031296915
 51
186.5336367255426921
  0
ARC
  5
16FE5
  8
0
 10
3460.4779871084010665
 20
153.6511852156612008
 30
0.0
 40
3.4847541169250968
 50
298.6004823108880828
 51
2.4535486725759958
  0
ARC
  5
16FE6
  8
0
 10
3459.2647076013231526
 20
155.9271207050018972
 30
0.0
 40
6.0638220557022784
 50
257.4745400486776248
 51
298.3713037026303141
  0
ARC
  5
16FE7
  8
0
 10
3458.23169200846678
 20
151.3680033834945959
 30
0.0
 40
1.389318683889887
 50
182.301756105299404
 51
258.2860993963873284
  0
ARC
  5
16FE8
  8
0
 10
3467.5617488279481222
 20
151.7423041609281995
 30
0.0
 40
10.7268805315995799
 50
168.198173307958001
 51
182.2979164372665934
  0
ARC
  5
16FE9
  8
0
 10
3444.7351792812492022
 20
156.1394615127236136
 30
0.0
 40
12.5217985452105705
 50
349.8660185572413752
 51
358.3515143393024118
  0
LINE
  5
16FEA
  8
0
 10
3452.0118100895051612
 20
162.6252989577141079
 30
0.0
 11
3452.0118100895051612
 21
161.5316067560358135
 31
0.0
  0
LINE
  5
16FEB
  8
0
 10
3454.1258115357059069
 20
163.0627048254530962
 30
0.0
 11
3454.1258115357059069
 21
161.0942008884530878
 31
0.0
  0
LINE
  5
16FEC
  8
0
 10
3454.0785674412049957
 20
163.0627048254530962
 30
0.0
 11
3454.0785674412049957
 21
161.0942008884530878
 31
0.0
  0
ARC
  5
16FED
  8
0
 10
3452.0317215081890936
 20
162.6225089561864934
 30
0.0
 40
0.0201059369968827
 50
91.1347113677452256
 51
172.0236081760629929
  0
ARC
  5
16FEE
  8
0
 10
3452.7520666581308433
 20
126.2543699117968998
 30
0.0
 40
36.3953782340821093
 50
89.8657604743301164
 51
91.1347113677452256
  0
ARC
  5
16FEF
  8
0
 10
3452.8577488247988185
 20
163.7433110540038115
 30
0.0
 40
1.093853243553301
 50
268.9308290134729873
 51
284.67868161431619
  0
ARC
  5
16FF0
  8
0
 10
3453.7863353059628935
 20
162.5944222780204029
 30
0.0
 40
0.46717721220406
 50
110.9099977686550034
 51
144.5358980820109878
  0
ARC
  5
16FF1
  8
0
 10
3453.8253215456747967
 20
162.3483304045925024
 30
0.0
 40
0.7128326533965513
 50
90.2001218579600845
 51
106.7740539660855035
  0
ARC
  5
16FF2
  8
0
 10
3452.9853063935129285
 20
163.2035992042372925
 30
0.0
 40
0.539599220483737
 50
286.0982226172973242
 51
321.1987520978631778
  0
LINE
  5
16FF3
  8
0
 10
3454.0785674412049957
 20
162.8875079749749943
 30
0.0
 11
3454.1258115357059069
 21
162.8875079749749943
 31
0.0
  0
LINE
  5
16FF4
  8
0
 10
3453.8228317793050337
 20
161.0957470038750046
 30
0.0
 11
3454.0785674412049957
 21
161.0942008882967968
 31
0.0
  0
ARC
  5
16FF5
  8
0
 10
3452.0317215081890936
 20
161.5343967575633997
 30
0.0
 40
0.0201059369968827
 50
187.9763918239370071
 51
268.865288632254817
  0
ARC
  5
16FF6
  8
0
 10
3452.7520666581308433
 20
197.9025358019530074
 30
0.0
 40
36.3953782340821093
 50
268.865288632254817
 51
270.1342395256698978
  0
ARC
  5
16FF7
  8
0
 10
3452.8577488247988185
 20
160.4135946597461952
 30
0.0
 40
1.093853243553301
 50
75.3213183856837816
 51
91.0691709865269416
  0
ARC
  5
16FF8
  8
0
 10
3453.7863353059628935
 20
161.5624834357294901
 30
0.0
 40
0.46717721220406
 50
215.4641019179890122
 51
249.0900022313450108
  0
ARC
  5
16FF9
  8
0
 10
3453.8253215456747967
 20
161.8085753091573906
 30
0.0
 40
0.7128326533965513
 50
253.2259460339145107
 51
269.7998781420399155
  0
ARC
  5
16FFA
  8
0
 10
3452.9853063935129285
 20
160.9533065095126858
 30
0.0
 40
0.539599220483737
 50
38.8012479021368293
 51
73.9017773827027327
  0
LINE
  5
16FFB
  8
0
 10
3454.0785674412049957
 20
161.2693977387748987
 30
0.0
 11
3454.1258115357059069
 21
161.2693977387748987
 31
0.0
  0
LINE
  5
16FFC
  8
0
 10
3462.6177676700058328
 20
163.0611587098750022
 30
0.0
 11
3462.3620320081049613
 21
163.0627048254530962
 31
0.0
  0
LINE
  5
16FFD
  8
0
 10
3464.4287893598047958
 20
162.6252989577141079
 30
0.0
 11
3464.4287893598047958
 21
161.5316067560358135
 31
0.0
  0
LINE
  5
16FFE
  8
0
 10
3462.3147879136049596
 20
163.0627048254530962
 30
0.0
 11
3462.3147879136049596
 21
162.3117844268485044
 31
0.0
  0
LINE
  5
16FFF
  8
0
 10
3462.3620320081049613
 20
163.0627048254530962
 30
0.0
 11
3462.3620320081049613
 21
162.1925657634776883
 31
0.0
  0
ARC
  5
17000
  8
0
 10
3464.4088779411208634
 20
162.6225089561864934
 30
0.0
 40
0.0201059369968827
 50
7.9763918239370231
 51
88.8652886322547744
  0
ARC
  5
17001
  8
0
 10
3463.6885327911791137
 20
126.2543699117968998
 30
0.0
 40
36.3953782340821093
 50
88.8652886322547744
 51
90.1342395256698978
  0
ARC
  5
17002
  8
0
 10
3463.5828506245111384
 20
163.7433110540038115
 30
0.0
 40
1.093853243553301
 50
255.32131838568381
 51
271.069170986526899
  0
ARC
  5
17003
  8
0
 10
3462.654264143347973
 20
162.5944222780204029
 30
0.0
 40
0.46717721220406
 50
35.4641019179890122
 51
69.0900022313450251
  0
ARC
  5
17004
  8
0
 10
3462.6152779036360698
 20
162.3483304045925024
 30
0.0
 40
0.7128326533965513
 50
73.2259460339145107
 51
89.7998781420399155
  0
ARC
  5
17005
  8
0
 10
3463.4552930557970285
 20
163.2035992042372925
 30
0.0
 40
0.539599220483737
 50
218.8012479021367938
 51
253.9017773827027042
  0
LINE
  5
17006
  8
0
 10
3462.3620320081049613
 20
162.8875079749749943
 30
0.0
 11
3462.3147879136049596
 21
162.8875079749749943
 31
0.0
  0
ARC
  5
17007
  8
0
 10
3464.4088779411208634
 20
161.5343967575633997
 30
0.0
 40
0.0201059369968827
 50
271.134711367745183
 51
352.0236081760629077
  0
ARC
  5
17008
  8
0
 10
3463.6885327911791137
 20
197.9025358019530074
 30
0.0
 40
36.3953782340821093
 50
269.8657604743301022
 51
271.134711367745183
  0
ARC
  5
17009
  8
0
 10
3463.5828506245111384
 20
160.4135946597461952
 30
0.0
 40
1.093853243553301
 50
88.9308290134730441
 51
104.6786816143162042
  0
ARC
  5
1700A
  8
0
 10
3462.654264143347973
 20
161.5624834357294901
 30
0.0
 40
0.46717721220406
 50
290.9099977686549892
 51
324.5358980820109878
  0
ARC
  5
1700B
  8
0
 10
3462.6152779036360698
 20
161.8085753091573906
 30
0.0
 40
0.7128326533965513
 50
282.7804337894140758
 51
286.7740539660854893
  0
ARC
  5
1700C
  8
0
 10
3463.4552930557970285
 20
160.9533065095126858
 30
0.0
 40
0.539599220483737
 50
106.0982226172972958
 51
141.1987520978632062
  0
ARC
  5
1700D
  8
0
 10
3459.8046283285921163
 20
185.3421935469440882
 30
0.0
 40
0.1288699135816685
 50
190.940867543050814
 51
254.5903677035848034
  0
ARC
  5
1700E
  8
0
 10
3460.2281005152399302
 20
186.2234325157432124
 30
0.0
 40
1.104755839068402
 50
245.5239077464761976
 51
294.4760922541242962
  0
ARC
  5
1700F
  8
0
 10
3460.6719416081677991
 20
185.014474655970389
 30
0.0
 40
0.0135519743295963
 50
6.144036581237434
 51
103.6677239633018957
  0
ARC
  5
17010
  8
0
 10
3439.5061880377888883
 20
184.2609693427328921
 30
0.0
 40
21.1926790246878909
 50
357.9795731294348116
 51
2.041503700866302
  0
LINE
  5
17011
  8
0
 10
3460.6564817028611287
 20
184.7512314146466963
 30
0.0
 11
3460.6770031722289787
 21
185.2139911511735875
 31
0.0
  0
LINE
  5
17012
  8
0
 10
3459.7791866063398629
 20
185.2139961550188048
 30
0.0
 11
3459.7916705301167895
 21
184.9324833077822916
 31
0.0
  0
ARC
  5
17013
  8
0
 10
3439.1107663746752223
 20
156.6684386248466865
 30
0.0
 40
17.580954004118059
 50
349.5882522768824856
 51
357.1008934039563769
  0
LINE
  5
17014
  8
0
 10
3456.4880162601048141
 20
160.8706798277750067
 30
0.0
 11
3457.4328974319050758
 21
160.8706798277750067
 31
0.0
  0
LINE
  5
17015
  8
0
 10
3456.4880162601048141
 20
161.0982231326717056
 30
0.0
 11
3456.4880162601048141
 21
160.8706798277750067
 31
0.0
  0
LINE
  5
17016
  8
0
 10
3456.5825564084661892
 20
159.4533569931749923
 30
0.0
 11
3457.3383572835427913
 21
159.4533569931749923
 31
0.0
  0
ARC
  5
17017
  8
0
 10
3456.5862266623939831
 20
159.4733075456919948
 30
0.0
 40
0.0202853471654985
 50
183.0660700888682015
 51
259.5759907922767979
  0
LINE
  5
17018
  8
0
 10
3456.5659703532951426
 20
159.4722225335619044
 30
0.0
 11
3456.5080430418029209
 21
160.8624780124748952
 31
0.0
  0
ARC
  5
17019
  8
0
 10
3456.5161641174909164
 20
160.8626672272741871
 30
0.0
 40
0.0081232796689529
 50
99.4688930229403212
 51
181.334705984776889
  0
LINE
  5
1701A
  8
0
 10
3457.4328974319050758
 20
161.1006182262815969
 30
0.0
 11
3457.4328974319050758
 21
160.8706798277750067
 31
0.0
  0
ARC
  5
1701B
  8
0
 10
3457.3346870296168163
 20
159.4733075456919948
 30
0.0
 40
0.0202853471654985
 50
280.4240092077232021
 51
356.9339299111318269
  0
LINE
  5
1701C
  8
0
 10
3457.3549433387138379
 20
159.4722225335619044
 30
0.0
 11
3457.4128706502078785
 21
160.8624780124748952
 31
0.0
  0
ARC
  5
1701D
  8
0
 10
3457.404749574518064
 20
160.8626672272741871
 30
0.0
 40
0.0081232796689529
 50
358.665294015221491
 51
80.5311069770596646
  0
ARC
  5
1701E
  8
0
 10
3456.9626029031310281
 20
160.2527861412985999
 30
0.0
 40
0.9695340056547852
 50
60.2103031109210391
 51
119.7896968890788969
  0
LINE
  5
1701F
  8
0
 10
3457.2517954156051019
 20
155.7792402584749993
 30
0.0
 11
3457.2517954156051019
 21
159.4533569931749923
 31
0.0
  0
LINE
  5
17020
  8
0
 10
3456.6692193236149251
 20
155.7792402584749993
 30
0.0
 11
3456.6692193236149251
 21
159.4533569931749923
 31
0.0
  0
LINE
  5
17021
  8
0
 10
3457.8265989372048352
 20
206.6925242141363981
 30
0.0
 11
3457.8265989372048352
 21
206.4953993627918862
 31
0.0
  0
LINE
  5
17022
  8
0
 10
3458.6140005120050773
 20
206.6925242140987962
 30
0.0
 11
3458.6140005120050773
 21
206.4953993627970021
 31
0.0
  0
LINE
  5
17023
  8
0
 10
3454.5885836979018677
 20
205.021111656749099
 30
0.0
 11
3454.5959276009848509
 21
205.0733662423475039
 31
0.0
  0
LINE
  5
17024
  8
0
 10
3454.4803729802670205
 20
205.021111656749099
 30
0.0
 11
3454.4730290771849468
 21
205.0733662423475039
 31
0.0
  0
LINE
  5
17025
  8
0
 10
3454.5807605801592217
 20
205.0143111242475129
 30
0.0
 11
3454.4881960980101212
 21
205.0143111242475129
 31
0.0
  0
ARC
  5
17026
  8
0
 10
3454.4881960980101212
 20
205.0222111242474057
 30
0.0
 40
0.0079
 50
188.0000000057337104
 51
270.0000000000259774
  0
ARC
  5
17027
  8
0
 10
3454.5807605801592217
 20
205.0222111242474057
 30
0.0
 40
0.0079
 50
269.9999999999739089
 51
351.9999999942143063
  0
LINE
  5
17028
  8
0
 10
3454.7491655692010681
 20
205.021111656749099
 30
0.0
 11
3454.7565094722831418
 21
205.0733662423475039
 31
0.0
  0
LINE
  5
17029
  8
0
 10
3454.6409548515662209
 20
205.021111656749099
 30
0.0
 11
3454.633610948482783
 21
205.0733662423475039
 31
0.0
  0
LINE
  5
1702A
  8
0
 10
3454.7413424514579674
 20
205.0143111242475129
 30
0.0
 11
3454.6487779693088669
 21
205.0143111242475129
 31
0.0
  0
ARC
  5
1702B
  8
0
 10
3454.6487779693088669
 20
205.0222111242474057
 30
0.0
 40
0.0079
 50
188.0000000057337104
 51
270.0000000000259774
  0
ARC
  5
1702C
  8
0
 10
3454.7413424514579674
 20
205.0222111242474057
 30
0.0
 40
0.0079
 50
269.9999999999739089
 51
351.9999999942143063
  0
LINE
  5
1702D
  8
0
 10
3455.2062651072451445
 20
205.021111656749099
 30
0.0
 11
3455.2136090103281276
 21
205.0733662423475039
 31
0.0
  0
LINE
  5
1702E
  8
0
 10
3455.0980543896112067
 20
205.021111656749099
 30
0.0
 11
3455.0907104865282236
 21
205.0733662423475039
 31
0.0
  0
LINE
  5
1702F
  8
0
 10
3455.1984419895029532
 20
205.0143111242475129
 30
0.0
 11
3455.1058775073529432
 21
205.0143111242475129
 31
0.0
  0
ARC
  5
17030
  8
0
 10
3455.1058775073529432
 20
205.0222111242474057
 30
0.0
 40
0.0079
 50
188.0000000057337104
 51
270.0000000000259774
  0
ARC
  5
17031
  8
0
 10
3455.1984419895029532
 20
205.0222111242474057
 30
0.0
 40
0.0079
 50
269.9999999999739089
 51
351.9999999942143063
  0
LINE
  5
17032
  8
0
 10
3455.8202693936600554
 20
205.021111656749099
 30
0.0
 11
3455.827613296742129
 21
205.0733662423475039
 31
0.0
  0
LINE
  5
17033
  8
0
 10
3455.7120586760252081
 20
205.021111656749099
 30
0.0
 11
3455.704714772942225
 21
205.0733662423475039
 31
0.0
  0
LINE
  5
17034
  8
0
 10
3455.8124462759169546
 20
205.0143111242475129
 30
0.0
 11
3455.7198817937669446
 21
205.0143111242475129
 31
0.0
  0
ARC
  5
17035
  8
0
 10
3455.7198817937669446
 20
205.0222111242474057
 30
0.0
 40
0.0079
 50
188.0000000057337104
 51
270.0000000000259774
  0
ARC
  5
17036
  8
0
 10
3455.8124462759169546
 20
205.0222111242474057
 30
0.0
 40
0.0079
 50
269.9999999999739089
 51
351.9999999942143063
  0
LINE
  5
17037
  8
0
 10
3456.1520728294349283
 20
205.021111656749099
 30
0.0
 11
3456.1594167325179114
 21
205.0733662423475039
 31
0.0
  0
LINE
  5
17038
  8
0
 10
3456.0377887721001571
 20
205.021111656749099
 30
0.0
 11
3456.0304448690180834
 21
205.0733662423475039
 31
0.0
  0
LINE
  5
17039
  8
0
 10
3456.1459994897350043
 20
205.021111656749099
 30
0.0
 11
3456.153343392817078
 21
205.0733662423475039
 31
0.0
  0
LINE
  5
1703A
  8
0
 10
3456.0456118898428031
 20
205.0143111242475129
 30
0.0
 11
3456.1442497116918275
 21
205.0143111242475129
 31
0.0
  0
ARC
  5
1703B
  8
0
 10
3456.1381763719919036
 20
205.0222111242474057
 30
0.0
 40
0.0079
 50
269.9999999999739089
 51
351.9999999942647264
  0
ARC
  5
1703C
  8
0
 10
3456.1442497116918275
 20
205.0222111242474057
 30
0.0
 40
0.0079
 50
269.9999999999739089
 51
351.999999994266318
  0
ARC
  5
1703D
  8
0
 10
3456.0456118898428031
 20
205.0222111242474057
 30
0.0
 40
0.0079
 50
188.000000005735302
 51
270.0000000000259774
  0
LINE
  5
1703E
  8
0
 10
3456.8558496536920757
 20
205.021111656749099
 30
0.0
 11
3456.8631935567741493
 21
205.0733662423475039
 31
0.0
  0
ARC
  5
1703F
  8
0
 10
3456.8480265359480654
 20
205.0222111242474057
 30
0.0
 40
0.0079
 50
269.9999999999739089
 51
351.999999994266318
  0
LINE
  5
17040
  8
0
 10
3456.8312919988320573
 20
205.021111656749099
 30
0.0
 11
3456.838635901914131
 21
205.0733662423475039
 31
0.0
  0
ARC
  5
17041
  8
0
 10
3456.823468881089866
 20
205.0222111242474057
 30
0.0
 40
0.0079
 50
269.9999999999739089
 51
351.999999994266318
  0
LINE
  5
17042
  8
0
 10
3459.7230973194118633
 20
205.0143111242475129
 30
0.0
 11
3459.5408721398680427
 21
205.0143111242475129
 31
0.0
  0
LINE
  5
17043
  8
0
 10
3459.3917330808449151
 20
205.0143111242475129
 30
0.0
 11
3459.2991685986958146
 21
205.0143111242475129
 31
0.0
  0
LINE
  5
17044
  8
0
 10
3459.0050777873198058
 20
205.0143111242475129
 30
0.0
 11
3458.8868158842719822
 21
205.0143111242473992
 31
0.0
  0
LINE
  5
17045
  8
0
 10
3458.8716488634449888
 20
205.0733662423475039
 30
0.0
 11
3458.878992766527972
 21
205.021111656749099
 31
0.0
  0
LINE
  5
17046
  8
0
 10
3458.8885778829458104
 20
205.0733662423475039
 30
0.0
 11
3458.8959217859260207
 21
205.0211116567637077
 31
0.0
  0
LINE
  5
17047
  8
0
 10
3458.8945644924460794
 20
205.0733662423475039
 30
0.0
 11
3458.9019083955290625
 21
205.021111656749099
 31
0.0
  0
LINE
  5
17048
  8
0
 10
3458.8973462843450761
 20
205.0733662423475039
 30
0.0
 11
3458.9046901874280593
 21
205.021111656749099
 31
0.0
  0
LINE
  5
17049
  8
0
 10
3459.0202448081458897
 20
205.0733662423475039
 30
0.0
 11
3459.012900905063816
 21
205.021111656749099
 31
0.0
  0
LINE
  5
1704A
  8
0
 10
3459.2913454809531686
 20
205.021111656749099
 30
0.0
 11
3459.2847299557101906
 21
205.0681835647278888
 31
0.0
  0
LINE
  5
1704B
  8
0
 10
3459.5330490221240325
 20
205.021111656749099
 30
0.0
 11
3459.5257051190419588
 21
205.0733662423475039
 31
0.0
  0
LINE
  5
1704C
  8
0
 10
3459.6227097195201168
 20
205.021111656749099
 30
0.0
 11
3459.6153658164380431
 21
205.0733662423475039
 31
0.0
  0
LINE
  5
1704D
  8
0
 10
3459.730920437154964
 20
205.021111656749099
 30
0.0
 11
3459.7382643402379472
 21
205.0733662423475039
 31
0.0
  0
ARC
  5
1704E
  8
0
 10
3459.2991685986958146
 20
205.0222111242474057
 30
0.0
 40
0.0079
 50
188.0000000057385137
 51
270.0000000000521254
  0
ARC
  5
1704F
  8
0
 10
3459.3917330808449151
 20
205.0222111242474057
 30
0.0
 40
0.0079
 50
270.0000000000259774
 51
300.2550804623448926
  0
ARC
  5
17050
  8
0
 10
3459.5408721398680427
 20
205.0222111242474057
 30
0.0
 40
0.0079
 50
188.0000000057337104
 51
270.0000000000259774
  0
ARC
  5
17051
  8
0
 10
3459.6305328372632175
 20
205.0222111242474057
 30
0.0
 40
0.0079
 50
188.000000005756192
 51
270.0
  0
ARC
  5
17052
  8
0
 10
3459.7230973194118633
 20
205.0222111242474057
 30
0.0
 40
0.0079
 50
270.0
 51
351.9999999942158979
  0
ARC
  5
17053
  8
0
 10
3458.91251330517116
 20
205.0222111242474057
 30
0.0
 40
0.0079
 50
188.0000000058130922
 51
270.0000000000259774
  0
ARC
  5
17054
  8
0
 10
3458.909731513270799
 20
205.0222111242474057
 30
0.0
 40
0.0079
 50
188.000000005756192
 51
270.0
  0
ARC
  5
17055
  8
0
 10
3458.9037449036709404
 20
205.0222111242474057
 30
0.0
 40
0.0079
 50
187.9999998983597891
 51
269.9999999999218971
  0
ARC
  5
17056
  8
0
 10
3458.8868158842719822
 20
205.0222111242474057
 30
0.0
 40
0.0079
 50
188.0000000057594889
 51
270.0000000000259774
  0
ARC
  5
17057
  8
0
 10
3459.0050777873198058
 20
205.0222111242474057
 30
0.0
 40
0.0079
 50
270.0
 51
351.999999994243808
  0
LINE
  5
17058
  8
0
 10
3459.2702913127241118
 20
205.0143111242475129
 30
0.0
 11
3459.1484780628511544
 21
205.0143111242475129
 31
0.0
  0
LINE
  5
17059
  8
0
 10
3459.169903712831001
 20
205.021111656749099
 30
0.0
 11
3459.1625598097489274
 21
205.0733662423475039
 31
0.0
  0
LINE
  5
1705A
  8
0
 10
3459.2781144304672125
 20
205.021111656749099
 30
0.0
 11
3459.2854583335488314
 21
205.0733662423475039
 31
0.0
  0
ARC
  5
1705B
  8
0
 10
3459.1777268305741018
 20
205.0222111242474057
 30
0.0
 40
0.0079
 50
188.0000000057385137
 51
270.0000000000521254
  0
ARC
  5
1705C
  8
0
 10
3459.2702913127241118
 20
205.0222111242474057
 30
0.0
 40
0.0079
 50
270.0000000000259774
 51
351.9999999942469913
  0
LINE
  5
1705D
  8
0
 10
3459.1406549451080537
 20
205.021111656749099
 30
0.0
 11
3459.13331104202598
 21
205.0733662423475039
 31
0.0
  0
ARC
  5
1705E
  8
0
 10
3459.1484780628511544
 20
205.0222111242474057
 30
0.0
 40
0.0079
 50
188.0000000057385137
 51
270.0000000000521254
  0
LINE
  5
1705F
  8
0
 10
3459.4922584020328031
 20
205.0143111242475129
 30
0.0
 11
3459.3996939198841574
 21
205.0143111242475129
 31
0.0
  0
LINE
  5
17060
  8
0
 10
3459.3918708021410566
 20
205.021111656749099
 30
0.0
 11
3459.384526899058983
 21
205.0733662423475039
 31
0.0
  0
LINE
  5
17061
  8
0
 10
3459.5000815197759039
 20
205.021111656749099
 30
0.0
 11
3459.507425422858887
 21
205.0733662423475039
 31
0.0
  0
ARC
  5
17062
  8
0
 10
3459.3996939198841574
 20
205.0222111242474057
 30
0.0
 40
0.0079
 50
188.0000000057385137
 51
270.0000000000521254
  0
ARC
  5
17063
  8
0
 10
3459.4922584020328031
 20
205.0222111242474057
 30
0.0
 40
0.0079
 50
270.0000000000259774
 51
351.9999999942469913
  0
LINE
  5
17064
  8
0
 10
3459.997485103137933
 20
205.021111656749099
 30
0.0
 11
3459.9901412000549499
 21
205.0733662423475039
 31
0.0
  0
LINE
  5
17065
  8
0
 10
3460.111769160473159
 20
205.021111656749099
 30
0.0
 11
3460.1191130635547779
 21
205.0733662423475039
 31
0.0
  0
LINE
  5
17066
  8
0
 10
3460.003558442837857
 20
205.021111656749099
 30
0.0
 11
3459.9962145397548738
 21
205.0733662423475039
 31
0.0
  0
LINE
  5
17067
  8
0
 10
3460.9058738869039189
 20
205.021111656749099
 30
0.0
 11
3460.8985299838218452
 21
205.0733662423475039
 31
0.0
  0
LINE
  5
17068
  8
0
 10
3461.4205591814229592
 20
205.021111656749099
 30
0.0
 11
3461.4132152783399761
 21
205.0733662423475039
 31
0.0
  0
LINE
  5
17069
  8
0
 10
3461.5383858547229465
 20
205.021111656749099
 30
0.0
 11
3461.5310419516399634
 21
205.0733662423475039
 31
0.0
  0
LINE
  5
1706A
  8
0
 10
3462.1652700663480573
 20
205.021111656749099
 30
0.0
 11
3462.1579261632659836
 21
205.0733662423475039
 31
0.0
  0
LINE
  5
1706B
  8
0
 10
3462.36169369911795
 20
205.021111656749099
 30
0.0
 11
3462.3543497960349669
 21
205.0733662423475039
 31
0.0
  0
LINE
  5
1706C
  8
0
 10
3462.470576681521834
 20
205.021111656749099
 30
0.0
 11
3462.4779205846048171
 21
205.0733662423475039
 31
0.0
  0
LINE
  5
1706D
  8
0
 10
3462.541553962621947
 20
205.021111656749099
 30
0.0
 11
3462.5488978657040207
 21
205.0733662423475039
 31
0.0
  0
LINE
  5
1706E
  8
0
 10
3462.2734807839829045
 20
205.021111656749099
 30
0.0
 11
3462.2808246870649782
 21
205.0733662423475039
 31
0.0
  0
LINE
  5
1706F
  8
0
 10
3461.6465965723577938
 20
205.021111656749099
 30
0.0
 11
3461.6539404754398674
 21
205.0733662423475039
 31
0.0
  0
LINE
  5
17070
  8
0
 10
3461.0917018152099445
 20
205.021111656749099
 30
0.0
 11
3461.0990457182920181
 21
205.0733662423475039
 31
0.0
  0
LINE
  5
17071
  8
0
 10
3461.0147568693091671
 20
205.021111656749099
 30
0.0
 11
3461.0221007723921502
 21
205.0733662423475039
 31
0.0
  0
LINE
  5
17072
  8
0
 10
3460.2232239809718521
 20
205.021111656749099
 30
0.0
 11
3460.2305678840548353
 21
205.0733662423475039
 31
0.0
  0
LINE
  5
17073
  8
0
 10
3460.1039460427300583
 20
205.0143111242475129
 30
0.0
 11
3460.0053082208810338
 21
205.0143111242475129
 31
0.0
  0
LINE
  5
17074
  8
0
 10
3460.1228363810801056
 20
205.0143111242475129
 30
0.0
 11
3460.2154008632301156
 21
205.0143111242475129
 31
0.0
  0
LINE
  5
17075
  8
0
 10
3460.9136970046479291
 20
205.0143111242475129
 30
0.0
 11
3461.0838786974659342
 21
205.0143111242475129
 31
0.0
  0
LINE
  5
17076
  8
0
 10
3461.4283822991651505
 20
205.0143111242475129
 30
0.0
 11
3461.5209467813151605
 21
205.0143111242475129
 31
0.0
  0
LINE
  5
17077
  8
0
 10
3461.5462089724651378
 20
205.0143111242475129
 30
0.0
 11
3461.6387734546151478
 21
205.0143111242475129
 31
0.0
  0
LINE
  5
17078
  8
0
 10
3462.1730931840897938
 20
205.0143111242475129
 30
0.0
 11
3462.2656576662398038
 21
205.0143111242475129
 31
0.0
  0
LINE
  5
17079
  8
0
 10
3462.3695168168610508
 20
205.0143111242475129
 30
0.0
 11
3462.5337308448788463
 21
205.0143111242475129
 31
0.0
  0
ARC
  5
1707A
  8
0
 10
3462.3695168168610508
 20
205.0222111242474057
 30
0.0
 40
0.0079
 50
188.0000000057889054
 51
270.0000000000259774
  0
ARC
  5
1707B
  8
0
 10
3462.462753563779188
 20
205.0222111242474057
 30
0.0
 40
0.0079
 50
269.9999999999739089
 51
351.999999994266318
  0
ARC
  5
1707C
  8
0
 10
3462.5337308448788463
 20
205.0222111242474057
 30
0.0
 40
0.0079
 50
269.9999999999478746
 51
351.9999999942647264
  0
ARC
  5
1707D
  8
0
 10
3462.2656576662398038
 20
205.0222111242474057
 30
0.0
 40
0.0079
 50
269.9999999999739089
 51
351.999999994266318
  0
ARC
  5
1707E
  8
0
 10
3462.1730931840897938
 20
205.0222111242474057
 30
0.0
 40
0.0079
 50
188.0000000057856937
 51
270.0
  0
ARC
  5
1707F
  8
0
 10
3461.6387734546151478
 20
205.0222111242474057
 30
0.0
 40
0.0079
 50
269.9999999999739089
 51
351.999999994266318
  0
ARC
  5
17080
  8
0
 10
3461.5462089724651378
 20
205.0222111242474057
 30
0.0
 40
0.0079
 50
188.0000000057873137
 51
270.0000000000259774
  0
ARC
  5
17081
  8
0
 10
3461.4283822991651505
 20
205.0222111242474057
 30
0.0
 40
0.0079
 50
188.000000005757812
 51
270.0
  0
ARC
  5
17082
  8
0
 10
3461.0069337515660663
 20
205.0222111242474057
 30
0.0
 40
0.0079
 50
269.9999999999739089
 51
351.999999994266318
  0
ARC
  5
17083
  8
0
 10
3461.0838786974659342
 20
205.0222111242474057
 30
0.0
 40
0.0079
 50
269.9999999999739089
 51
351.9999999942904765
  0
ARC
  5
17084
  8
0
 10
3460.9136970046479291
 20
205.0222111242474057
 30
0.0
 40
0.0079
 50
188.0000000057873137
 51
270.0000000000259774
  0
ARC
  5
17085
  8
0
 10
3460.2154008632301156
 20
205.0222111242474057
 30
0.0
 40
0.0079
 50
269.9999999999739089
 51
351.9999999942888849
  0
ARC
  5
17086
  8
0
 10
3460.0113815605800482
 20
205.0222111242474057
 30
0.0
 40
0.0079
 50
188.000000005735302
 51
270.0000000000259774
  0
ARC
  5
17087
  8
0
 10
3460.0053082208810338
 20
205.0222111242474057
 30
0.0
 40
0.0079
 50
188.0000000057337104
 51
270.0000000000259774
  0
ARC
  5
17088
  8
0
 10
3460.1039460427300583
 20
205.0222111242474057
 30
0.0
 40
0.0079
 50
269.9999999999739089
 51
351.9999999942647264
  0
LINE
  5
17089
  8
0
 10
3460.1150132633310932
 20
205.0211116567969043
 30
0.0
 11
3460.1133912119407796
 21
205.0326531526469864
 31
0.0
  0
ARC
  5
1708A
  8
0
 10
3460.1228363810801056
 20
205.0222111242474057
 30
0.0
 40
0.0079
 50
187.999999655792692
 51
270.0
  0
LINE
  5
1708B
  8
0
 10
3461.5335778769199351
 20
205.0553221964050863
 30
0.0
 11
3461.5287698990559875
 21
205.0211116567357124
 31
0.0
  0
ARC
  5
1708C
  8
0
 10
3461.5209467813151605
 20
205.0222111242474057
 30
0.0
 40
0.0079
 50
270.0
 51
351.9999998957853791
  0
LINE
  5
1708D
  8
0
 10
3458.4909975153368578
 20
205.0211116567479905
 30
0.0
 11
3458.4836536122479629
 21
205.0733662423475039
 31
0.0
  0
LINE
  5
1708E
  8
0
 10
3458.5046032159370952
 20
205.021111656749099
 30
0.0
 11
3458.4972593128550216
 21
205.0733662423475039
 31
0.0
  0
LINE
  5
1708F
  8
0
 10
3458.5057061066368078
 20
205.021111656749099
 30
0.0
 11
3458.4983622035551889
 21
205.0733662423475039
 31
0.0
  0
LINE
  5
17090
  8
0
 10
3458.6139168242730193
 20
205.021111656749099
 30
0.0
 11
3458.621260727355093
 21
205.0733662423475039
 31
0.0
  0
LINE
  5
17091
  8
0
 10
3458.6060937065299186
 20
205.0143111242473992
 30
0.0
 11
3458.498820633080868
 21
205.0143111242473992
 31
0.0
  0
ARC
  5
17092
  8
0
 10
3458.6060937065299186
 20
205.0222111242474057
 30
0.0
 40
0.0079
 50
269.9999999999478746
 51
351.999999994263078
  0
ARC
  5
17093
  8
0
 10
3458.5135292243808181
 20
205.0222111242474057
 30
0.0
 40
0.0079
 50
188.0000000057110867
 51
270.0000000000259774
  0
ARC
  5
17094
  8
0
 10
3458.512426333680196
 20
205.0222111242474057
 30
0.0
 40
0.0079
 50
188.000000005735302
 51
270.0000000000259774
  0
ARC
  5
17095
  8
0
 10
3458.498820633080868
 20
205.0222111242474057
 30
0.0
 40
0.0079
 50
188.0000000136768108
 51
270.0000000000521254
  0
ARC
  5
17096
  8
0
 10
3463.2144406661859648
 20
205.1619477681909984
 30
0.0
 40
0.0059079646734119
 50
0.0111659217472318
 51
88.7973159269923542
  0
LINE
  5
17097
  8
0
 10
3463.2203486307480489
 20
205.1619489195473989
 30
0.0
 11
3463.2203505260031307
 21
205.0792717541692127
 31
0.0
  0
ARC
  5
17098
  8
0
 10
3463.2144451492072221
 20
205.0792716187968097
 30
0.0
 40
0.0059053767983758
 50
269.980301799652409
 51
0.001313424090163
  0
ARC
  5
17099
  8
0
 10
3462.955855393146976
 20
205.5536812030474039
 30
0.0
 40
0.3858267716999748
 50
250.9597699591720072
 51
270.0
  0
LINE
  5
1709A
  8
0
 10
3462.8299863665451994
 20
205.188963112047503
 30
0.0
 11
3462.3894112241919174
 21
205.3410114082014104
 31
0.0
  0
ARC
  5
1709B
  8
0
 10
3462.2480543965762081
 20
204.9313382451967982
 30
0.0
 40
0.4333749568213454
 50
70.9631177484148026
 51
89.6437588003130088
  0
LINE
  5
1709C
  8
0
 10
3461.8520157514080893
 20
205.021111656749099
 30
0.0
 11
3461.8446718483251061
 21
205.0733662423475039
 31
0.0
  0
LINE
  5
1709D
  8
0
 10
3461.9602264690429365
 20
205.021111656749099
 30
0.0
 11
3461.9675703721250102
 21
205.0733662423475039
 31
0.0
  0
LINE
  5
1709E
  8
0
 10
3461.85983886915119
 20
205.0143111242475129
 30
0.0
 11
3461.9524033512998358
 21
205.0143111242475129
 31
0.0
  0
ARC
  5
1709F
  8
0
 10
3461.9524033512998358
 20
205.0222111242474057
 30
0.0
 40
0.0079
 50
269.9999999999739089
 51
351.999999994266318
  0
ARC
  5
170A0
  8
0
 10
3461.85983886915119
 20
205.0222111242474057
 30
0.0
 40
0.0079
 50
188.0000000057856937
 51
270.0
  0
LINE
  5
170A1
  8
0
 10
3461.6914338801097983
 20
205.021111656749099
 30
0.0
 11
3461.6840899770268152
 21
205.0733662423475039
 31
0.0
  0
LINE
  5
170A2
  8
0
 10
3461.7996445977441908
 20
205.021111656749099
 30
0.0
 11
3461.806988500827174
 21
205.0733662423475039
 31
0.0
  0
LINE
  5
170A3
  8
0
 10
3461.6992569978519896
 20
205.0143111242475129
 30
0.0
 11
3461.7918214800019996
 21
205.0143111242475129
 31
0.0
  0
ARC
  5
170A4
  8
0
 10
3461.7918214800019996
 20
205.0222111242474057
 30
0.0
 40
0.0079
 50
269.9999999999739089
 51
351.999999994266318
  0
ARC
  5
170A5
  8
0
 10
3461.6992569978519896
 20
205.0222111242474057
 30
0.0
 40
0.0079
 50
188.0000000057856937
 51
270.0
  0
LINE
  5
170A6
  8
0
 10
3461.234334342063903
 20
205.021111656749099
 30
0.0
 11
3461.2269904389809199
 21
205.0733662423475039
 31
0.0
  0
LINE
  5
170A7
  8
0
 10
3461.342545059699205
 20
205.021111656749099
 30
0.0
 11
3461.3498889627808239
 21
205.0733662423475039
 31
0.0
  0
LINE
  5
170A8
  8
0
 10
3461.2421574598070038
 20
205.0143111242475129
 30
0.0
 11
3461.3347219419561043
 21
205.0143111242475129
 31
0.0
  0
ARC
  5
170A9
  8
0
 10
3461.3347219419561043
 20
205.0222111242474057
 30
0.0
 40
0.0079
 50
269.9999999999739089
 51
351.999999994266318
  0
ARC
  5
170AA
  8
0
 10
3461.2421574598070038
 20
205.0222111242474057
 30
0.0
 40
0.0079
 50
188.0000000057856937
 51
270.0
  0
LINE
  5
170AB
  8
0
 10
3460.6203300556499016
 20
205.021111656749099
 30
0.0
 11
3460.6129861525669185
 21
205.0733662423475039
 31
0.0
  0
LINE
  5
170AC
  8
0
 10
3460.7285407732852036
 20
205.021111656749099
 30
0.0
 11
3460.7358846763681868
 21
205.0733662423475039
 31
0.0
  0
LINE
  5
170AD
  8
0
 10
3460.6281531733939119
 20
205.0143111242475129
 30
0.0
 11
3460.7207176555421029
 21
205.0143111242475129
 31
0.0
  0
ARC
  5
170AE
  8
0
 10
3460.7207176555421029
 20
205.0222111242474057
 30
0.0
 40
0.0079
 50
269.9999999999739089
 51
351.999999994266318
  0
ARC
  5
170AF
  8
0
 10
3460.6281531733939119
 20
205.0222111242474057
 30
0.0
 40
0.0079
 50
188.0000000057856937
 51
270.0
  0
LINE
  5
170B0
  8
0
 10
3460.2885266198750287
 20
205.021111656749099
 30
0.0
 11
3460.281182716792955
 21
205.0733662423475039
 31
0.0
  0
LINE
  5
170B1
  8
0
 10
3460.4028106772111641
 20
205.021111656749099
 30
0.0
 11
3460.4101545802927831
 21
205.0733662423475039
 31
0.0
  0
LINE
  5
170B2
  8
0
 10
3460.2945999595758622
 20
205.021111656749099
 30
0.0
 11
3460.287256056492879
 21
205.0733662423475039
 31
0.0
  0
LINE
  5
170B3
  8
0
 10
3460.3949875594671539
 20
205.0143111242475129
 30
0.0
 11
3460.2963497376181294
 21
205.0143111242475129
 31
0.0
  0
ARC
  5
170B4
  8
0
 10
3460.3024230773180534
 20
205.0222111242474057
 30
0.0
 40
0.0079
 50
188.000000005735302
 51
270.0000000000259774
  0
ARC
  5
170B5
  8
0
 10
3460.2963497376181294
 20
205.0222111242474057
 30
0.0
 40
0.0079
 50
188.0000000057337104
 51
270.0000000000259774
  0
ARC
  5
170B6
  8
0
 10
3460.3949875594671539
 20
205.0222111242474057
 30
0.0
 40
0.0079
 50
269.9999999999739089
 51
351.9999999942647264
  0
LINE
  5
170B7
  8
0
 10
3459.5847497956187908
 20
205.021111656749099
 30
0.0
 11
3459.5774058925358077
 21
205.0733662423475039
 31
0.0
  0
ARC
  5
170B8
  8
0
 10
3459.5925729133618916
 20
205.0222111242474057
 30
0.0
 40
0.0079
 50
188.0000000057337104
 51
270.0000000000259774
  0
LINE
  5
170B9
  8
0
 10
3459.6093074504769902
 20
205.021111656749099
 30
0.0
 11
3459.6019635473949165
 21
205.0733662423475039
 31
0.0
  0
ARC
  5
170BA
  8
0
 10
3459.6171305682210004
 20
205.0222111242474057
 30
0.0
 40
0.0079
 50
188.0000000057337104
 51
270.0000000000259774
  0
ENDSEC
  0
EOF
