  0
SECTION
  2
HEADER
  9
$ACADVER
  1
AC1009
  9
$INSBASE
 10
3654.5251094702739465
 20
134.0188929480958109
 30
0.0
  9
$EXTMIN
 10
3652.3226094661122261
 20
132.7788929659919006
 30
0.0
  9
$EXTMAX
 10
3654.5361768640400442
 20
135.2588929659920041
 30
0.0
  9
$LIMMIN
 10
0.0
 20
0.0
  9
$LIMMAX
 10
11.6929133858000007
 20
8.2677165353999982
  9
$ORTHOMODE
 70
     1
  9
$REGENMODE
 70
     1
  9
$FILLMODE
 70
     1
  9
$QTEXTMODE
 70
     0
  9
$MIRRTEXT
 70
     0
  9
$DRAGMODE
 70
     2
  9
$LTSCALE
 40
0.6431102362
  9
$OSMODE
 70
  4095
  9
$ATTMODE
 70
     1
  9
$TEXTSIZE
 40
0.2
  9
$TRACEWID
 40
0.05
  9
$TEXTSTYLE
  7
STANDARD
  9
$CLAYER
  8
0
  9
$CELTYPE
  6
BYLAYER
  9
$CECOLOR
 62
   256
  9
$DIMSCALE
 40
1.0
  9
$DIMASZ
 40
0.1875
  9
$DIMEXO
 40
0.0625
  9
$DIMDLI
 40
0.4443307087
  9
$DIMRND
 40
0.0
  9
$DIMDLE
 40
0.0
  9
$DIMEXE
 40
0.125
  9
$DIMTP
 40
0.01
  9
$DIMTM
 40
0.01
  9
$DIMTXT
 40
2.0
  9
$DIMCEN
 40
0.1052362205
  9
$DIMTSZ
 40
0.0
  9
$DIMTOL
 70
     1
  9
$DIMLIM
 70
     0
  9
$DIMTIH
 70
     1
  9
$DIMTOH
 70
     1
  9
$DIMSE1
 70
     0
  9
$DIMSE2
 70
     0
  9
$DIMTAD
 70
     0
  9
$DIMZIN
 70
     0
  9
$DIMBLK
  1

  9
$DIMASO
 70
     1
  9
$DIMSHO
 70
     1
  9
$DIMPOST
  1
\X
  9
$DIMAPOST
  1

  9
$DIMALT
 70
     1
  9
$DIMALTD
 70
     2
  9
$DIMALTF
 40
25.3999999999999986
  9
$DIMLFAC
 40
1.0
  9
$DIMTOFL
 70
     0
  9
$DIMTVP
 40
0.0
  9
$DIMTIX
 70
     0
  9
$DIMSOXD
 70
     0
  9
$DIMSAH
 70
     0
  9
$DIMBLK1
  1

  9
$DIMBLK2
  1

  9
$DIMSTYLE
  2
STANDARD
  9
$DIMCLRD
 70
     0
  9
$DIMCLRE
 70
     0
  9
$DIMCLRT
 70
     0
  9
$DIMTFAC
 40
1.0
  9
$DIMGAP
 40
0.09
  9
$LUNITS
 70
     2
  9
$LUPREC
 70
     4
  9
$SKETCHINC
 40
0.1
  9
$FILLETRAD
 40
0.0
  9
$AUNITS
 70
     0
  9
$AUPREC
 70
     0
  9
$MENU
  1
.
  9
$ELEVATION
 40
0.0
  9
$PELEVATION
 40
0.0
  9
$THICKNESS
 40
0.0
  9
$LIMCHECK
 70
     0
  9
$BLIPMODE
 70
     0
  9
$CHAMFERA
 40
0.0
  9
$CHAMFERB
 40
0.0
  9
$SKPOLY
 70
     0
  9
$TDCREATE
 40
2458060.468368056230247
  9
$TDUPDATE
 40
2459894.4123726850375533
  9
$TDINDWG
 40
0.3369515046
  9
$TDUSRTIMER
 40
0.3369515046
  9
$USRTIMER
 70
     1
  9
$ANGBASE
 50
0.0
  9
$ANGDIR
 70
     0
  9
$PDMODE
 70
     0
  9
$PDSIZE
 40
0.3125
  9
$PLINEWID
 40
0.0
  9
$COORDS
 70
     1
  9
$SPLFRAME
 70
     0
  9
$SPLINETYPE
 70
     6
  9
$SPLINESEGS
 70
     8
  9
$ATTDIA
 70
     1
  9
$ATTREQ
 70
     1
  9
$HANDLING
 70
     1
  9
$HANDSEED
  5
135CC
  9
$SURFTAB1
 70
     6
  9
$SURFTAB2
 70
     6
  9
$SURFTYPE
 70
     6
  9
$SURFU
 70
     6
  9
$SURFV
 70
     6
  9
$UCSNAME
  2

  9
$UCSORG
 10
0.0
 20
0.0
 30
0.0
  9
$UCSXDIR
 10
1.0
 20
0.0
 30
0.0
  9
$UCSYDIR
 10
0.0
 20
1.0
 30
0.0
  9
$PUCSNAME
  2

  9
$PUCSORG
 10
0.0
 20
0.0
 30
0.0
  9
$PUCSXDIR
 10
1.0
 20
0.0
 30
0.0
  9
$PUCSYDIR
 10
0.0
 20
1.0
 30
0.0
  9
$USERI1
 70
     0
  9
$USERI2
 70
     0
  9
$USERI3
 70
     0
  9
$USERI4
 70
     0
  9
$USERI5
 70
     0
  9
$USERR1
 40
0.0
  9
$USERR2
 40
0.0
  9
$USERR3
 40
0.0
  9
$USERR4
 40
0.0
  9
$USERR5
 40
0.0
  9
$WORLDVIEW
 70
     1
  9
$SHADEDGE
 70
     3
  9
$SHADEDIF
 70
    70
  9
$TILEMODE
 70
     1
  9
$MAXACTVP
 70
    64
  9
$PLIMCHECK
 70
     0
  9
$PEXTMIN
 10
1.0000000000000000E+20
 20
1.0000000000000000E+20
 30
1.0000000000000000E+20
  9
$PEXTMAX
 10
-1.0000000000000000E+20
 20
-1.0000000000000000E+20
 30
-1.0000000000000000E+20
  9
$PLIMMIN
 10
0.0
 20
0.0
  9
$PLIMMAX
 10
12.0
 20
9.0
  9
$UNITMODE
 70
     0
  9
$VISRETAIN
 70
     1
  9
$PLINEGEN
 70
     0
  9
$PSLTSCALE
 70
     1
  0
ENDSEC
  0
SECTION
  2
TABLES
  0
TABLE
  2
VPORT
 70
     1
  0
VPORT
  2
*ACTIVE
 70
     0
 10
0.0
 20
0.0
 11
1.0
 21
1.0
 12
-150.114674217736308
 22
8.0236307692420894
 13
0.0
 23
0.0
 14
1.0
 24
1.0
 15
0.0
 25
0.0
 16
0.0
 26
0.0
 36
17.1152628219792007
 17
3803.5440673828129547
 27
125.9952621967499056
 37
0.0
 40
2.4977565632459271
 41
2.2831541218637992
 42
50.0
 43
0.0
 44
0.0
 50
0.0
 51
0.0
 71
     0
 72
   100
 73
     1
 74
     1
 75
     0
 76
     0
 77
     0
 78
     0
  0
ENDTAB
  0
TABLE
  2
LTYPE
 70
     2
  0
LTYPE
  2
CONTINUOUS
 70
     0
  3
Solid line
 72
    65
 73
     0
 40
0.0
  0
LTYPE
  2
PHANTOM2
 70
     0
  3
___ _ _ ___ _ _ ___ _ _ ___ _ _
 72
    65
 73
     6
 40
1.25
 49
0.625
 49
-0.125
 49
0.125
 49
-0.125
 49
0.125
 49
-0.125
  0
ENDTAB
  0
TABLE
  2
LAYER
 70
     2
  0
LAYER
  2
0
 70
     0
 62
   255
  6
CONTINUOUS
  0
LAYER
  2
DEFPOINTS
 70
     0
 62
     7
  6
CONTINUOUS
  0
ENDTAB
  0
TABLE
  2
STYLE
 70
     1
  0
STYLE
  2
STANDARD
 70
     0
 40
0.0
 41
0.8
 50
0.0
 71
     0
 42
0.2
  3
txt
  4

  0
ENDTAB
  0
TABLE
  2
VIEW
 70
     0
  0
ENDTAB
  0
TABLE
  2
UCS
 70
     0
  0
ENDTAB
  0
TABLE
  2
APPID
 70
     9
  0
APPID
  2
ACAD
 70
     0
  0
APPID
  2
ACAD_MLEADERVER
 70
     0
  0
APPID
  2
ACAD_EXEMPT_FROM_CAD_STANDARDS
 70
     0
  0
APPID
  2
ACAD_NAV_VCDISPLAY
 70
     0
  0
APPID
  2
ACAECLAYERSTANDARD
 70
     0
  0
APPID
  2
ACCMTRANSPARENCY
 70
     0
  0
APPID
  2
ACAD_DSTYLE_DIMJAG
 70
     0
  0
APPID
  2
ACAD_DSTYLE_DIMTALN
 70
     0
  0
APPID
  2
ACDBATTR
 70
     0
  0
ENDTAB
  0
TABLE
  2
DIMSTYLE
 70
     1
  0
DIMSTYLE
  2
STANDARD
 70
     0
  3

  4

  5

  6

  7

 40
1.0
 41
0.1875
 42
0.0625
 43
0.38
 44
0.125
 45
0.0
 46
0.0
 47
0.01
 48
0.01
140
0.15625
141
0.09
142
0.0
143
25.3999999999999986
144
1.0
145
0.0
146
1.0
147
0.09
 71
     1
 72
     0
 73
     1
 74
     1
 75
     0
 76
     0
 77
     0
 78
     4
170
     0
171
     2
172
     0
173
     0
174
     0
175
     0
176
     0
177
     0
178
     0
  0
ENDTAB
  0
ENDSEC
  0
SECTION
  2
BLOCKS
  0
BLOCK
  8
0
  2
$MODEL_SPACE
 70
     0
 10
0.0
 20
0.0
 30
0.0
  3
$MODEL_SPACE
  1

  0
ENDBLK
  5
21
  8
0
  0
BLOCK
 67
     1
  8
0
  2
$PAPER_SPACE
 70
     0
 10
0.0
 20
0.0
 30
0.0
  3
$PAPER_SPACE
  1

  0
ENDBLK
  5
1D
 67
     1
  8
0
  0
ENDSEC
  0
SECTION
  2
ENTITIES
  0
ATTDEF
  5
12FEB
  8
DEFPOINTS
 10
3654.5255101973721139
 20
134.0229148995890114
 30
0.0
 40
0.001
  1
K-976W
  3

  2
MODELNUMBER
 70
     0
1001
ACDBATTR
1070
     0
1070
     1
  0
ATTDEF
  5
12FEC
  8
DEFPOINTS
 10
3654.5255101973721139
 20
134.0212482329224031
 30
0.0
 40
0.001
  1
STILLNESS/PURIST
  3

  2
TRADENAME
 70
     0
1001
ACDBATTR
1070
     0
1070
     1
  0
ATTDEF
  5
12FED
  8
DEFPOINTS
 10
3654.5255101973721139
 20
134.0195815662557095
 30
0.0
 40
0.001
  1
SUPPLY ELBOW
  3

  2
PRODUCT
 70
     0
1001
ACDBATTR
1070
     0
1070
     1
  0
LINE
  5
132D1
  8
0
 10
3654.5251094702739465
 20
132.818892930199496
 30
0.0
 11
3654.5251094702739465
 21
135.218892965992012
 31
0.0
  0
LINE
  5
132D2
  8
0
 10
3654.0751094702741284
 20
132.8188929659920063
 30
0.0
 11
3654.0751094702741284
 21
135.218892965992012
 31
0.0
  0
ARC
  5
132D3
  8
0
 10
3654.4851094702739829
 20
132.8188929659920916
 30
0.0
 40
0.0400000000000258
 50
270.0000000000259774
 51
359.9999487202398996
  0
LINE
  5
132D4
  8
0
 10
3654.4851094702739829
 20
132.7788929659920996
 30
0.0
 11
3654.115109470274092
 21
132.7788929659919006
 31
0.0
  0
ARC
  5
132D5
  8
0
 10
3654.115109470274092
 20
132.8188929659918927
 30
0.0
 40
0.0399999999999867
 50
179.9999999998404121
 51
270.0000000000259774
  0
ARC
  5
132D6
  8
0
 10
3654.115109470274092
 20
135.218892965992012
 30
0.0
 40
0.0399999999999956
 50
90.0
 51
180.0000000000032117
  0
LINE
  5
132D7
  8
0
 10
3654.115109470274092
 20
135.2588929659920041
 30
0.0
 11
3654.4851094702739829
 21
135.2588929659920041
 31
0.0
  0
ARC
  5
132D8
  8
0
 10
3654.4851094702739829
 20
135.218892965992012
 30
0.0
 40
0.0400000000000009
 50
0.0000000000260551
 51
90.0
  0
LINE
  5
132D9
  8
0
 10
3654.0751094702741284
 20
134.8413929659919859
 30
0.0
 11
3653.1451094702738374
 21
134.8413929659180894
 31
0.0
  0
ARC
  5
132DA
  8
0
 10
3653.1451094703388662
 20
134.0188929616905114
 30
0.0
 40
0.8225000042275695
 50
90.0000000045596522
 51
209.9357687764029947
  0
ARC
  5
132DB
  8
0
 10
3652.475672641427991
 20
133.6333934077794083
 30
0.0
 40
0.0500004417879594
 50
209.9357687764029947
 51
269.9997157542144919
  0
LINE
  5
132DC
  8
0
 10
3652.4756723933742251
 20
133.5833929659920045
 30
0.0
 11
3653.6451091241588074
 21
133.5833871643874033
 31
0.0
  0
ARC
  5
132DD
  8
0
 10
3653.6451078838958892
 20
133.3333855779027886
 30
0.0
 40
0.250001586487634
 50
0.001693214577108
 51
89.9997157542144492
  0
LINE
  5
132DE
  8
0
 10
3653.8951094702738374
 20
133.3333929659920045
 30
0.0
 11
3653.8951120413130411
 21
133.2463929687299924
 31
0.0
  0
ARC
  5
132DF
  8
0
 10
3653.9451135218450872
 20
133.2463944463823111
 30
0.0
 40
0.0500014805543579
 50
180.001693214575397
 51
269.9953573789056236
  0
LINE
  5
132E0
  8
0
 10
3653.9451094702740193
 20
133.1963929659920041
 30
0.0
 11
3654.0751094702741284
 21
133.1963824322189112
 31
0.0
  0
LINE
  5
132E1
  8
0
 10
3652.7101094702738919
 20
133.5833929659920045
 30
0.0
 11
3652.7101094702738919
 21
133.4833929659920102
 31
0.0
  0
ARC
  5
132E2
  8
0
 10
3652.7701094702738374
 20
133.4833929659920102
 30
0.0
 40
0.0600000000000005
 50
180.0
 51
270.0
  0
LINE
  5
132E3
  8
0
 10
3652.7701094702738374
 20
133.4233929659920079
 30
0.0
 11
3653.5201094702738374
 21
133.4233929659920079
 31
0.0
  0
ARC
  5
132E4
  8
0
 10
3653.5201094702738374
 20
133.4833929659920102
 30
0.0
 40
0.060000000000001
 50
270.0
 51
359.9999999999984084
  0
LINE
  5
132E5
  8
0
 10
3653.5801094702737828
 20
133.4833929659920102
 30
0.0
 11
3653.5801094702737828
 21
133.5833929659920045
 31
0.0
  0
LINE
  5
132E6
  8
0
 10
3652.7876094702742193
 20
133.4233929659920079
 30
0.0
 11
3652.7876094702742193
 21
133.2833929659919932
 31
0.0
  0
LINE
  5
132E7
  8
0
 10
3652.7876094702742193
 20
133.2833929659919932
 30
0.0
 11
3652.7334189335738301
 21
133.2292023612920104
 31
0.0
  0
LINE
  5
132E8
  8
0
 10
3652.7334189335738301
 20
133.2292023612920104
 30
0.0
 11
3652.7671041431740377
 21
133.2096629768919911
 31
0.0
  0
LINE
  5
132E9
  8
0
 10
3652.7671041431740377
 20
133.2096629768919911
 30
0.0
 11
3652.7326094702739283
 21
133.1872370937919925
 31
0.0
  0
LINE
  5
132EA
  8
0
 10
3653.5026094702739101
 20
133.4233929659920079
 30
0.0
 11
3653.5026094702739101
 21
133.2833929659919932
 31
0.0
  0
LINE
  5
132EB
  8
0
 10
3653.5026094702739101
 20
133.2833929659919932
 30
0.0
 11
3653.5576094702742012
 21
133.2178480443920137
 31
0.0
  0
LINE
  5
132EC
  8
0
 10
3652.7382492720439586
 20
133.0577531642215092
 30
0.0
 11
3652.7876094702742193
 21
133.0083929659919875
 31
0.0
  0
LINE
  5
132ED
  8
0
 10
3652.7876094702742193
 20
133.0083929659919875
 30
0.0
 11
3653.5026094702739101
 21
133.0083929659919875
 31
0.0
  0
LINE
  5
132EE
  8
0
 10
3653.5026094702739101
 20
133.0083929659919875
 30
0.0
 11
3653.5576094702742012
 21
133.0702556419921052
 31
0.0
  0
LINE
  5
132EF
  8
0
 10
3652.7876094702742193
 20
133.2833929659919932
 30
0.0
 11
3653.5026094702739101
 21
133.2833929659919932
 31
0.0
  0
LINE
  5
13312
  8
0
 10
3653.5576094702742012
 20
133.2178480443920137
 30
0.0
 11
3653.5225079063739031
 21
133.1869271071921048
 31
0.0
  0
LINE
  5
13313
  8
0
 10
3653.5225079063739031
 20
133.1869271071921048
 30
0.0
 11
3653.5576094702742012
 21
133.1646408809920104
 31
0.0
  0
LINE
  5
13314
  8
0
 10
3653.5576094702742012
 20
133.1646408809920104
 30
0.0
 11
3653.5229269859728447
 21
133.1421198844682863
 31
0.0
  0
LINE
  5
13315
  8
0
 10
3653.5229269859728447
 20
133.1421198844682863
 30
0.0
 11
3653.5576094702742012
 21
133.1195764740421055
 31
0.0
  0
LINE
  5
13316
  8
0
 10
3653.5576094702742012
 20
133.1195764740421055
 30
0.0
 11
3653.5231304447288494
 21
133.0971603185278127
 31
0.0
  0
LINE
  5
13317
  8
0
 10
3653.5231304447288494
 20
133.0971603185278127
 30
0.0
 11
3653.5576094702742012
 21
133.0702556419921052
 31
0.0
  0
LINE
  5
13318
  8
0
 10
3652.7382492724741496
 20
133.0577531638921016
 30
0.0
 11
3652.7672751729742231
 21
133.0746666061920109
 31
0.0
  0
LINE
  5
13319
  8
0
 10
3652.7672751729742231
 20
133.0746666061920109
 30
0.0
 11
3652.7326094702739283
 21
133.0972006446419869
 31
0.0
  0
LINE
  5
1331A
  8
0
 10
3652.7326094702739283
 20
133.0972006446419869
 30
0.0
 11
3652.7670986801749677
 21
133.1196237798920095
 31
0.0
  0
LINE
  5
1331B
  8
0
 10
3652.7670986801749677
 20
133.1196237798920095
 30
0.0
 11
3652.7326094702739283
 21
133.1420469827421016
 31
0.0
  0
LINE
  5
1331C
  8
0
 10
3652.7326094702739283
 20
133.1420469827421016
 30
0.0
 11
3652.767396888573785
 21
133.164642474292009
 31
0.0
  0
LINE
  5
1331D
  8
0
 10
3652.767396888573785
 20
133.164642474292009
 30
0.0
 11
3652.7326094702739283
 21
133.1872370937919925
 31
0.0
  0
LINE
  5
1331E
  8
0
 10
3653.4723449493740191
 20
133.2283929659919863
 30
0.0
 11
3653.5023449493728549
 21
133.2083929659920045
 31
0.0
  0
LINE
  5
1331F
  8
0
 10
3653.5023449493728549
 20
133.2083929659920045
 30
0.0
 11
3653.5023449493728549
 21
133.2283929659919863
 31
0.0
  0
LINE
  5
13320
  8
0
 10
3653.49136418727403
 20
133.2410724579920043
 30
0.0
 11
3653.5023449493728549
 21
133.2283929659919863
 31
0.0
  0
LINE
  5
13321
  8
0
 10
3653.49136418727403
 20
133.2410724579920043
 30
0.0
 11
3653.4723449493740191
 21
133.2283929659919863
 31
0.0
  0
LINE
  5
13322
  8
0
 10
3653.5023449493728549
 20
133.2283929659919863
 30
0.0
 11
3653.5576094702742012
 21
133.2178480443920137
 31
0.0
  0
LINE
  5
13323
  8
0
 10
3653.49136418727403
 20
133.2410724579920043
 30
0.0
 11
3652.7334612471740911
 21
133.2290988923919883
 31
0.0
  0
LINE
  5
13324
  8
0
 10
3652.7671041431740377
 20
133.2096629768919911
 30
0.0
 11
3653.4723449493740191
 21
133.2283929659919863
 31
0.0
  0
LINE
  5
13325
  8
0
 10
3653.5225079063739031
 20
133.1869271071921048
 30
0.0
 11
3652.767396888573785
 21
133.164642474292009
 31
0.0
  0
LINE
  5
13326
  8
0
 10
3652.7326094702739283
 20
133.1872370937919925
 30
0.0
 11
3653.5023449493728549
 21
133.2083929659920045
 31
0.0
  0
LINE
  5
13327
  8
0
 10
3652.7326094702739283
 20
133.1420469827421016
 30
0.0
 11
3653.5576094702742012
 21
133.1646408809920104
 31
0.0
  0
LINE
  5
13328
  8
0
 10
3653.5229269859728447
 20
133.1421198844682863
 30
0.0
 11
3652.7670986801749677
 21
133.1196237798920095
 31
0.0
  0
LINE
  5
13329
  8
0
 10
3652.7326094702739283
 20
133.0972006446419869
 30
0.0
 11
3653.5576094702742012
 21
133.1195764740421055
 31
0.0
  0
LINE
  5
1332A
  8
0
 10
3653.5231304447288494
 20
133.0971603185278127
 30
0.0
 11
3652.7672751729742231
 21
133.0746666061920109
 31
0.0
  0
LINE
  5
1332B
  8
0
 10
3652.7382492724741496
 20
133.0577531638921016
 30
0.0
 11
3653.5576094702742012
 21
133.0702556419921052
 31
0.0
  0
ENDSEC
  0
EOF
